  0
SECTION
  2
HEADER
  9
$ACADVER
  1
AC1014
  9
$ACADMAINTVER
 70
     9
  9
$DWGCODEPAGE
  3
ANSI_1252
  9
$INSBASE
 10
0.0
 20
0.0
 30
0.0
  9
$EXTMIN
 10
-2.450640831115194
 20
11.70918330285139
 30
-0.0000428463125299
  9
$EXTMAX
 10
18.55064090716754
 20
27.71084577211839
 30
1.404137944149164
  9
$LIMMIN
 10
0.0
 20
0.0
  9
$LIMMAX
 10
12.0
 20
9.0
  9
$ORTHOMODE
 70
     1
  9
$REGENMODE
 70
     1
  9
$FILLMODE
 70
     1
  9
$QTEXTMODE
 70
     0
  9
$MIRRTEXT
 70
     1
  9
$DRAGMODE
 70
     2
  9
$LTSCALE
 40
1.0
  9
$OSMODE
 70
    37
  9
$ATTMODE
 70
     1
  9
$TEXTSIZE
 40
0.2
  9
$TRACEWID
 40
0.05
  9
$TEXTSTYLE
  7
STANDARD
  9
$CLAYER
  8
0
  9
$CELTYPE
  6
BYLAYER
  9
$CECOLOR
 62
   256
  9
$CELTSCALE
 40
1.0
  9
$DELOBJ
 70
     1
  9
$DISPSILH
 70
     0
  9
$DIMSCALE
 40
1.0
  9
$DIMASZ
 40
0.18
  9
$DIMEXO
 40
0.0625
  9
$DIMDLI
 40
0.38
  9
$DIMRND
 40
0.0
  9
$DIMDLE
 40
0.0
  9
$DIMEXE
 40
0.18
  9
$DIMTP
 40
0.0
  9
$DIMTM
 40
0.0
  9
$DIMTXT
 40
0.18
  9
$DIMCEN
 40
0.09
  9
$DIMTSZ
 40
0.0
  9
$DIMTOL
 70
     0
  9
$DIMLIM
 70
     0
  9
$DIMTIH
 70
     1
  9
$DIMTOH
 70
     1
  9
$DIMSE1
 70
     0
  9
$DIMSE2
 70
     0
  9
$DIMTAD
 70
     0
  9
$DIMZIN
 70
     0
  9
$DIMBLK
  1

  9
$DIMASO
 70
     1
  9
$DIMSHO
 70
     1
  9
$DIMPOST
  1
"
  9
$DIMAPOST
  1

  9
$DIMALT
 70
     0
  9
$DIMALTD
 70
     2
  9
$DIMALTF
 40
25.4
  9
$DIMLFAC
 40
1.0
  9
$DIMTOFL
 70
     0
  9
$DIMTVP
 40
0.0
  9
$DIMTIX
 70
     0
  9
$DIMSOXD
 70
     0
  9
$DIMSAH
 70
     0
  9
$DIMBLK1
  1

  9
$DIMBLK2
  1

  9
$DIMSTYLE
  2
STANDARD
  9
$DIMCLRD
 70
     0
  9
$DIMCLRE
 70
     0
  9
$DIMCLRT
 70
     0
  9
$DIMTFAC
 40
1.0
  9
$DIMGAP
 40
0.09
  9
$DIMJUST
 70
     0
  9
$DIMSD1
 70
     0
  9
$DIMSD2
 70
     0
  9
$DIMTOLJ
 70
     1
  9
$DIMTZIN
 70
     0
  9
$DIMALTZ
 70
     0
  9
$DIMALTTZ
 70
     0
  9
$DIMFIT
 70
     3
  9
$DIMUPT
 70
     0
  9
$DIMUNIT
 70
     2
  9
$DIMDEC
 70
     2
  9
$DIMTDEC
 70
     2
  9
$DIMALTU
 70
     2
  9
$DIMALTTD
 70
     2
  9
$DIMTXSTY
  7
STANDARD
  9
$DIMAUNIT
 70
     0
  9
$LUNITS
 70
     2
  9
$LUPREC
 70
     4
  9
$SKETCHINC
 40
0.1
  9
$FILLETRAD
 40
0.5
  9
$AUNITS
 70
     0
  9
$AUPREC
 70
     0
  9
$MENU
  1
.
  9
$ELEVATION
 40
0.0
  9
$PELEVATION
 40
0.0
  9
$THICKNESS
 40
0.0
  9
$LIMCHECK
 70
     0
  9
$BLIPMODE
 70
     0
  9
$CHAMFERA
 40
0.5
  9
$CHAMFERB
 40
0.5
  9
$CHAMFERC
 40
1.0
  9
$CHAMFERD
 40
0.0
  9
$SKPOLY
 70
     0
  9
$TDCREATE
 40
2454995.355283113
  9
$TDUPDATE
 40
2458038.579190555
  9
$TDINDWG
 40
0.0239419444
  9
$TDUSRTIMER
 40
0.0239419444
  9
$USRTIMER
 70
     1
  9
$ANGBASE
 50
0.0
  9
$ANGDIR
 70
     0
  9
$PDMODE
 70
     0
  9
$PDSIZE
 40
0.0
  9
$PLINEWID
 40
0.0
  9
$COORDS
 70
     1
  9
$SPLFRAME
 70
     0
  9
$SPLINETYPE
 70
     6
  9
$SPLINESEGS
 70
     8
  9
$ATTDIA
 70
     0
  9
$ATTREQ
 70
     1
  9
$HANDLING
 70
-16383
  9
$HANDSEED
  5
39D
  9
$SURFTAB1
 70
     6
  9
$SURFTAB2
 70
     6
  9
$SURFTYPE
 70
     6
  9
$SURFU
 70
     6
  9
$SURFV
 70
     6
  9
$UCSNAME
  2

  9
$UCSORG
 10
0.0
 20
0.0
 30
0.0
  9
$UCSXDIR
 10
1.0
 20
0.0
 30
0.0
  9
$UCSYDIR
 10
0.0
 20
1.0
 30
0.0
  9
$PUCSNAME
  2

  9
$PUCSORG
 10
0.0
 20
0.0
 30
0.0
  9
$PUCSXDIR
 10
1.0
 20
0.0
 30
0.0
  9
$PUCSYDIR
 10
0.0
 20
1.0
 30
0.0
  9
$USERI1
 70
     0
  9
$USERI2
 70
     0
  9
$USERI3
 70
     0
  9
$USERI4
 70
     0
  9
$USERI5
 70
     0
  9
$USERR1
 40
0.0
  9
$USERR2
 40
0.0
  9
$USERR3
 40
0.0
  9
$USERR4
 40
0.0
  9
$USERR5
 40
0.0
  9
$WORLDVIEW
 70
     1
  9
$SHADEDGE
 70
     3
  9
$SHADEDIF
 70
    70
  9
$TILEMODE
 70
     1
  9
$MAXACTVP
 70
    64
  9
$PINSBASE
 10
0.0
 20
0.0
 30
0.0
  9
$PLIMCHECK
 70
     0
  9
$PEXTMIN
 10
0.0
 20
0.0
 30
0.0
  9
$PEXTMAX
 10
0.0
 20
0.0
 30
0.0
  9
$PLIMMIN
 10
0.0
 20
0.0
  9
$PLIMMAX
 10
12.0
 20
9.0
  9
$UNITMODE
 70
     0
  9
$VISRETAIN
 70
     1
  9
$PLINEGEN
 70
     0
  9
$PSLTSCALE
 70
     1
  9
$TREEDEPTH
 70
  3020
  9
$PICKSTYLE
 70
     1
  9
$CMLSTYLE
  2
STANDARD
  9
$CMLJUST
 70
     0
  9
$CMLSCALE
 40
1.0
  9
$PROXYGRAPHICS
 70
     1
  9
$MEASUREMENT
 70
     0
  0
ENDSEC
  0
SECTION
  2
CLASSES
  0
CLASS
  1
ACDBDICTIONARYWDFLT
  2
AcDbDictionaryWithDefault
  3
AutoCAD 2000
 90
        0
280
     0
281
     0
  0
CLASS
  1
ACDBPLACEHOLDER
  2
AcDbPlaceHolder
  3
AutoCAD 2000
 90
        0
280
     0
281
     0
  0
CLASS
  1
LAYOUT
  2
AcDbLayout
  3
AutoCAD 2000
 90
        0
280
     0
281
     0
  0
CLASS
  1
LONG_TRANSACTION
  2
AcDbLongTransaction
  3
AutoCAD 2000
 90
        0
280
     0
281
     0
  0
CLASS
  1
LWPOLYLINE
  2
AcDbPolyline
  3
AutoCAD 2000
 90
        0
280
     0
281
     1
  0
CLASS
  1
HATCH
  2
AcDbHatch
  3
AutoCAD 2000
 90
        0
280
     0
281
     1
  0
CLASS
  1
XRECORD
  2
AcDbXrecord
  3
AutoCAD 2000
 90
        0
280
     0
281
     0
  0
ENDSEC
  0
SECTION
  2
TABLES
  0
TABLE
  2
VPORT
  5
8
330
0
100
AcDbSymbolTable
 70
    10
  0
VPORT
  5
376
330
8
100
AcDbSymbolTableRecord
100
AcDbViewportTableRecord
  2
*ACTIVE
 70
     0
 10
0.0
 20
0.0
 11
1.0
 21
1.0
 12
-0.5498168063354889
 22
22.2637381017309
 13
0.0
 23
0.0
 14
0.001
 24
0.001
 15
0.001
 25
0.001
 16
0.0
 26
0.0
 36
1.0
 17
0.0
 27
0.0
 37
0.0
 40
25.20777755602705
 41
2.077702702702702
 42
50.0
 43
0.0
 44
0.0
 50
0.0
 51
0.0
 71
     0
 72
   100
 73
     1
 74
     3
 75
     1
 76
     1
 77
     0
 78
     0
  0
ENDTAB
  0
TABLE
  2
LTYPE
  5
5
330
0
100
AcDbSymbolTable
 70
     1
  0
LTYPE
  5
14
330
5
100
AcDbSymbolTableRecord
100
AcDbLinetypeTableRecord
  2
BYBLOCK
 70
     0
  3

 72
    65
 73
     0
 40
0.0
  0
LTYPE
  5
15
330
5
100
AcDbSymbolTableRecord
100
AcDbLinetypeTableRecord
  2
BYLAYER
 70
     0
  3

 72
    65
 73
     0
 40
0.0
  0
LTYPE
  5
16
330
5
100
AcDbSymbolTableRecord
100
AcDbLinetypeTableRecord
  2
CONTINUOUS
 70
     0
  3
Solid line
 72
    65
 73
     0
 40
0.0
  0
ENDTAB
  0
TABLE
  2
LAYER
  5
2
330
0
100
AcDbSymbolTable
 70
     3
  0
LAYER
  5
10
330
2
100
AcDbSymbolTableRecord
100
AcDbLayerTableRecord
  2
0
 70
     0
 62
     7
  6
CONTINUOUS
  0
LAYER
  5
BA
330
2
100
AcDbSymbolTableRecord
100
AcDbLayerTableRecord
  2
CASE
 70
     0
 62
     7
  6
CONTINUOUS
  0
LAYER
  5
BB
330
2
100
AcDbSymbolTableRecord
100
AcDbLayerTableRecord
  2
TITLE_BLOCK
 70
     0
 62
     7
  6
CONTINUOUS
  0
ENDTAB
  0
TABLE
  2
STYLE
  5
3
330
0
100
AcDbSymbolTable
 70
     2
  0
STYLE
  5
11
330
3
100
AcDbSymbolTableRecord
100
AcDbTextStyleTableRecord
  2
STANDARD
 70
     0
 40
0.0
 41
1.0
 50
0.0
 71
     0
 42
0.2
  3
txt
  4

  0
STYLE
  5
BC
330
3
100
AcDbSymbolTableRecord
100
AcDbTextStyleTableRecord
  2
ROMAN
 70
     0
 40
0.0
 41
1.0
 50
0.0
 71
     0
 42
0.065
  3
romans
  4

  0
ENDTAB
  0
TABLE
  2
VIEW
  5
6
330
0
100
AcDbSymbolTable
 70
     0
  0
ENDTAB
  0
TABLE
  2
UCS
  5
7
330
0
100
AcDbSymbolTable
 70
     0
  0
ENDTAB
  0
TABLE
  2
APPID
  5
9
330
0
100
AcDbSymbolTable
 70
     1
  0
APPID
  5
12
330
9
100
AcDbSymbolTableRecord
100
AcDbRegAppTableRecord
  2
ACAD
 70
     0
  0
ENDTAB
  0
TABLE
  2
DIMSTYLE
  5
A
330
0
100
AcDbSymbolTable
 70
     1
  0
DIMSTYLE
105
27
330
A
100
AcDbSymbolTableRecord
100
AcDbDimStyleTableRecord
  2
STANDARD
 70
     0
  3
"
  4

  5

  6

  7

 40
1.0
 41
0.18
 42
0.0625
 43
0.38
 44
0.18
 45
0.0
 46
0.0
 47
0.0
 48
0.0
140
0.18
141
0.09
142
0.0
143
25.4
144
1.0
145
0.0
146
1.0
147
0.09
 71
     0
 72
     0
 73
     1
 74
     1
 75
     0
 76
     0
 77
     0
 78
     0
170
     0
171
     2
172
     0
173
     0
174
     0
175
     0
176
     0
177
     0
178
     0
270
     2
271
     2
272
     2
273
     2
274
     2
340
11
275
     0
280
     0
281
     0
282
     0
283
     1
284
     0
285
     0
286
     0
287
     3
288
     0
  0
ENDTAB
  0
TABLE
  2
BLOCK_RECORD
  5
1
330
0
100
AcDbSymbolTable
 70
     2
  0
BLOCK_RECORD
  5
1F
102
{ACAD_XDICTIONARY
360
397
102
}
330
1
100
AcDbSymbolTableRecord
100
AcDbBlockTableRecord
  2
*MODEL_SPACE
  0
BLOCK_RECORD
  5
58
102
{ACAD_XDICTIONARY
360
399
102
}
330
1
100
AcDbSymbolTableRecord
100
AcDbBlockTableRecord
  2
*PAPER_SPACE
  0
BLOCK_RECORD
  5
6D
330
1
100
AcDbSymbolTableRecord
100
AcDbBlockTableRecord
  2
A$C5DD9786F
  0
ENDTAB
  0
ENDSEC
  0
SECTION
  2
BLOCKS
  0
BLOCK
  5
20
330
1F
100
AcDbEntity
  8
0
100
AcDbBlockBegin
  2
*MODEL_SPACE
 70
     0
 10
0.0
 20
0.0
 30
0.0
  3
*MODEL_SPACE
  1

  0
ENDBLK
  5
21
330
1F
100
AcDbEntity
  8
0
100
AcDbBlockEnd
  0
BLOCK
  5
5A
330
58
100
AcDbEntity
 67
     1
  8
0
100
AcDbBlockBegin
  2
*PAPER_SPACE
 70
     0
 10
0.0
 20
0.0
 30
0.0
  3
*PAPER_SPACE
  1

  0
ENDBLK
  5
5B
330
58
100
AcDbEntity
 67
     1
  8
0
100
AcDbBlockEnd
  0
BLOCK
  5
B8
330
6D
100
AcDbEntity
  8
0
100
AcDbBlockBegin
  2
A$C5DD9786F
 70
     2
 10
0.0
 20
0.0
 30
0.0
  3
A$C5DD9786F
  1

  0
SOLID
  5
6E
330
6D
100
AcDbEntity
  8
TITLE_BLOCK
100
AcDbTrace
 10
10.55000001942052
 20
15.40000000241486
 30
0.0
 11
10.85000001942053
 21
15.40000000241486
 31
0.0
 12
10.70000001942052
 22
15.25000000241486
 32
0.0
 13
10.70000001942052
 23
15.25000000241486
 33
0.0
  0
SOLID
  5
6F
330
6D
100
AcDbEntity
  8
TITLE_BLOCK
100
AcDbTrace
 10
10.55000001942052
 20
0.6000000024148649
 30
0.0
 11
10.85000001942053
 21
0.6000000024148649
 31
0.0
 12
10.70000001942052
 22
0.7500000024148648
 32
0.0
 13
10.70000001942052
 23
0.7500000024148648
 33
0.0
  0
LINE
  5
70
330
6D
100
AcDbEntity
  8
TITLE_BLOCK
100
AcDbLine
 10
20.70000001942053
 20
15.25000000241486
 30
0.0
 11
0.7000000194205285
 21
15.25000000241486
 31
0.0
  0
LINE
  5
71
330
6D
100
AcDbEntity
  8
TITLE_BLOCK
100
AcDbLine
 10
0.7000000194205285
 20
0.7500000024148648
 30
0.0
 11
20.70000001942053
 21
0.7500000024148648
 31
0.0
  0
LINE
  5
72
330
6D
100
AcDbEntity
  8
TITLE_BLOCK
100
AcDbLine
 10
21.20000001942052
 20
16.00000000241486
 30
0.0
 11
0.2000000194205285
 21
16.00000000241486
 31
0.0
  0
LINE
  5
73
330
6D
100
AcDbEntity
  8
TITLE_BLOCK
100
AcDbLine
 10
0.2000000194205285
 20
0.0000000024148648
 30
0.0
 11
21.20000001942052
 21
0.0000000024148648
 31
0.0
  0
LWPOLYLINE
  5
74
330
6D
100
AcDbEntity
  8
TITLE_BLOCK
100
AcDbPolyline
 90
        2
 70
     0
 43
0.02
 10
0.4500000194205285
 20
8.000000002414864
 10
0.5500000194205228
 20
8.000000002414864
  0
SOLID
  5
75
330
6D
100
AcDbEntity
  8
TITLE_BLOCK
100
AcDbTrace
 10
0.5500000194205228
 20
7.850000002414864
 30
0.0
 11
0.5500000194205228
 21
8.150000002414865
 31
0.0
 12
0.7000000194205285
 22
8.000000002414864
 32
0.0
 13
0.7000000194205285
 23
8.000000002414864
 33
0.0
  0
LINE
  5
76
330
6D
100
AcDbEntity
  8
TITLE_BLOCK
100
AcDbLine
 10
0.7000000194205285
 20
15.25000000241486
 30
0.0
 11
0.7000000194205285
 21
0.7500000024148648
 31
0.0
  0
LINE
  5
77
330
6D
100
AcDbEntity
  8
TITLE_BLOCK
100
AcDbLine
 10
0.2000000194205285
 20
16.00000000241486
 30
0.0
 11
0.2000000194205285
 21
0.0000000024148648
 31
0.0
  0
ATTDEF
  5
78
330
6D
100
AcDbEntity
  8
0
 62
     0
100
AcDbText
 10
0.1500000194205285
 20
0.0000000024148648
 30
0.0
 40
0.15
  1

 50
90.0
  7
ROMAN
100
AcDbAttributeDefinition
  3
Author:
  2
USER
 70
     8
  0
TEXT
  5
79
330
6D
100
AcDbEntity
  8
TITLE_BLOCK
100
AcDbText
 10
0.3428571622776713
 20
2.000000002414864
 30
0.0
 40
0.25
  1
A
  7
ROMAN
 72
     1
 11
0.4500000194205285
 21
2.125000002414864
 31
0.0
100
AcDbText
 73
     2
  0
TEXT
  5
7A
330
6D
100
AcDbEntity
  8
TITLE_BLOCK
100
AcDbText
 10
2.825000019420528
 20
0.3750000024148647
 30
0.0
 40
0.25
  1
4
  7
ROMAN
 72
     1
 11
2.950000019420528
 21
0.5000000024148648
 31
0.0
100
AcDbText
 73
     2
  0
LINE
  5
7B
330
6D
100
AcDbEntity
  8
TITLE_BLOCK
100
AcDbLine
 10
0.3250000194205285
 20
4.000000002414864
 30
0.0
 11
0.7000000194205285
 21
4.000000002414864
 31
0.0
  0
ATTDEF
  5
7C
330
6D
100
AcDbEntity
  8
0
 62
     0
100
AcDbText
 10
0.1500000194205285
 20
3.000000002414864
 30
0.0
 40
0.15
  1

 50
90.0
  7
ROMAN
100
AcDbAttributeDefinition
  3
Revision date:
  2
REVDATE
 70
     8
  0
ATTDEF
  5
7D
330
6D
100
AcDbEntity
  8
0
 62
     0
100
AcDbText
 10
0.1500000194205285
 20
6.000000002414864
 30
0.0
 40
0.15
  1

 50
90.0
  7
ROMAN
100
AcDbAttributeDefinition
  3
File name:
  2
FNAME
 70
     8
  0
TEXT
  5
7E
330
6D
100
AcDbEntity
  8
TITLE_BLOCK
100
AcDbText
 10
0.3190476384681475
 20
6.000000002414864
 30
0.0
 40
0.25
  1
B
  7
ROMAN
 72
     1
 11
0.4500000194205285
 21
6.125000002414864
 31
0.0
100
AcDbText
 73
     2
  0
LINE
  5
7F
330
6D
100
AcDbEntity
  8
TITLE_BLOCK
100
AcDbLine
 10
5.450000019420524
 20
0.3750000024148647
 30
0.0
 11
5.450000019420524
 21
0.7500000024148648
 31
0.0
  0
TEXT
  5
80
330
6D
100
AcDbEntity
  8
TITLE_BLOCK
100
AcDbText
 10
8.080952400372909
 20
0.3750000024148647
 30
0.0
 40
0.25
  1
3
  7
ROMAN
 72
     1
 11
8.200000019420528
 21
0.5000000024148648
 31
0.0
100
AcDbText
 73
     2
  0
LINE
  5
81
330
6D
100
AcDbEntity
  8
TITLE_BLOCK
100
AcDbLine
 10
0.3250000194205285
 20
12.00000000241486
 30
0.0
 11
0.7000000194205285
 21
12.00000000241486
 31
0.0
  0
TEXT
  5
82
330
6D
100
AcDbEntity
  8
TITLE_BLOCK
100
AcDbText
 10
0.3250000194205285
 20
9.750000002414864
 30
0.0
 40
0.25
  1
C
  7
ROMAN
 72
     1
 11
0.4500000194205285
 21
9.875000002414864
 31
0.0
100
AcDbText
 73
     2
  0
TEXT
  5
83
330
6D
100
AcDbEntity
  8
TITLE_BLOCK
100
AcDbText
 10
0.3190476384681475
 20
13.75000000241486
 30
0.0
 40
0.25
  1
D
  7
ROMAN
 72
     1
 11
0.4500000194205285
 21
13.87500000241486
 31
0.0
100
AcDbText
 73
     2
  0
TEXT
  5
84
330
6D
100
AcDbEntity
  8
TITLE_BLOCK
100
AcDbText
 10
2.825000019420528
 20
15.37500000241486
 30
0.0
 40
0.25
  1
4
  7
ROMAN
 72
     1
 11
2.950000019420528
 21
15.50000000241486
 31
0.0
100
AcDbText
 73
     2
  0
LINE
  5
85
330
6D
100
AcDbEntity
  8
TITLE_BLOCK
100
AcDbLine
 10
5.450000019420524
 20
15.25000000241486
 30
0.0
 11
5.450000019420524
 21
15.62500000241486
 31
0.0
  0
TEXT
  5
86
330
6D
100
AcDbEntity
  8
TITLE_BLOCK
100
AcDbText
 10
8.080952400372909
 20
15.37500000241486
 30
0.0
 40
0.25
  1
3
  7
ROMAN
 72
     1
 11
8.200000019420528
 21
15.50000000241486
 31
0.0
100
AcDbText
 73
     2
  0
LWPOLYLINE
  5
87
330
6D
100
AcDbEntity
  8
TITLE_BLOCK
100
AcDbPolyline
 90
        2
 70
     0
 43
0.02
 10
20.95000001942052
 20
8.000000002414864
 10
20.85000001942053
 20
8.000000002414864
  0
SOLID
  5
88
330
6D
100
AcDbEntity
  8
TITLE_BLOCK
100
AcDbTrace
 10
20.85000001942053
 20
7.850000002414864
 30
0.0
 11
20.85000001942053
 21
8.150000002414865
 31
0.0
 12
20.70000001942053
 22
8.000000002414864
 32
0.0
 13
20.70000001942053
 23
8.000000002414864
 33
0.0
  0
LINE
  5
89
330
6D
100
AcDbEntity
  8
TITLE_BLOCK
100
AcDbLine
 10
20.70000001942053
 20
0.7500000024148648
 30
0.0
 11
20.70000001942053
 21
15.25000000241486
 31
0.0
  0
LINE
  5
8A
330
6D
100
AcDbEntity
  8
TITLE_BLOCK
100
AcDbLine
 10
21.20000001942052
 20
0.0000000024148648
 30
0.0
 11
21.20000001942052
 21
16.00000000241486
 31
0.0
  0
TEXT
  5
8B
330
6D
100
AcDbEntity
  8
TITLE_BLOCK
100
AcDbText
 10
16.89890001942052
 20
1.265900002414864
 30
0.0
 40
0.065
  1
FSCM NO.
  7
ROMAN
100
AcDbText
  0
LINE
  5
8C
330
6D
100
AcDbEntity
  8
TITLE_BLOCK
100
AcDbLine
 10
16.45000001942053
 20
2.000000002414864
 30
0.0
 11
20.70000001942053
 21
2.000000002414864
 31
0.0
  0
LINE
  5
8D
330
6D
100
AcDbEntity
  8
TITLE_BLOCK
100
AcDbLine
 10
16.45000001942053
 20
1.000000002414864
 30
0.0
 11
20.70000001942053
 21
1.000000002414864
 31
0.0
  0
LINE
  5
8E
330
6D
100
AcDbEntity
  8
TITLE_BLOCK
100
AcDbLine
 10
14.45000001942053
 20
1.380000002414864
 30
0.0
 11
20.70000001942053
 21
1.380000002414864
 31
0.0
  0
LINE
  5
8F
330
6D
100
AcDbEntity
  8
TITLE_BLOCK
100
AcDbLine
 10
14.45000001942053
 20
2.500000002414864
 30
0.0
 11
20.70000001942053
 21
2.500000002414864
 31
0.0
  0
TEXT
  5
90
330
6D
100
AcDbEntity
  8
TITLE_BLOCK
100
AcDbText
 10
13.08095240037291
 20
0.3750000024148647
 30
0.0
 40
0.25
  1
2
  7
ROMAN
 72
     1
 11
13.20000001942053
 21
0.5000000024148648
 31
0.0
100
AcDbText
 73
     2
  0
LWPOLYLINE
  5
91
330
6D
100
AcDbEntity
  8
TITLE_BLOCK
100
AcDbPolyline
 90
        2
 70
     0
 43
0.02
 10
10.70000001942052
 20
0.5000000024148648
 10
10.70000001942052
 20
0.6000000024148649
  0
LINE
  5
92
330
6D
100
AcDbEntity
  8
TITLE_BLOCK
100
AcDbLine
 10
15.95000001942052
 20
0.3750000024148647
 30
0.0
 11
15.95000001942052
 21
0.7500000024148648
 31
0.0
  0
LINE
  5
93
330
6D
100
AcDbEntity
  8
TITLE_BLOCK
100
AcDbLine
 10
14.45000001942053
 20
1.065000002414864
 30
0.0
 11
16.45000001942053
 21
1.065000002414864
 31
0.0
  0
LINE
  5
94
330
6D
100
AcDbEntity
  8
TITLE_BLOCK
100
AcDbLine
 10
14.45000001942053
 20
0.7500000024148648
 30
0.0
 11
14.45000001942053
 21
2.500000002414864
 31
0.0
  0
LINE
  5
95
330
6D
100
AcDbEntity
  8
TITLE_BLOCK
100
AcDbLine
 10
16.45000001942053
 20
0.7500000024148648
 30
0.0
 11
16.45000001942053
 21
2.500000002414864
 31
0.0
  0
LINE
  5
96
330
6D
100
AcDbEntity
  8
TITLE_BLOCK
100
AcDbLine
 10
16.83000001942052
 20
1.000000002414864
 30
0.0
 11
16.83000001942052
 21
1.380000002414864
 31
0.0
  0
TEXT
  5
97
330
6D
100
AcDbEntity
  8
TITLE_BLOCK
100
AcDbText
 10
16.50230001942053
 20
0.8425000024148648
 30
0.0
 40
0.065
  1
SCALE
  7
ROMAN
100
AcDbText
  0
TEXT
  5
98
330
6D
100
AcDbEntity
  8
TITLE_BLOCK
100
AcDbText
 10
16.53790001942053
 20
1.265900002414864
 30
0.0
 40
0.065
  1
SIZE
  7
ROMAN
100
AcDbText
  0
TEXT
  5
99
330
6D
100
AcDbEntity
  8
TITLE_BLOCK
100
AcDbText
 10
20.40050001942053
 20
1.265900002414864
 30
0.0
 40
0.065
  1
REV
  7
ROMAN
100
AcDbText
  0
TEXT
  5
9A
330
6D
100
AcDbEntity
  8
TITLE_BLOCK
100
AcDbText
 10
18.34880954323005
 20
0.3750000024148647
 30
0.0
 40
0.25
  1
1
  7
ROMAN
 72
     1
 11
18.45000001942052
 21
0.5000000024148648
 31
0.0
100
AcDbText
 73
     2
  0
TEXT
  5
9B
330
6D
100
AcDbEntity
  8
TITLE_BLOCK
100
AcDbText
 10
18.02100001942052
 20
1.265900002414864
 30
0.0
 40
0.065
  1
DWG NO.
  7
ROMAN
100
AcDbText
  0
LINE
  5
9C
330
6D
100
AcDbEntity
  8
TITLE_BLOCK
100
AcDbLine
 10
17.95000001942052
 20
1.000000002414864
 30
0.0
 11
17.95000001942052
 21
1.380000002414864
 31
0.0
  0
LINE
  5
9D
330
6D
100
AcDbEntity
  8
TITLE_BLOCK
100
AcDbLine
 10
17.45000001942052
 20
0.7500000024148648
 30
0.0
 11
17.45000001942052
 21
1.000000002414864
 31
0.0
  0
TEXT
  5
9E
330
6D
100
AcDbEntity
  8
TITLE_BLOCK
100
AcDbText
 10
19.00280001942053
 20
0.8425000024148648
 30
0.0
 40
0.065
  1
SHEET
  7
ROMAN
100
AcDbText
  0
LINE
  5
9F
330
6D
100
AcDbEntity
  8
TITLE_BLOCK
100
AcDbLine
 10
18.95000001942053
 20
0.7500000024148648
 30
0.0
 11
18.95000001942053
 21
1.000000002414864
 31
0.0
  0
LINE
  5
A0
330
6D
100
AcDbEntity
  8
TITLE_BLOCK
100
AcDbLine
 10
20.32000001942053
 20
1.000000002414864
 30
0.0
 11
20.32000001942053
 21
1.380000002414864
 31
0.0
  0
TEXT
  5
A1
330
6D
100
AcDbEntity
  8
TITLE_BLOCK
100
AcDbText
 10
20.84285716227767
 20
2.000000002414864
 30
0.0
 40
0.25
  1
A
  7
ROMAN
 72
     1
 11
20.95000001942052
 21
2.125000002414864
 31
0.0
100
AcDbText
 73
     2
  0
LINE
  5
A2
330
6D
100
AcDbEntity
  8
TITLE_BLOCK
100
AcDbLine
 10
20.70000001942053
 20
4.000000002414864
 30
0.0
 11
21.07500001942053
 21
4.000000002414864
 31
0.0
  0
TEXT
  5
A3
330
6D
100
AcDbEntity
  8
TITLE_BLOCK
100
AcDbText
 10
20.81904763846814
 20
6.000000002414864
 30
0.0
 40
0.25
  1
B
  7
ROMAN
 72
     1
 11
20.95000001942052
 21
6.125000002414864
 31
0.0
100
AcDbText
 73
     2
  0
TEXT
  5
A4
330
6D
100
AcDbEntity
  8
TITLE_BLOCK
100
AcDbText
 10
17.08200001942053
 20
14.84030000241486
 30
0.0
 40
0.065
  1
DESCRIPTION
  7
ROMAN
100
AcDbText
  0
LINE
  5
A5
330
6D
100
AcDbEntity
  8
TITLE_BLOCK
100
AcDbLine
 10
15.20000001942053
 20
14.75000000241486
 30
0.0
 11
20.70000001942053
 21
14.75000000241486
 31
0.0
  0
LINE
  5
A6
330
6D
100
AcDbEntity
  8
TITLE_BLOCK
100
AcDbLine
 10
15.20000001942053
 20
15.00000000241486
 30
0.0
 11
20.70000001942053
 21
15.00000000241486
 31
0.0
  0
TEXT
  5
A7
330
6D
100
AcDbEntity
  8
TITLE_BLOCK
100
AcDbText
 10
13.08095240037291
 20
15.37500000241486
 30
0.0
 40
0.25
  1
2
  7
ROMAN
 72
     1
 11
13.20000001942053
 21
15.50000000241486
 31
0.0
100
AcDbText
 73
     2
  0
LWPOLYLINE
  5
A8
330
6D
100
AcDbEntity
  8
TITLE_BLOCK
100
AcDbPolyline
 90
        2
 70
     0
 43
0.02
 10
10.70000001942052
 20
15.50000000241486
 10
10.70000001942052
 20
15.40000000241486
  0
LINE
  5
A9
330
6D
100
AcDbEntity
  8
TITLE_BLOCK
100
AcDbLine
 10
15.95000001942052
 20
15.25000000241486
 30
0.0
 11
15.95000001942052
 21
15.62500000241486
 31
0.0
  0
LINE
  5
AA
330
6D
100
AcDbEntity
  8
TITLE_BLOCK
100
AcDbLine
 10
15.20000001942053
 20
15.25000000241486
 30
0.0
 11
15.20000001942053
 21
14.20270000241486
 31
0.0
  0
TEXT
  5
AB
330
6D
100
AcDbEntity
  8
TITLE_BLOCK
100
AcDbText
 10
15.30870001942052
 20
14.84030000241486
 30
0.0
 40
0.065
  1
ZONE
  7
ROMAN
100
AcDbText
  0
LINE
  5
AC
330
6D
100
AcDbEntity
  8
TITLE_BLOCK
100
AcDbLine
 10
16.08000001942052
 20
14.75000000241486
 30
0.0
 11
16.08000001942052
 21
15.00000000241486
 31
0.0
  0
TEXT
  5
AD
330
6D
100
AcDbEntity
  8
TITLE_BLOCK
100
AcDbText
 10
15.78010001942053
 20
14.84030000241486
 30
0.0
 40
0.065
  1
REV
  7
ROMAN
100
AcDbText
  0
LINE
  5
AE
330
6D
100
AcDbEntity
  8
TITLE_BLOCK
100
AcDbLine
 10
15.70000001942053
 20
14.75000000241486
 30
0.0
 11
15.70000001942053
 21
15.00000000241486
 31
0.0
  0
TEXT
  5
AF
330
6D
100
AcDbEntity
  8
TITLE_BLOCK
100
AcDbText
 10
20.82500001942052
 20
9.750000002414864
 30
0.0
 40
0.25
  1
C
  7
ROMAN
 72
     1
 11
20.95000001942052
 21
9.875000002414864
 31
0.0
100
AcDbText
 73
     2
  0
LINE
  5
B0
330
6D
100
AcDbEntity
  8
TITLE_BLOCK
100
AcDbLine
 10
20.70000001942053
 20
12.00000000241486
 30
0.0
 11
21.07500001942053
 21
12.00000000241486
 31
0.0
  0
TEXT
  5
B1
330
6D
100
AcDbEntity
  8
TITLE_BLOCK
100
AcDbText
 10
18.34880954323005
 20
15.37500000241486
 30
0.0
 40
0.25
  1
1
  7
ROMAN
 72
     1
 11
18.45000001942052
 21
15.50000000241486
 31
0.0
100
AcDbText
 73
     2
  0
TEXT
  5
B2
330
6D
100
AcDbEntity
  8
TITLE_BLOCK
100
AcDbText
 10
17.91020001942053
 20
15.08250000241486
 30
0.0
 40
0.065
  1
REVISIONS
  7
ROMAN
100
AcDbText
  0
LINE
  5
B3
330
6D
100
AcDbEntity
  8
TITLE_BLOCK
100
AcDbLine
 10
18.82000001942053
 20
14.75000000241486
 30
0.0
 11
18.82000001942053
 21
15.00000000241486
 31
0.0
  0
LINE
  5
B4
330
6D
100
AcDbEntity
  8
TITLE_BLOCK
100
AcDbLine
 10
19.70000001942052
 20
14.75000000241486
 30
0.0
 11
19.70000001942052
 21
15.00000000241486
 31
0.0
  0
TEXT
  5
B5
330
6D
100
AcDbEntity
  8
TITLE_BLOCK
100
AcDbText
 10
19.14770001942052
 20
14.84030000241486
 30
0.0
 40
0.065
  1
DATE
  7
ROMAN
100
AcDbText
  0
TEXT
  5
B6
330
6D
100
AcDbEntity
  8
TITLE_BLOCK
100
AcDbText
 10
19.94140001942052
 20
14.84030000241486
 30
0.0
 40
0.065
  1
APPROVED
  7
ROMAN
100
AcDbText
  0
TEXT
  5
B7
330
6D
100
AcDbEntity
  8
TITLE_BLOCK
100
AcDbText
 10
20.81904763846814
 20
13.75000000241486
 30
0.0
 40
0.25
  1
D
  7
ROMAN
 72
     1
 11
20.95000001942052
 21
13.87500000241486
 31
0.0
100
AcDbText
 73
     2
  0
ENDBLK
  5
B9
330
6D
100
AcDbEntity
  8
0
100
AcDbBlockEnd
  0
ENDSEC
  0
SECTION
  2
ENTITIES
  0
INSERT
  5
210
330
1F
100
AcDbEntity
  8
CASE
100
AcDbBlockReference
 66
     1
  2
A$C5DD9786F
 10
-2.650000030288784
 20
11.71000006309334
 30
0.832
  0
ATTRIB
  5
211
330
210
100
AcDbEntity
  8
0
 62
     0
100
AcDbText
 10
-2.500000010868252
 20
11.7100000655082
 30
0.832
 40
0.15
  1

 50
90.0
  7
ROMAN
100
AcDbAttribute
  2
USER
 70
     8
  0
ATTRIB
  5
212
330
210
100
AcDbEntity
  8
0
 62
     0
100
AcDbText
 10
-2.500000010868252
 20
14.7100000655082
 30
0.832
 40
0.15
  1

 50
90.0
  7
ROMAN
100
AcDbAttribute
  2
REVDATE
 70
     8
  0
ATTRIB
  5
213
330
210
100
AcDbEntity
  8
0
 62
     0
100
AcDbText
 10
-2.500000010868252
 20
17.7100000655082
 30
0.832
 40
0.15
  1

 50
90.0
  7
ROMAN
100
AcDbAttribute
  2
FNAME
 70
     8
  0
SEQEND
  5
214
330
210
100
AcDbEntity
  8
CASE
  0
MTEXT
  5
216
330
1F
100
AcDbEntity
  8
CASE
100
AcDbMText
 10
9.294005883660206
 20
23.81561066374223
 30
1.404095091298307
 40
0.15
 41
0.3113648369525695
 71
     5
 72
     5
  1
18
 11
-1.0
 21
0.0000000000000001
 31
0.0
1001
ACAD
1000
MTEXTBEGIN
1070
    73
1070
     1
1070
    44
1040
1.0
1070
    74
1070
     0
1000
MTEXTEND
  0
MTEXT
  5
217
330
1F
100
AcDbEntity
  8
CASE
100
AcDbMText
 10
8.932005883660213
 20
22.88404757432316
 30
1.404095091298307
 40
0.1265710719319388
 41
0.4877000000000001
 71
     4
 72
     5
  1
DI-40
 11
0.0000000000000001
 21
1.0
 31
0.0
1001
ACAD
1000
MTEXTBEGIN
1070
    73
1070
     1
1070
    44
1040
1.0
1070
    74
1070
     0
1000
MTEXTEND
  0
LINE
  5
218
330
1F
100
AcDbEntity
  8
CASE
100
AcDbLine
 10
15.09103662177194
 20
23.54896760553895
 30
0.0
 11
7.496772305855667
 21
23.54896760553895
 31
0.0
  0
LINE
  5
219
330
1F
100
AcDbEntity
  8
CASE
100
AcDbLine
 10
15.28503662177194
 20
23.5911579628496
 30
0.0
 11
7.088294003459639
 21
23.5911579628496
 31
0.0
  0
LINE
  5
21A
330
1F
100
AcDbEntity
  8
CASE
100
AcDbLine
 10
7.088294003459639
 20
24.05525189326671
 30
0.0
 11
15.28503662177194
 21
24.05525189326671
 31
0.0
  0
LINE
  5
21B
330
1F
100
AcDbEntity
  8
CASE
100
AcDbLine
 10
9.115194412292058
 20
17.60012722473782
 30
0.0
 11
15.28511226540081
 21
17.60012722473781
 31
0.0
  0
LINE
  5
21C
330
1F
100
AcDbEntity
  8
CASE
100
AcDbLine
 10
15.28511226540081
 20
17.13603329432071
 30
0.0
 11
9.115194412292051
 21
17.13603329432072
 31
0.0
  0
LINE
  5
21D
330
1F
100
AcDbEntity
  8
CASE
100
AcDbLine
 10
-0.0131112954393773
 20
23.54896760553895
 30
1.404095091298307
 11
15.93484376798492
 21
23.54896760553895
 31
1.404095091298307
210
0.0
220
1.0
230
0.0
  0
LINE
  5
21E
330
1F
100
AcDbEntity
  8
CASE
100
AcDbLine
 10
15.93484376798492
 20
17.64231758204847
 30
1.404095091298307
 11
-0.0131112954393773
 21
17.64231758204847
 31
1.404095091298307
  0
LINE
  5
21F
330
1F
100
AcDbEntity
  8
CASE
100
AcDbLine
 10
15.93484376798492
 20
17.64231758204847
 30
1.404095091298307
 11
-0.0131112954393773
 21
17.64231758204847
 31
1.404095091298307
210
0.0
220
-1.0
230
0.0
  0
LINE
  5
220
330
1F
100
AcDbEntity
  8
CASE
100
AcDbLine
 10
-0.0131112954393773
 20
23.54896760553895
 30
1.404095091298307
 11
15.93484376798492
 21
23.54896760553895
 31
1.404095091298307
  0
LINE
  5
221
330
1F
100
AcDbEntity
  8
CASE
100
AcDbLine
 10
3.800897005443057
 20
17.64231758204847
 30
0.0
 11
11.98751393800081
 21
17.64231758204847
 31
0.0
  0
LINE
  5
222
330
1F
100
AcDbEntity
  8
CASE
100
AcDbLine
 10
-0.0131112954393773
 20
17.64231758204847
 30
1.404095091298307
 11
-0.0131112954393773
 21
23.54896760553895
 31
1.404095091298307
  0
MTEXT
  5
223
330
1F
100
AcDbEntity
  8
CASE
100
AcDbMText
 10
1.303227852652777
 20
17.38411259530731
 30
1.404095091298307
 40
0.15
 41
0.3113648369525695
 71
     5
 72
     5
  1
2
1001
ACAD
1000
MTEXTBEGIN
1070
    73
1070
     1
1070
    44
1040
1.0
1070
    74
1070
     0
1000
MTEXTEND
  0
MTEXT
  5
224
330
1F
100
AcDbEntity
  8
CASE
100
AcDbMText
 10
1.303227852652784
 20
17.75116870390993
 30
1.404095091298307
 40
0.1265710719319388
 41
0.5248000000000001
 71
     4
 72
     5
  1
DI-2
 11
0.0000000000000001
 21
1.0
 31
0.0
1001
ACAD
1000
MTEXTBEGIN
1070
    73
1070
     1
1070
    44
1040
1.0
1070
    74
1070
     0
1000
MTEXTEND
  0
LINE
  5
225
330
1F
100
AcDbEntity
  8
CASE
100
AcDbLine
 10
8.981872883190359
 20
17.13603329432072
 30
0.0
 11
0.7952559506326038
 21
17.13603329432072
 31
0.0
  0
LINE
  5
226
330
1F
100
AcDbEntity
  8
CASE
100
AcDbLine
 10
0.7952559506326038
 20
17.60012722473782
 30
0.0
 11
8.981872883190359
 21
17.60012722473782
 31
0.0
  0
LINE
  5
228
330
1F
100
AcDbEntity
  8
CASE
100
AcDbLine
 10
1.134466423410191
 20
17.13603329432072
 30
0.0
 11
1.134466423410191
 21
17.60012722473782
 31
0.0
  0
LINE
  5
229
330
1F
100
AcDbEntity
  8
CASE
100
AcDbLine
 10
0.7952559506326038
 20
17.13603329432072
 30
0.0
 11
0.7952559506326038
 21
17.64231758204847
 31
0.0
  0
MTEXT
  5
22A
330
1F
100
AcDbEntity
  8
CASE
100
AcDbMText
 10
0.4425445635155923
 20
17.38411259530731
 30
1.404095091298307
 40
0.15
 41
0.3113648369525695
 71
     5
 72
     5
  1
TB1
1001
ACAD
1000
MTEXTBEGIN
1070
    73
1070
     1
1070
    44
1040
1.0
1070
    74
1070
     0
1000
MTEXTEND
  0
MTEXT
  5
22B
330
1F
100
AcDbEntity
  8
CASE
100
AcDbMText
 10
0.9657049941676119
 20
17.38411259530731
 30
1.404095091298307
 40
0.15
 41
0.3113648369525697
 71
     5
 72
     5
  1
1
1001
ACAD
1000
MTEXTBEGIN
1070
    73
1070
     1
1070
    44
1040
1.0
1070
    74
1070
     0
1000
MTEXTEND
  0
MTEXT
  5
22C
330
1F
100
AcDbEntity
  8
CASE
100
AcDbMText
 10
0.9657049941676119
 20
17.75116870390993
 30
1.404095091298307
 40
0.1265710719319388
 41
0.5248000000000001
 71
     4
 72
     5
  1
DI-1
 11
0.0000000000000001
 21
1.0
 31
0.0
1001
ACAD
1000
MTEXTBEGIN
1070
    73
1070
     1
1070
    44
1040
1.0
1070
    74
1070
     0
1000
MTEXTEND
  0
LINE
  5
22D
330
1F
100
AcDbEntity
  8
CASE
100
AcDbLine
 10
2.152097841742967
 20
17.13603329432074
 30
0.0
 11
2.152097841742967
 21
17.60012722473785
 31
0.0
  0
LINE
  5
22E
330
1F
100
AcDbEntity
  8
CASE
100
AcDbLine
 10
1.812887368965372
 20
17.13603329432073
 30
0.0
 11
1.812887368965372
 21
17.60012722473785
 31
0.0
  0
LINE
  5
22F
330
1F
100
AcDbEntity
  8
CASE
100
AcDbLine
 10
3.169729260075736
 20
17.13603329432077
 30
0.0
 11
3.169729260075736
 21
17.60012722473788
 31
0.0
  0
LINE
  5
230
330
1F
100
AcDbEntity
  8
CASE
100
AcDbLine
 10
2.830518787298148
 20
17.13603329432076
 30
0.0
 11
2.830518787298148
 21
17.60012722473788
 31
0.0
  0
LINE
  5
231
330
1F
100
AcDbEntity
  8
CASE
100
AcDbLine
 10
2.491308314520554
 20
17.13603329432076
 30
0.0
 11
2.491308314520554
 21
17.60012722473786
 31
0.0
  0
LINE
  5
232
330
1F
100
AcDbEntity
  8
CASE
100
AcDbLine
 10
1.473676896187785
 20
17.13603329432073
 30
0.0
 11
1.473676896187785
 21
17.60012722473784
 31
0.0
  0
MTEXT
  5
233
330
1F
100
AcDbEntity
  8
CASE
100
AcDbMText
 10
2.314108813815866
 20
17.38411259530731
 30
1.404095091298307
 40
0.15
 41
0.3113648369525695
 71
     5
 72
     5
  1
5
1001
ACAD
1000
MTEXTBEGIN
1070
    73
1070
     1
1070
    44
1040
1.0
1070
    74
1070
     0
1000
MTEXTEND
  0
MTEXT
  5
234
330
1F
100
AcDbEntity
  8
CASE
100
AcDbMText
 10
1.642438325430371
 20
17.38411259530731
 30
1.404095091298307
 40
0.15
 41
0.3113648369525695
 71
     5
 72
     5
  1
3
1001
ACAD
1000
MTEXTBEGIN
1070
    73
1070
     1
1070
    44
1040
1.0
1070
    74
1070
     0
1000
MTEXTEND
  0
ARC
  5
235
330
1F
100
AcDbEntity
  8
CASE
100
AcDbCircle
 10
1.387608567274074
 20
17.13603329432072
 30
0.0
 40
0.0042190357310638
100
AcDbArc
 50
0.0
 51
180.0
  0
ARC
  5
236
330
1F
100
AcDbEntity
  8
CASE
100
AcDbCircle
 10
1.387608567274074
 20
17.13603329432072
 30
0.0
 40
0.0042190357310638
100
AcDbArc
 50
180.0
 51
0.0
  0
MTEXT
  5
237
330
1F
100
AcDbEntity
  8
CASE
100
AcDbMText
 10
1.979961183915544
 20
17.38411259530731
 30
1.404095091298307
 40
0.15
 41
0.3113648369525695
 71
     5
 72
     5
  1
4
1001
ACAD
1000
MTEXTBEGIN
1070
    73
1070
     1
1070
    44
1040
1.0
1070
    74
1070
     0
1000
MTEXTEND
  0
MTEXT
  5
238
330
1F
100
AcDbEntity
  8
CASE
100
AcDbMText
 10
2.651631672301031
 20
17.38411259530731
 30
1.404095091298307
 40
0.15
 41
0.3113648369525695
 71
     5
 72
     5
  1
6
1001
ACAD
1000
MTEXTBEGIN
1070
    73
1070
     1
1070
    44
1040
1.0
1070
    74
1070
     0
1000
MTEXTEND
  0
MTEXT
  5
239
330
1F
100
AcDbEntity
  8
CASE
100
AcDbMText
 10
2.99084214507864
 20
17.38411259530731
 30
1.404095091298307
 40
0.15
 41
0.3113648369525695
 71
     5
 72
     5
  1
7
1001
ACAD
1000
MTEXTBEGIN
1070
    73
1070
     1
1070
    44
1040
1.0
1070
    74
1070
     0
1000
MTEXTEND
  0
MTEXT
  5
23A
330
1F
100
AcDbEntity
  8
CASE
100
AcDbMText
 10
2.315796428108288
 20
17.75116870390993
 30
1.404095091298307
 40
0.1265710719319388
 41
0.5248000000000001
 71
     4
 72
     5
  1
DI-5
 11
0.0000000000000001
 21
1.0
 31
0.0
1001
ACAD
1000
MTEXTBEGIN
1070
    73
1070
     1
1070
    44
1040
1.0
1070
    74
1070
     0
1000
MTEXTEND
  0
MTEXT
  5
23B
330
1F
100
AcDbEntity
  8
CASE
100
AcDbMText
 10
1.647501168307651
 20
17.75116870390993
 30
1.404095091298307
 40
0.1265710719319388
 41
0.5248000000000001
 71
     4
 72
     5
  1
DI-3
 11
0.0000000000000001
 21
1.0
 31
0.0
1001
ACAD
1000
MTEXTBEGIN
1070
    73
1070
     1
1070
    44
1040
1.0
1070
    74
1070
     0
1000
MTEXTEND
  0
MTEXT
  5
23C
330
1F
100
AcDbEntity
  8
CASE
100
AcDbMText
 10
1.981648798207966
 20
17.75116870390993
 30
1.404095091298307
 40
0.1265710719319388
 41
0.5248000000000001
 71
     4
 72
     5
  1
DI-4
 11
0.0000000000000001
 21
1.0
 31
0.0
1001
ACAD
1000
MTEXTBEGIN
1070
    73
1070
     1
1070
    44
1040
1.0
1070
    74
1070
     0
1000
MTEXTEND
  0
MTEXT
  5
23D
330
1F
100
AcDbEntity
  8
CASE
100
AcDbMText
 10
2.649944058008609
 20
17.75116870390993
 30
1.404095091298307
 40
0.1265710719319388
 41
0.5248000000000001
 71
     4
 72
     5
  1
DI-6
 11
0.0000000000000001
 21
1.0
 31
0.0
1001
ACAD
1000
MTEXTBEGIN
1070
    73
1070
     1
1070
    44
1040
1.0
1070
    74
1070
     0
1000
MTEXTEND
  0
MTEXT
  5
23E
330
1F
100
AcDbEntity
  8
CASE
100
AcDbMText
 10
2.99084214507864
 20
17.75116870390993
 30
1.404095091298307
 40
0.1265710719319388
 41
0.5248000000000001
 71
     4
 72
     5
  1
DI-COMA
 11
0.0000000000000001
 21
1.0
 31
0.0
1001
ACAD
1000
MTEXTBEGIN
1070
    73
1070
     1
1070
    44
1040
1.0
1070
    74
1070
     0
1000
MTEXTEND
  0
LINE
  5
23F
330
1F
100
AcDbEntity
  8
CASE
100
AcDbLine
 10
3.50893973285333
 20
17.13603329432078
 30
0.0
 11
3.50893973285333
 21
17.60012722473788
 31
0.0
  0
LINE
  5
240
330
1F
100
AcDbEntity
  8
CASE
100
AcDbLine
 10
4.526571151186099
 20
17.1360332943208
 30
0.0
 11
4.526571151186099
 21
17.60012722473791
 31
0.0
  0
LINE
  5
241
330
1F
100
AcDbEntity
  8
CASE
100
AcDbLine
 10
4.187360678408512
 20
17.13603329432079
 30
0.0
 11
4.187360678408512
 21
17.6001272247379
 31
0.0
  0
LINE
  5
242
330
1F
100
AcDbEntity
  8
CASE
100
AcDbLine
 10
3.848150205630918
 20
17.13603329432078
 30
0.0
 11
3.848150205630918
 21
17.60012722473788
 31
0.0
  0
LINE
  5
243
330
1F
100
AcDbEntity
  8
CASE
100
AcDbLine
 10
5.204992096741281
 20
17.13603329432082
 30
0.0
 11
5.204992096741281
 21
17.60012722473792
 31
0.0
  0
LINE
  5
244
330
1F
100
AcDbEntity
  8
CASE
100
AcDbLine
 10
4.865781623963694
 20
17.1360332943208
 30
0.0
 11
4.865781623963694
 21
17.60012722473791
 31
0.0
  0
MTEXT
  5
245
330
1F
100
AcDbEntity
  8
CASE
100
AcDbMText
 10
3.665887862048964
 20
17.38411259530731
 30
1.404095091298307
 40
0.15
 41
0.3113648369525695
 71
     5
 72
     5
  1
9
1001
ACAD
1000
MTEXTBEGIN
1070
    73
1070
     1
1070
    44
1040
1.0
1070
    74
1070
     0
1000
MTEXTEND
  0
MTEXT
  5
246
330
1F
100
AcDbEntity
  8
CASE
100
AcDbMText
 10
3.328365003563798
 20
17.38411259530731
 30
1.404095091298307
 40
0.15
 41
0.3113648369525695
 71
     5
 72
     5
  1
8
1001
ACAD
1000
MTEXTBEGIN
1070
    73
1070
     1
1070
    44
1040
1.0
1070
    74
1070
     0
1000
MTEXTEND
  0
MTEXT
  5
247
330
1F
100
AcDbEntity
  8
CASE
100
AcDbMText
 10
4.003410720534136
 20
17.38411259530731
 30
1.404095091298307
 40
0.15
 41
0.3113648369525695
 71
     5
 72
     5
  1
10
1001
ACAD
1000
MTEXTBEGIN
1070
    73
1070
     1
1070
    44
1040
1.0
1070
    74
1070
     0
1000
MTEXTEND
  0
MTEXT
  5
248
330
1F
100
AcDbEntity
  8
CASE
100
AcDbMText
 10
4.680144051796896
 20
17.38411259530731
 30
1.404095091298307
 40
0.15
 41
0.3113648369525695
 71
     5
 72
     5
  1
12
1001
ACAD
1000
MTEXTBEGIN
1070
    73
1070
     1
1070
    44
1040
1.0
1070
    74
1070
     0
1000
MTEXTEND
  0
MTEXT
  5
249
330
1F
100
AcDbEntity
  8
CASE
100
AcDbMText
 10
4.342621193311738
 20
17.38411259530731
 30
1.404095091298307
 40
0.15
 41
0.3113648369525695
 71
     5
 72
     5
  1
11
1001
ACAD
1000
MTEXTBEGIN
1070
    73
1070
     1
1070
    44
1040
1.0
1070
    74
1070
     0
1000
MTEXTEND
  0
MTEXT
  5
24A
330
1F
100
AcDbEntity
  8
CASE
100
AcDbMText
 10
5.014291681697232
 20
17.38411259530731
 30
1.404095091298307
 40
0.15
 41
0.3113648369525695
 71
     5
 72
     5
  1
13
1001
ACAD
1000
MTEXTBEGIN
1070
    73
1070
     1
1070
    44
1040
1.0
1070
    74
1070
     0
1000
MTEXTEND
  0
MTEXT
  5
24B
330
1F
100
AcDbEntity
  8
CASE
100
AcDbMText
 10
3.664200247756556
 20
17.75116870390993
 30
1.404095091298307
 40
0.1265710719319388
 41
0.5248000000000001
 71
     4
 72
     5
  1
DI-8
 11
0.0000000000000001
 21
1.0
 31
0.0
1001
ACAD
1000
MTEXTBEGIN
1070
    73
1070
     1
1070
    44
1040
1.0
1070
    74
1070
     0
1000
MTEXTEND
  0
MTEXT
  5
24C
330
1F
100
AcDbEntity
  8
CASE
100
AcDbMText
 10
3.33005261785622
 20
17.75116870390993
 30
1.404095091298307
 40
0.1265710719319388
 41
0.5248000000000001
 71
     4
 72
     5
  1
DI-7
 11
0.0000000000000001
 21
1.0
 31
0.0
1001
ACAD
1000
MTEXTBEGIN
1070
    73
1070
     1
1070
    44
1040
1.0
1070
    74
1070
     0
1000
MTEXTEND
  0
MTEXT
  5
24D
330
1F
100
AcDbEntity
  8
CASE
100
AcDbMText
 10
4.003410720534136
 20
17.75116870390993
 30
1.404095091298307
 40
0.1265710719319388
 41
0.5248000000000001
 71
     4
 72
     5
  1
DI-9
 11
0.0000000000000001
 21
1.0
 31
0.0
1001
ACAD
1000
MTEXTBEGIN
1070
    73
1070
     1
1070
    44
1040
1.0
1070
    74
1070
     0
1000
MTEXTEND
  0
MTEXT
  5
24E
330
1F
100
AcDbEntity
  8
CASE
100
AcDbMText
 10
4.680144051796911
 20
17.75116870390993
 30
1.404095091298307
 40
0.1265710719319388
 41
0.5248000000000001
 71
     4
 72
     5
  1
DI-11
 11
0.0000000000000001
 21
1.0
 31
0.0
1001
ACAD
1000
MTEXTBEGIN
1070
    73
1070
     1
1070
    44
1040
1.0
1070
    74
1070
     0
1000
MTEXTEND
  0
MTEXT
  5
24F
330
1F
100
AcDbEntity
  8
CASE
100
AcDbMText
 10
4.342621193311738
 20
17.75116870390993
 30
1.404095091298307
 40
0.1265710719319388
 41
0.5248000000000001
 71
     4
 72
     5
  1
DI-10
 11
0.0000000000000001
 21
1.0
 31
0.0
1001
ACAD
1000
MTEXTBEGIN
1070
    73
1070
     1
1070
    44
1040
1.0
1070
    74
1070
     0
1000
MTEXTEND
  0
ARC
  5
250
330
1F
100
AcDbEntity
  8
CASE
100
AcDbCircle
 10
4.393249622084527
 20
17.60012722473782
 30
0.0
 40
0.0042190357310638
100
AcDbArc
 50
180.0
 51
0.0
  0
ARC
  5
251
330
1F
100
AcDbEntity
  8
CASE
100
AcDbCircle
 10
4.393249622084527
 20
17.64231758204847
 30
0.0
 40
0.0042190357310638
100
AcDbArc
 50
0.0
 51
180.0
  0
ARC
  5
252
330
1F
100
AcDbEntity
  8
CASE
100
AcDbCircle
 10
4.393249622084527
 20
17.64231758204847
 30
0.0
 40
0.0042190357310638
100
AcDbArc
 50
180.0
 51
0.0
  0
ARC
  5
253
330
1F
100
AcDbEntity
  8
CASE
100
AcDbCircle
 10
4.393249622084527
 20
17.60012722473782
 30
0.0
 40
0.0042190357310638
100
AcDbArc
 50
0.0
 51
180.0
  0
MTEXT
  5
254
330
1F
100
AcDbEntity
  8
CASE
100
AcDbMText
 10
5.017666910282097
 20
17.75116870390993
 30
1.404095091298307
 40
0.1265710719319388
 41
0.5248000000000001
 71
     4
 72
     5
  1
DI-12
 11
0.0000000000000001
 21
1.0
 31
0.0
1001
ACAD
1000
MTEXTBEGIN
1070
    73
1070
     1
1070
    44
1040
1.0
1070
    74
1070
     0
1000
MTEXTEND
  0
LINE
  5
255
330
1F
100
AcDbEntity
  8
CASE
100
AcDbLine
 10
5.544202569518875
 20
17.13603329432083
 30
0.0
 11
5.544202569518875
 21
17.60012722473794
 31
0.0
  0
LINE
  5
256
330
1F
100
AcDbEntity
  8
CASE
100
AcDbLine
 10
5.883413042296463
 20
17.13603329432083
 30
0.0
 11
5.883413042296463
 21
17.60012722473794
 31
0.0
  0
LINE
  5
257
330
1F
100
AcDbEntity
  8
CASE
100
AcDbLine
 10
6.222623515074057
 20
17.13603329432084
 30
0.0
 11
6.222623515074057
 21
17.60012722473795
 31
0.0
  0
LINE
  5
258
330
1F
100
AcDbEntity
  8
CASE
100
AcDbLine
 10
6.561833987851644
 20
17.13603329432084
 30
0.0
 11
6.561833987851644
 21
17.60012722473795
 31
0.0
  0
LINE
  5
259
330
1F
100
AcDbEntity
  8
CASE
100
AcDbLine
 10
6.901044460629239
 20
17.13603329432085
 30
0.0
 11
6.901044460629239
 21
17.60012722473796
 31
0.0
  0
MTEXT
  5
25A
330
1F
100
AcDbEntity
  8
CASE
100
AcDbMText
 10
5.716339227346391
 20
17.38411259530731
 30
1.404095091298307
 40
0.15
 41
0.3113648369525695
 71
     5
 72
     5
  1
15
1001
ACAD
1000
MTEXTBEGIN
1070
    73
1070
     1
1070
    44
1040
1.0
1070
    74
1070
     0
1000
MTEXTEND
  0
MTEXT
  5
25B
330
1F
100
AcDbEntity
  8
CASE
100
AcDbMText
 10
5.351814540182391
 20
17.38411259530731
 30
1.404095091298307
 40
0.15
 41
0.3113648369525695
 71
     5
 72
     5
  1
14
1001
ACAD
1000
MTEXTBEGIN
1070
    73
1070
     1
1070
    44
1040
1.0
1070
    74
1070
     0
1000
MTEXTEND
  0
MTEXT
  5
25C
330
1F
100
AcDbEntity
  8
CASE
100
AcDbMText
 10
6.053999987771585
 20
17.38411259530731
 30
1.404095091298307
 40
0.15
 41
0.3113648369525695
 71
     5
 72
     5
  1
16
1001
ACAD
1000
MTEXTBEGIN
1070
    73
1070
     1
1070
    44
1040
1.0
1070
    74
1070
     0
1000
MTEXTEND
  0
MTEXT
  5
25D
330
1F
100
AcDbEntity
  8
CASE
100
AcDbMText
 10
6.732283031386745
 20
17.38411259530731
 30
1.404095091298307
 40
0.15
 41
0.3113648369525695
 71
     5
 72
     5
  1
18
1001
ACAD
1000
MTEXTBEGIN
1070
    73
1070
     1
1070
    44
1040
1.0
1070
    74
1070
     0
1000
MTEXTEND
  0
MTEXT
  5
25E
330
1F
100
AcDbEntity
  8
CASE
100
AcDbMText
 10
6.394760172901572
 20
17.38411259530731
 30
1.404095091298307
 40
0.15
 41
0.3113648369525695
 71
     5
 72
     5
  1
17
1001
ACAD
1000
MTEXTBEGIN
1070
    73
1070
     1
1070
    44
1040
1.0
1070
    74
1070
     0
1000
MTEXTEND
  0
MTEXT
  5
25F
330
1F
100
AcDbEntity
  8
CASE
100
AcDbMText
 10
7.071493504164332
 20
17.38411259530731
 30
1.404095091298307
 40
0.15
 41
0.3113648369525695
 71
     5
 72
     5
  1
19
1001
ACAD
1000
MTEXTBEGIN
1070
    73
1070
     1
1070
    44
1040
1.0
1070
    74
1070
     0
1000
MTEXTEND
  0
MTEXT
  5
260
330
1F
100
AcDbEntity
  8
CASE
100
AcDbMText
 10
5.716339227346391
 20
17.75116870390993
 30
1.404095091298307
 40
0.1265710719319388
 41
0.5248000000000001
 71
     4
 72
     5
  1
DI-14
 11
0.0000000000000001
 21
1.0
 31
0.0
1001
ACAD
1000
MTEXTBEGIN
1070
    73
1070
     1
1070
    44
1040
1.0
1070
    74
1070
     0
1000
MTEXTEND
  0
MTEXT
  5
261
330
1F
100
AcDbEntity
  8
CASE
100
AcDbMText
 10
5.355189768767263
 20
17.75116870390993
 30
1.404095091298307
 40
0.1265710719319388
 41
0.5248000000000001
 71
     4
 72
     5
  1
DI-13
 11
0.0000000000000001
 21
1.0
 31
0.0
1001
ACAD
1000
MTEXTBEGIN
1070
    73
1070
     1
1070
    44
1040
1.0
1070
    74
1070
     0
1000
MTEXTEND
  0
MTEXT
  5
262
330
1F
100
AcDbEntity
  8
CASE
100
AcDbMText
 10
6.028547871445165
 20
17.75116870390993
 30
1.404095091298307
 40
0.1265710719319388
 41
0.5248000000000001
 71
     4
 72
     5
  1
DI-15
 11
0.0000000000000001
 21
1.0
 31
0.0
1001
ACAD
1000
MTEXTBEGIN
1070
    73
1070
     1
1070
    44
1040
1.0
1070
    74
1070
     0
1000
MTEXTEND
  0
MTEXT
  5
263
330
1F
100
AcDbEntity
  8
CASE
100
AcDbMText
 10
6.730595417094323
 20
17.75116870390993
 30
1.404095091298307
 40
0.1265710719319388
 41
0.5248000000000001
 71
     4
 72
     5
  1
DI-17
 11
0.0000000000000001
 21
1.0
 31
0.0
1001
ACAD
1000
MTEXTBEGIN
1070
    73
1070
     1
1070
    44
1040
1.0
1070
    74
1070
     0
1000
MTEXTEND
  0
MTEXT
  5
264
330
1F
100
AcDbEntity
  8
CASE
100
AcDbMText
 10
6.396447787194008
 20
17.75116870390993
 30
1.404095091298307
 40
0.1265710719319388
 41
0.5248000000000001
 71
     4
 72
     5
  1
DI-16
 11
0.0000000000000001
 21
1.0
 31
0.0
1001
ACAD
1000
MTEXTBEGIN
1070
    73
1070
     1
1070
    44
1040
1.0
1070
    74
1070
     0
1000
MTEXTEND
  0
MTEXT
  5
265
330
1F
100
AcDbEntity
  8
CASE
100
AcDbMText
 10
7.071493504164354
 20
17.75116870390993
 30
1.404095091298307
 40
0.1265710719319388
 41
0.5248000000000001
 71
     4
 72
     5
  1
DI-18
 11
0.0000000000000001
 21
1.0
 31
0.0
1001
ACAD
1000
MTEXTBEGIN
1070
    73
1070
     1
1070
    44
1040
1.0
1070
    74
1070
     0
1000
MTEXTEND
  0
LINE
  5
266
330
1F
100
AcDbEntity
  8
CASE
100
AcDbLine
 10
8.981872883190359
 20
17.64231758204847
 30
0.0
 11
8.981872883190359
 21
17.13603329432072
 31
0.0
  0
LINE
  5
267
330
1F
100
AcDbEntity
  8
CASE
100
AcDbLine
 10
9.115194412292051
 20
17.13603329432072
 30
0.0
 11
9.115194412292051
 21
17.64231758204847
 31
0.0
  0
LINE
  5
268
330
1F
100
AcDbEntity
  8
CASE
100
AcDbLine
 10
7.579465406184421
 20
17.13603329432086
 30
0.0
 11
7.579465406184421
 21
17.60012722473797
 31
0.0
  0
LINE
  5
269
330
1F
100
AcDbEntity
  8
CASE
100
AcDbLine
 10
7.24025493340684
 20
17.13603329432085
 30
0.0
 11
7.24025493340684
 21
17.60012722473797
 31
0.0
  0
LINE
  5
26A
330
1F
100
AcDbEntity
  8
CASE
100
AcDbLine
 10
7.918675878962008
 20
17.13603329432087
 30
0.0
 11
7.918675878962008
 21
17.60012722473798
 31
0.0
  0
LINE
  5
26B
330
1F
100
AcDbEntity
  8
CASE
100
AcDbLine
 10
8.597096824517176
 20
17.13603329432089
 30
0.0
 11
8.597096824517176
 21
17.600127224738
 31
0.0
  0
LINE
  5
26C
330
1F
100
AcDbEntity
  8
CASE
100
AcDbLine
 10
8.257886351739596
 20
17.13603329432087
 30
0.0
 11
8.257886351739596
 21
17.600127224738
 31
0.0
  0
MTEXT
  5
26D
330
1F
100
AcDbEntity
  8
CASE
100
AcDbMText
 10
8.100999987771583
 20
17.38411259530731
 30
1.404095091298307
 40
0.15
 41
0.3113648369525695
 71
     5
 72
     5
  1
22
1001
ACAD
1000
MTEXTBEGIN
1070
    73
1070
     1
1070
    44
1040
1.0
1070
    74
1070
     0
1000
MTEXTEND
  0
MTEXT
  5
26E
330
1F
100
AcDbEntity
  8
CASE
100
AcDbMText
 10
7.743163992549813
 20
17.38411259530731
 30
1.404095091298307
 40
0.15
 41
0.3113648369525695
 71
     5
 72
     5
  1
21
1001
ACAD
1000
MTEXTBEGIN
1070
    73
1070
     1
1070
    44
1040
1.0
1070
    74
1070
     0
1000
MTEXTEND
  0
MTEXT
  5
26F
330
1F
100
AcDbEntity
  8
CASE
100
AcDbMText
 10
7.409016362649505
 20
17.38411259530731
 30
1.404095091298307
 40
0.15
 41
0.3113648369525695
 71
     5
 72
     5
  1
20
1001
ACAD
1000
MTEXTBEGIN
1070
    73
1070
     1
1070
    44
1040
1.0
1070
    74
1070
     0
1000
MTEXTEND
  0
MTEXT
  5
270
330
1F
100
AcDbEntity
  8
CASE
100
AcDbMText
 10
8.437999987771586
 20
17.38411259530731
 30
1.404095091298307
 40
0.15
 41
0.3113648369525695
 71
     5
 72
     5
  1
23
1001
ACAD
1000
MTEXTBEGIN
1070
    73
1070
     1
1070
    44
1040
1.0
1070
    74
1070
     0
1000
MTEXTEND
  0
ARC
  5
271
330
1F
100
AcDbEntity
  8
CASE
100
AcDbCircle
 10
8.306827166220077
 20
17.13603329432072
 30
0.0
 40
0.0042190357310668
100
AcDbArc
 50
0.0
 51
180.0
  0
ARC
  5
272
330
1F
100
AcDbEntity
  8
CASE
100
AcDbCircle
 10
8.306827166220077
 20
17.13603329432072
 30
0.0
 40
0.0042190357310668
100
AcDbArc
 50
180.0
 51
0.0
  0
ARC
  5
273
330
1F
100
AcDbEntity
  8
CASE
100
AcDbCircle
 10
8.306827166220077
 20
17.13603329432072
 30
0.0
 40
0.0042190357310668
100
AcDbArc
 50
0.0
 51
180.0
  0
ARC
  5
274
330
1F
100
AcDbEntity
  8
CASE
100
AcDbCircle
 10
8.306827166220077
 20
17.13603329432072
 30
0.0
 40
0.0042190357310668
100
AcDbArc
 50
180.0
 51
0.0
  0
LINE
  5
275
330
1F
100
AcDbEntity
  8
CASE
100
AcDbLine
 10
8.306827166220077
 20
17.13603329432072
 30
0.0
 11
8.306827166220077
 21
17.13603329432072
 31
0.0
  0
MTEXT
  5
276
330
1F
100
AcDbEntity
  8
CASE
100
AcDbMText
 10
8.800999987771586
 20
17.38411259530731
 30
1.404095091298307
 40
0.15
 41
0.3113648369525695
 71
     5
 72
     5
  1
24
1001
ACAD
1000
MTEXTBEGIN
1070
    73
1070
     1
1070
    44
1040
1.0
1070
    74
1070
     0
1000
MTEXTEND
  0
MTEXT
  5
277
330
1F
100
AcDbEntity
  8
CASE
100
AcDbMText
 10
7.74485160684227
 20
17.75116870390993
 30
1.404095091298307
 40
0.1265710719319388
 41
0.5248000000000001
 71
     4
 72
     5
  1
DI-20
 11
0.0000000000000001
 21
1.0
 31
0.0
1001
ACAD
1000
MTEXTBEGIN
1070
    73
1070
     1
1070
    44
1040
1.0
1070
    74
1070
     0
1000
MTEXTEND
  0
MTEXT
  5
278
330
1F
100
AcDbEntity
  8
CASE
100
AcDbMText
 10
7.415766819819221
 20
17.75116870390993
 30
1.404095091298307
 40
0.1265710719319388
 41
0.5248000000000001
 71
     4
 72
     5
  1
DI-19
 11
0.0000000000000001
 21
1.0
 31
0.0
1001
ACAD
1000
MTEXTBEGIN
1070
    73
1070
     1
1070
    44
1040
1.0
1070
    74
1070
     0
1000
MTEXTEND
  0
MTEXT
  5
279
330
1F
100
AcDbEntity
  8
CASE
100
AcDbMText
 10
8.080686851034993
 20
17.75116870390993
 30
1.404095091298307
 40
0.1265710719319388
 41
0.5248000000000001
 71
     4
 72
     5
  1
DI-21
 11
0.0000000000000001
 21
1.0
 31
0.0
1001
ACAD
1000
MTEXTBEGIN
1070
    73
1070
     1
1070
    44
1040
1.0
1070
    74
1070
     0
1000
MTEXTEND
  0
MTEXT
  5
27A
330
1F
100
AcDbEntity
  8
CASE
100
AcDbMText
 10
8.421584938105031
 20
17.75116870390993
 30
1.404095091298307
 40
0.1265710719319388
 41
0.5248000000000001
 71
     4
 72
     5
  1
DI-22
 11
0.0000000000000001
 21
1.0
 31
0.0
1001
ACAD
1000
MTEXTBEGIN
1070
    73
1070
     1
1070
    44
1040
1.0
1070
    74
1070
     0
1000
MTEXTEND
  0
MTEXT
  5
27B
330
1F
100
AcDbEntity
  8
CASE
100
AcDbMText
 10
8.786109625269009
 20
17.75116870390993
 30
1.404095091298307
 40
0.1265710719319388
 41
0.5248000000000001
 71
     4
 72
     5
  1
DI-COMB
 11
0.0000000000000001
 21
1.0
 31
0.0
1001
ACAD
1000
MTEXTBEGIN
1070
    73
1070
     1
1070
    44
1040
1.0
1070
    74
1070
     0
1000
MTEXTEND
  0
MTEXT
  5
27C
330
1F
100
AcDbEntity
  8
CASE
100
AcDbMText
 10
1.536042981378622
 20
23.81561066374223
 30
1.404095091298307
 40
0.15
 41
0.3113648369525695
 71
     5
 72
     5
  1
16
 11
-1.0
 21
0.0000000000000001
 31
0.0
1001
ACAD
1000
MTEXTBEGIN
1070
    73
1070
     1
1070
    44
1040
1.0
1070
    74
1070
     0
1000
MTEXTEND
  0
MTEXT
  5
27D
330
1F
100
AcDbEntity
  8
CASE
100
AcDbMText
 10
1.532667752793778
 20
22.88404757432316
 30
1.404095091298307
 40
0.1265710719319388
 41
0.4877000000000001
 71
     4
 72
     5
  1
DO-31
 11
0.0000000000000001
 21
1.0
 31
0.0
1001
ACAD
1000
MTEXTBEGIN
1070
    73
1070
     1
1070
    44
1040
1.0
1070
    74
1070
     0
1000
MTEXTEND
  0
LINE
  5
27E
330
1F
100
AcDbEntity
  8
CASE
100
AcDbLine
 10
6.889155516953374
 20
23.5911579628496
 30
0.0
 11
0.5530283519481194
 21
23.5911579628496
 31
0.0
  0
LINE
  5
27F
330
1F
100
AcDbEntity
  8
CASE
100
AcDbLine
 10
0.5530283519481194
 20
24.05525189326671
 30
0.0
 11
6.889155516953374
 21
24.05525189326671
 31
0.0
  0
LINE
  5
280
330
1F
100
AcDbEntity
  8
CASE
100
AcDbLine
 10
1.320028351948119
 20
23.58999999999999
 30
0.0
 11
1.320028351948119
 21
24.05525189326671
 31
0.0
  0
MTEXT
  5
281
330
1F
100
AcDbEntity
  8
CASE
100
AcDbMText
 10
0.27
 20
23.81561066374223
 30
1.404095091298307
 40
0.15
 41
0.3113648369525695
 71
     5
 72
     5
  1
TB4
 11
-1.0
 21
0.0000000000000001
 31
0.0
1001
ACAD
1000
MTEXTBEGIN
1070
    73
1070
     1
1070
    44
1040
1.0
1070
    74
1070
     0
1000
MTEXTEND
  0
LINE
  5
282
330
1F
100
AcDbEntity
  8
CASE
100
AcDbLine
 10
7.43770580562069
 20
23.54896760553895
 30
0.0
 11
1.868578640615434
 21
23.54896760553895
 31
0.0
  0
LINE
  5
283
330
1F
100
AcDbEntity
  8
CASE
100
AcDbLine
 10
3.088648130410414
 20
23.59115796284968
 30
0.0
 11
3.088648130410414
 21
24.05525189326679
 31
0.0
  0
LINE
  5
284
330
1F
100
AcDbEntity
  8
CASE
100
AcDbLine
 10
3.427858603187994
 20
23.59115796284968
 30
0.0
 11
3.427858603187994
 21
24.0552518932668
 31
0.0
  0
LINE
  5
285
330
1F
100
AcDbEntity
  8
CASE
100
AcDbLine
 10
2.751125271925234
 20
23.59115796284967
 30
0.0
 11
2.751125271925234
 21
24.05525189326678
 31
0.0
  0
LINE
  5
286
330
1F
100
AcDbEntity
  8
CASE
100
AcDbLine
 10
2.423728099194571
 20
23.59115796284966
 30
0.0
 11
2.423728099194571
 21
24.05525189326678
 31
0.0
  0
LINE
  5
287
330
1F
100
AcDbEntity
  8
CASE
100
AcDbLine
 10
2.084517626416962
 20
23.59115796284966
 30
0.0
 11
2.084517626416962
 21
24.05525189326677
 31
0.0
  0
LINE
  5
288
330
1F
100
AcDbEntity
  8
CASE
100
AcDbLine
 10
1.741931925054531
 20
23.59115796284966
 30
0.0
 11
1.741931925054531
 21
24.05525189326677
 31
0.0
  0
MTEXT
  5
289
330
1F
100
AcDbEntity
  8
CASE
100
AcDbMText
 10
2.249903827074761
 20
22.88404757432316
 30
1.404095091298307
 40
0.1265710719319388
 41
0.4877000000000001
 71
     4
 72
     5
  1
DO-29
 11
0.0000000000000001
 21
1.0
 31
0.0
1001
ACAD
1000
MTEXTBEGIN
1070
    73
1070
     1
1070
    44
1040
1.0
1070
    74
1070
     0
1000
MTEXTEND
  0
MTEXT
  5
28A
330
1F
100
AcDbEntity
  8
CASE
100
AcDbMText
 10
1.905630511419901
 20
22.88404757432316
 30
1.404095091298307
 40
0.1265710719319388
 41
0.4877000000000001
 71
     4
 72
     5
  1
DO-30
 11
0.0000000000000001
 21
1.0
 31
0.0
1001
ACAD
1000
MTEXTBEGIN
1070
    73
1070
     1
1070
    44
1040
1.0
1070
    74
1070
     0
1000
MTEXTEND
  0
ARC
  5
28B
330
1F
100
AcDbEntity
  8
CASE
100
AcDbCircle
 10
1.995074068918393
 20
23.5911579628496
 30
0.0
 40
0.0042190357310668
100
AcDbArc
 50
180.0
 51
0.0
  0
ARC
  5
28C
330
1F
100
AcDbEntity
  8
CASE
100
AcDbCircle
 10
1.995074068918393
 20
23.5911579628496
 30
0.0
 40
0.0042190357310668
100
AcDbArc
 50
0.0
 51
180.0
  0
MTEXT
  5
28D
330
1F
100
AcDbEntity
  8
CASE
100
AcDbMText
 10
2.58405145697509
 20
22.88404757432316
 30
1.404095091298307
 40
0.1265710719319388
 41
0.4877000000000001
 71
     4
 72
     5
  1
DO-28
 11
0.0000000000000001
 21
1.0
 31
0.0
1001
ACAD
1000
MTEXTBEGIN
1070
    73
1070
     1
1070
    44
1040
1.0
1070
    74
1070
     0
1000
MTEXTEND
  0
MTEXT
  5
28E
330
1F
100
AcDbEntity
  8
CASE
100
AcDbMText
 10
2.919886701167833
 20
22.88404757432316
 30
1.404095091298307
 40
0.1265710719319388
 41
0.4877000000000001
 71
     4
 72
     5
  1
DO-27
 11
0.0000000000000001
 21
1.0
 31
0.0
1001
ACAD
1000
MTEXTBEGIN
1070
    73
1070
     1
1070
    44
1040
1.0
1070
    74
1070
     0
1000
MTEXTEND
  0
MTEXT
  5
28F
330
1F
100
AcDbEntity
  8
CASE
100
AcDbMText
 10
3.257409559653006
 20
22.88404757432316
 30
1.404095091298307
 40
0.1265710719319388
 41
0.4877000000000001
 71
     4
 72
     5
  1
DO-26
 11
0.0000000000000001
 21
1.0
 31
0.0
1001
ACAD
1000
MTEXTBEGIN
1070
    73
1070
     1
1070
    44
1040
1.0
1070
    74
1070
     0
1000
MTEXTEND
  0
ARC
  5
290
330
1F
100
AcDbEntity
  8
CASE
100
AcDbCircle
 10
2.543624357585716
 20
23.54896760553895
 30
0.0
 40
0.0042190357310668
100
AcDbArc
 50
0.0
 51
180.0
  0
ARC
  5
291
330
1F
100
AcDbEntity
  8
CASE
100
AcDbCircle
 10
2.543624357585716
 20
23.54896760553895
 30
0.0
 40
0.0042190357310668
100
AcDbArc
 50
180.0
 51
0.0
  0
MTEXT
  5
292
330
1F
100
AcDbEntity
  8
CASE
100
AcDbMText
 10
1.909005740004745
 20
23.81561066374223
 30
1.404095091298307
 40
0.15
 41
0.3113648369525695
 71
     5
 72
     5
  1
15
 11
-1.0
 21
0.0000000000000001
 31
0.0
1001
ACAD
1000
MTEXTBEGIN
1070
    73
1070
     1
1070
    44
1040
1.0
1070
    74
1070
     0
1000
MTEXTEND
  0
MTEXT
  5
293
330
1F
100
AcDbEntity
  8
CASE
100
AcDbMText
 10
2.248216212782325
 20
23.81561066374223
 30
1.404095091298307
 40
0.15
 41
0.3113648369525695
 71
     5
 72
     5
  1
14
 11
-1.0
 21
0.0000000000000001
 31
0.0
1001
ACAD
1000
MTEXTBEGIN
1070
    73
1070
     1
1070
    44
1040
1.0
1070
    74
1070
     0
1000
MTEXTEND
  0
LINE
  5
294
330
1F
100
AcDbEntity
  8
CASE
100
AcDbLine
 10
1.995074068918393
 20
24.05525189326671
 30
0.0
 11
1.995074068918393
 21
24.05525189326671
 31
0.0
  0
ARC
  5
295
330
1F
100
AcDbEntity
  8
CASE
100
AcDbCircle
 10
1.995074068918393
 20
24.05525189326671
 30
0.0
 40
0.0042190357310668
100
AcDbArc
 50
0.0
 51
180.0
  0
ARC
  5
296
330
1F
100
AcDbEntity
  8
CASE
100
AcDbCircle
 10
1.995074068918393
 20
24.05525189326671
 30
0.0
 40
0.0042190357310668
100
AcDbArc
 50
180.0
 51
0.0
  0
ARC
  5
297
330
1F
100
AcDbEntity
  8
CASE
100
AcDbCircle
 10
1.995074068918393
 20
24.05525189326671
 30
0.0
 40
0.0042190357310668
100
AcDbArc
 50
0.0
 51
180.0
  0
ARC
  5
298
330
1F
100
AcDbEntity
  8
CASE
100
AcDbCircle
 10
1.995074068918393
 20
24.05525189326671
 30
0.0
 40
0.0042190357310668
100
AcDbArc
 50
180.0
 51
0.0
  0
MTEXT
  5
299
330
1F
100
AcDbEntity
  8
CASE
100
AcDbMText
 10
2.919886701167833
 20
23.81561066374223
 30
1.404095091298307
 40
0.15
 41
0.3113648369525695
 71
     5
 72
     5
  1
12
 11
-1.0
 21
0.0000000000000001
 31
0.0
1001
ACAD
1000
MTEXTBEGIN
1070
    73
1070
     1
1070
    44
1040
1.0
1070
    74
1070
     0
1000
MTEXTEND
  0
MTEXT
  5
29A
330
1F
100
AcDbEntity
  8
CASE
100
AcDbMText
 10
2.585739071267505
 20
23.81561066374223
 30
1.404095091298307
 40
0.15
 41
0.3113648369525695
 71
     5
 72
     5
  1
13
 11
-1.0
 21
0.0000000000000001
 31
0.0
1001
ACAD
1000
MTEXTBEGIN
1070
    73
1070
     1
1070
    44
1040
1.0
1070
    74
1070
     0
1000
MTEXTEND
  0
MTEXT
  5
29B
330
1F
100
AcDbEntity
  8
CASE
100
AcDbMText
 10
3.257409559652999
 20
23.81561066374223
 30
1.404095091298307
 40
0.15
 41
0.3113648369525695
 71
     5
 72
     5
  1
11
 11
-1.0
 21
0.0000000000000001
 31
0.0
1001
ACAD
1000
MTEXTBEGIN
1070
    73
1070
     1
1070
    44
1040
1.0
1070
    74
1070
     0
1000
MTEXTEND
  0
LINE
  5
29C
330
1F
100
AcDbEntity
  8
CASE
100
AcDbLine
 10
5.123910967075966
 20
23.59115796284972
 30
0.0
 11
5.123910967075966
 21
24.05525189326684
 31
0.0
  0
LINE
  5
29D
330
1F
100
AcDbEntity
  8
CASE
100
AcDbLine
 10
4.10121670586591
 20
23.5911579628497
 30
0.0
 11
4.10121670586591
 21
24.05525189326681
 31
0.0
  0
LINE
  5
29E
330
1F
100
AcDbEntity
  8
CASE
100
AcDbLine
 10
4.442114792935933
 20
23.5911579628497
 30
0.0
 11
4.442114792935933
 21
24.05525189326681
 31
0.0
  0
LINE
  5
29F
330
1F
100
AcDbEntity
  8
CASE
100
AcDbLine
 10
4.781325265713542
 20
23.59115796284972
 30
0.0
 11
4.781325265713542
 21
24.05525189326683
 31
0.0
  0
LINE
  5
2A0
330
1F
100
AcDbEntity
  8
CASE
100
AcDbLine
 10
3.765381461673174
 20
23.5911579628497
 30
0.0
 11
3.765381461673174
 21
24.0552518932668
 31
0.0
  0
MTEXT
  5
2A1
330
1F
100
AcDbEntity
  8
CASE
100
AcDbMText
 10
3.934142890915766
 20
22.606
 30
1.404095091298307
 40
0.1265710719319388
 41
0.4877000000000001
 71
     4
 72
     5
  1
DO-COMC
 11
0.0000000000000001
 21
1.0
 31
0.0
1001
ACAD
1000
MTEXTBEGIN
1070
    73
1070
     1
1070
    44
1040
1.0
1070
    74
1070
     0
1000
MTEXTEND
  0
MTEXT
  5
2A2
330
1F
100
AcDbEntity
  8
CASE
100
AcDbMText
 10
4.271665749400946
 20
22.88404757432316
 30
1.404095091298307
 40
0.1265710719319388
 41
0.4877000000000001
 71
     4
 72
     5
  1
DO-24
 11
0.0000000000000001
 21
1.0
 31
0.0
1001
ACAD
1000
MTEXTBEGIN
1070
    73
1070
     1
1070
    44
1040
1.0
1070
    74
1070
     0
1000
MTEXTEND
  0
MTEXT
  5
2A3
330
1F
100
AcDbEntity
  8
CASE
100
AcDbMText
 10
3.596620032430593
 20
22.88404757432316
 30
1.404095091298307
 40
0.1265710719319388
 41
0.4877000000000001
 71
     4
 72
     5
  1
DO-25
 11
0.0000000000000001
 21
1.0
 31
0.0
1001
ACAD
1000
MTEXTBEGIN
1070
    73
1070
     1
1070
    44
1040
1.0
1070
    74
1070
     0
1000
MTEXTEND
  0
MTEXT
  5
2A4
330
1F
100
AcDbEntity
  8
CASE
100
AcDbMText
 10
5.285921939148878
 20
22.88404757432316
 30
1.404095091298307
 40
0.1265710719319388
 41
0.4877000000000001
 71
     4
 72
     5
  1
DO-21
 11
0.0000000000000001
 21
1.0
 31
0.0
1001
ACAD
1000
MTEXTBEGIN
1070
    73
1070
     1
1070
    44
1040
1.0
1070
    74
1070
     0
1000
MTEXTEND
  0
MTEXT
  5
2A5
330
1F
100
AcDbEntity
  8
CASE
100
AcDbMText
 10
4.948399080663706
 20
22.88404757432316
 30
1.404095091298307
 40
0.1265710719319388
 41
0.4877000000000001
 71
     4
 72
     5
  1
DO-22
 11
0.0000000000000001
 21
1.0
 31
0.0
1001
ACAD
1000
MTEXTBEGIN
1070
    73
1070
     1
1070
    44
1040
1.0
1070
    74
1070
     0
1000
MTEXTEND
  0
MTEXT
  5
2A6
330
1F
100
AcDbEntity
  8
CASE
100
AcDbMText
 10
4.610876222178526
 20
22.88404757432316
 30
1.404095091298307
 40
0.1265710719319388
 41
0.4877000000000001
 71
     4
 72
     5
  1
DO-23
 11
0.0000000000000001
 21
1.0
 31
0.0
1001
ACAD
1000
MTEXTBEGIN
1070
    73
1070
     1
1070
    44
1040
1.0
1070
    74
1070
     0
1000
MTEXTEND
  0
MTEXT
  5
2A7
330
1F
100
AcDbEntity
  8
CASE
100
AcDbMText
 10
3.934142890915766
 20
23.81561066374223
 30
1.404095091298307
 40
0.15
 41
0.3113648369525695
 71
     5
 72
     5
  1
9
 11
-1.0
 21
0.0000000000000001
 31
0.0
1001
ACAD
1000
MTEXTBEGIN
1070
    73
1070
     1
1070
    44
1040
1.0
1070
    74
1070
     0
1000
MTEXTEND
  0
MTEXT
  5
2A8
330
1F
100
AcDbEntity
  8
CASE
100
AcDbMText
 10
3.596620032430593
 20
23.81561066374223
 30
1.404095091298307
 40
0.15
 41
0.3113648369525695
 71
     5
 72
     5
  1
10
 11
-1.0
 21
0.0000000000000001
 31
0.0
1001
ACAD
1000
MTEXTBEGIN
1070
    73
1070
     1
1070
    44
1040
1.0
1070
    74
1070
     0
1000
MTEXTEND
  0
MTEXT
  5
2A9
330
1F
100
AcDbEntity
  8
CASE
100
AcDbMText
 10
4.271665749400932
 20
23.81561066374223
 30
1.404095091298307
 40
0.15
 41
0.3113648369525695
 71
     5
 72
     5
  1
8
 11
-1.0
 21
0.0000000000000001
 31
0.0
1001
ACAD
1000
MTEXTBEGIN
1070
    73
1070
     1
1070
    44
1040
1.0
1070
    74
1070
     0
1000
MTEXTEND
  0
MTEXT
  5
2AA
330
1F
100
AcDbEntity
  8
CASE
100
AcDbMText
 10
4.948399080663706
 20
23.81561066374223
 30
1.404095091298307
 40
0.15
 41
0.3113648369525695
 71
     5
 72
     5
  1
6
 11
-1.0
 21
0.0000000000000001
 31
0.0
1001
ACAD
1000
MTEXTBEGIN
1070
    73
1070
     1
1070
    44
1040
1.0
1070
    74
1070
     0
1000
MTEXTEND
  0
MTEXT
  5
2AB
330
1F
100
AcDbEntity
  8
CASE
100
AcDbMText
 10
4.609188607886097
 20
23.81561066374223
 30
1.404095091298307
 40
0.15
 41
0.3113648369525695
 71
     5
 72
     5
  1
7
 11
-1.0
 21
0.0000000000000001
 31
0.0
1001
ACAD
1000
MTEXTBEGIN
1070
    73
1070
     1
1070
    44
1040
1.0
1070
    74
1070
     0
1000
MTEXTEND
  0
MTEXT
  5
2AC
330
1F
100
AcDbEntity
  8
CASE
100
AcDbMText
 10
5.285921939148864
 20
23.81561066374223
 30
1.404095091298307
 40
0.15
 41
0.3113648369525695
 71
     5
 72
     5
  1
5
 11
-1.0
 21
0.0000000000000001
 31
0.0
1001
ACAD
1000
MTEXTBEGIN
1070
    73
1070
     1
1070
    44
1040
1.0
1070
    74
1070
     0
1000
MTEXTEND
  0
LINE
  5
2AD
330
1F
100
AcDbEntity
  8
CASE
100
AcDbLine
 10
7.088294003459639
 20
23.54896760553895
 30
0.0
 11
7.088294003459639
 21
24.05525189326668
 31
0.0
  0
LINE
  5
2AE
330
1F
100
AcDbEntity
  8
CASE
100
AcDbLine
 10
6.889155516953374
 20
24.05525189326671
 30
0.0
 11
6.889155516953374
 21
23.54896760553895
 31
0.0
  0
LINE
  5
2AF
330
1F
100
AcDbEntity
  8
CASE
100
AcDbLine
 10
6.133104313946626
 20
23.59115796284974
 30
0.0
 11
6.133104313946626
 21
24.05525189326686
 31
0.0
  0
LINE
  5
2B0
330
1F
100
AcDbEntity
  8
CASE
100
AcDbLine
 10
6.472314786724234
 20
23.59115796284975
 30
0.0
 11
6.472314786724234
 21
24.05525189326686
 31
0.0
  0
LINE
  5
2B1
330
1F
100
AcDbEntity
  8
CASE
100
AcDbLine
 10
5.456370982683866
 20
23.59115796284973
 30
0.0
 11
5.456370982683866
 21
24.05525189326684
 31
0.0
  0
LINE
  5
2B2
330
1F
100
AcDbEntity
  8
CASE
100
AcDbLine
 10
5.800644298338754
 20
23.59115796284974
 30
0.0
 11
5.800644298338754
 21
24.05525189326685
 31
0.0
  0
MTEXT
  5
2B3
330
1F
100
AcDbEntity
  8
CASE
100
AcDbMText
 10
6.29680290031196
 20
22.88404757432316
 30
1.404095091298307
 40
0.1265710719319388
 41
0.4877000000000001
 71
     4
 72
     5
  1
DO-18
 11
0.0000000000000001
 21
1.0
 31
0.0
1001
ACAD
1000
MTEXTBEGIN
1070
    73
1070
     1
1070
    44
1040
1.0
1070
    74
1070
     0
1000
MTEXTEND
  0
MTEXT
  5
2B4
330
1F
100
AcDbEntity
  8
CASE
100
AcDbMText
 10
5.95590481324193
 20
22.88404757432316
 30
1.404095091298307
 40
0.1265710719319388
 41
0.4877000000000001
 71
     4
 72
     5
  1
DO-19
 11
0.0000000000000001
 21
1.0
 31
0.0
1001
ACAD
1000
MTEXTBEGIN
1070
    73
1070
     1
1070
    44
1040
1.0
1070
    74
1070
     0
1000
MTEXTEND
  0
MTEXT
  5
2B5
330
1F
100
AcDbEntity
  8
CASE
100
AcDbMText
 10
5.620069569049186
 20
22.88404757432316
 30
1.404095091298307
 40
0.1265710719319388
 41
0.4877000000000001
 71
     4
 72
     5
  1
DO-20
 11
0.0000000000000001
 21
1.0
 31
0.0
1001
ACAD
1000
MTEXTBEGIN
1070
    73
1070
     1
1070
    44
1040
1.0
1070
    74
1070
     0
1000
MTEXTEND
  0
MTEXT
  5
2B6
330
1F
100
AcDbEntity
  8
CASE
100
AcDbMText
 10
7.259000000000001
 20
22.632
 30
1.404095091298307
 40
0.1265710719319388
 41
0.4877000000000001
 71
     4
 72
     5
  1
DI-COMD
 11
0.0000000000000001
 21
1.0
 31
0.0
1001
ACAD
1000
MTEXTBEGIN
1070
    73
1070
     1
1070
    44
1040
1.0
1070
    74
1070
     0
1000
MTEXTEND
  0
MTEXT
  5
2B7
330
1F
100
AcDbEntity
  8
CASE
100
AcDbMText
 10
6.632638144504711
 20
22.88404757432316
 30
1.404095091298307
 40
0.1265710719319388
 41
0.4877000000000001
 71
     4
 72
     5
  1
DO-17
 11
0.0000000000000001
 21
1.0
 31
0.0
1001
ACAD
1000
MTEXTBEGIN
1070
    73
1070
     1
1070
    44
1040
1.0
1070
    74
1070
     0
1000
MTEXTEND
  0
MTEXT
  5
2B8
330
1F
100
AcDbEntity
  8
CASE
100
AcDbMText
 10
5.620069569049186
 20
23.81561066374223
 30
1.404095091298307
 40
0.15
 41
0.3113648369525695
 71
     5
 72
     5
  1
4
 11
-1.0
 21
0.0000000000000001
 31
0.0
1001
ACAD
1000
MTEXTBEGIN
1070
    73
1070
     1
1070
    44
1040
1.0
1070
    74
1070
     0
1000
MTEXTEND
  0
MTEXT
  5
2B9
330
1F
100
AcDbEntity
  8
CASE
100
AcDbMText
 10
5.957592427534359
 20
23.81561066374223
 30
1.404095091298307
 40
0.15
 41
0.3113648369525695
 71
     5
 72
     5
  1
3
 11
-1.0
 21
0.0000000000000001
 31
0.0
1001
ACAD
1000
MTEXTBEGIN
1070
    73
1070
     1
1070
    44
1040
1.0
1070
    74
1070
     0
1000
MTEXTEND
  0
MTEXT
  5
2BA
330
1F
100
AcDbEntity
  8
CASE
100
AcDbMText
 10
6.296802900311946
 20
23.81561066374223
 30
1.404095091298307
 40
0.15
 41
0.3113648369525695
 71
     5
 72
     5
  1
2
 11
-1.0
 21
0.0000000000000001
 31
0.0
1001
ACAD
1000
MTEXTBEGIN
1070
    73
1070
     1
1070
    44
1040
1.0
1070
    74
1070
     0
1000
MTEXTEND
  0
MTEXT
  5
2BB
330
1F
100
AcDbEntity
  8
CASE
100
AcDbMText
 10
6.634325758797118
 20
23.81561066374223
 30
1.404095091298307
 40
0.15
 41
0.3113648369525697
 71
     5
 72
     5
  1
1
 11
-1.0
 21
0.0000000000000001
 31
0.0
1001
ACAD
1000
MTEXTBEGIN
1070
    73
1070
     1
1070
    44
1040
1.0
1070
    74
1070
     0
1000
MTEXTEND
  0
MTEXT
  5
2BC
330
1F
100
AcDbEntity
  8
CASE
100
AcDbMText
 10
7.255367818409788
 20
23.81561066374224
 30
1.404095091298307
 40
0.15
 41
0.3113648369525695
 71
     5
 72
     5
  1
24
 11
-1.0
 21
0.0000000000000001
 31
0.0
1001
ACAD
1000
MTEXTBEGIN
1070
    73
1070
     1
1070
    44
1040
1.0
1070
    74
1070
     0
1000
MTEXTEND
  0
LINE
  5
2BD
330
1F
100
AcDbEntity
  8
CASE
100
AcDbLine
 10
7.427504476237225
 20
23.59115796284959
 30
0.0
 11
7.427504476237225
 21
24.0552518932667
 31
0.0
  0
LINE
  5
2BE
330
1F
100
AcDbEntity
  8
CASE
100
AcDbLine
 10
7.766714949014805
 20
23.5911579628496
 30
0.0
 11
7.766714949014805
 21
24.05525189326671
 31
0.0
  0
LINE
  5
2BF
330
1F
100
AcDbEntity
  8
CASE
100
AcDbLine
 10
8.784346367347589
 20
23.59115796284961
 30
0.0
 11
8.784346367347589
 21
24.05525189326673
 31
0.0
  0
LINE
  5
2C0
330
1F
100
AcDbEntity
  8
CASE
100
AcDbLine
 10
8.445135894570002
 20
23.59115796284961
 30
0.0
 11
8.445135894570002
 21
24.05525189326672
 31
0.0
  0
LINE
  5
2C1
330
1F
100
AcDbEntity
  8
CASE
100
AcDbLine
 10
9.12355684012517
 20
23.59115796284962
 30
0.0
 11
9.12355684012517
 21
24.05525189326673
 31
0.0
  0
LINE
  5
2C2
330
1F
100
AcDbEntity
  8
CASE
100
AcDbLine
 10
8.105925421792413
 20
23.5911579628496
 30
0.0
 11
8.105925421792413
 21
24.05525189326671
 31
0.0
  0
ARC
  5
2C3
330
1F
100
AcDbEntity
  8
CASE
100
AcDbCircle
 10
8.365818022825942
 20
23.5911579628496
 30
0.0
 40
0.0042190357310668
100
AcDbArc
 50
0.0
 51
180.0
  0
ARC
  5
2C4
330
1F
100
AcDbEntity
  8
CASE
100
AcDbCircle
 10
8.171818022825942
 20
23.54896760553895
 30
0.0
 40
0.0042190357310668
100
AcDbArc
 50
180.0
 51
0.0
  0
ARC
  5
2C5
330
1F
100
AcDbEntity
  8
CASE
100
AcDbCircle
 10
8.171818022825942
 20
23.54896760553895
 30
0.0
 40
0.0042190357310668
100
AcDbArc
 50
0.0
 51
180.0
  0
ARC
  5
2C6
330
1F
100
AcDbEntity
  8
CASE
100
AcDbCircle
 10
8.365818022825942
 20
23.5911579628496
 30
0.0
 40
0.0042190357310668
100
AcDbArc
 50
180.0
 51
0.0
  0
MTEXT
  5
2C7
330
1F
100
AcDbEntity
  8
CASE
100
AcDbMText
 10
7.570101149672562
 20
22.88404757432316
 30
1.404095091298307
 40
0.1265710719319388
 41
0.4877000000000001
 71
     4
 72
     5
  1
DI-44
 11
0.0000000000000001
 21
1.0
 31
0.0
1001
ACAD
1000
MTEXTBEGIN
1070
    73
1070
     1
1070
    44
1040
1.0
1070
    74
1070
     0
1000
MTEXTEND
  0
MTEXT
  5
2C8
330
1F
100
AcDbEntity
  8
CASE
100
AcDbMText
 10
7.921124922497138
 20
22.88404757432316
 30
1.404095091298307
 40
0.1265710719319388
 41
0.4877000000000001
 71
     4
 72
     5
  1
DI-43
 11
0.0000000000000001
 21
1.0
 31
0.0
1001
ACAD
1000
MTEXTBEGIN
1070
    73
1070
     1
1070
    44
1040
1.0
1070
    74
1070
     0
1000
MTEXTEND
  0
MTEXT
  5
2CA
330
1F
100
AcDbEntity
  8
CASE
100
AcDbMText
 10
8.592795410882619
 20
22.88404757432316
 30
1.404095091298307
 40
0.1265710719319388
 41
0.4877000000000001
 71
     4
 72
     5
  1
DI-41
 11
0.0000000000000001
 21
1.0
 31
0.0
1001
ACAD
1000
MTEXTBEGIN
1070
    73
1070
     1
1070
    44
1040
1.0
1070
    74
1070
     0
1000
MTEXTEND
  0
MTEXT
  5
2CB
330
1F
100
AcDbEntity
  8
CASE
100
AcDbMText
 10
8.253584938105031
 20
22.88404757432316
 30
1.404095091298307
 40
0.1265710719319388
 41
0.4877000000000001
 71
     4
 72
     5
  1
DI-42
 11
0.0000000000000001
 21
1.0
 31
0.0
1001
ACAD
1000
MTEXTBEGIN
1070
    73
1070
     1
1070
    44
1040
1.0
1070
    74
1070
     0
1000
MTEXTEND
  0
MTEXT
  5
2CC
330
1F
100
AcDbEntity
  8
CASE
100
AcDbMText
 10
8.283124922497139
 20
23.81561066374224
 30
1.404095091298307
 40
0.15
 41
0.3113648369525695
 71
     5
 72
     5
  1
21
 11
-1.0
 21
0.0000000000000001
 31
0.0
1001
ACAD
1000
MTEXTBEGIN
1070
    73
1070
     1
1070
    44
1040
1.0
1070
    74
1070
     0
1000
MTEXTEND
  0
ARC
  5
2CD
330
1F
100
AcDbEntity
  8
CASE
100
AcDbCircle
 10
8.365818022825942
 20
24.05525189326671
 30
0.0
 40
0.0042190357310668
100
AcDbArc
 50
180.0
 51
0.0
  0
ARC
  5
2CE
330
1F
100
AcDbEntity
  8
CASE
100
AcDbCircle
 10
8.365818022825942
 20
24.05525189326671
 30
0.0
 40
0.0042190357310668
100
AcDbArc
 50
0.0
 51
180.0
  0
ARC
  5
2CF
330
1F
100
AcDbEntity
  8
CASE
100
AcDbCircle
 10
8.365818022825942
 20
24.05525189326671
 30
0.0
 40
0.0042190357310668
100
AcDbArc
 50
180.0
 51
0.0
  0
ARC
  5
2D0
330
1F
100
AcDbEntity
  8
CASE
100
AcDbCircle
 10
8.365818022825942
 20
24.05525189326671
 30
0.0
 40
0.0042190357310668
100
AcDbArc
 50
0.0
 51
180.0
  0
MTEXT
  5
2D1
330
1F
100
AcDbEntity
  8
CASE
100
AcDbMText
 10
7.93378876396497
 20
23.81561066374224
 30
1.404095091298307
 40
0.15
 41
0.3113648369525695
 71
     5
 72
     5
  1
22
 11
-1.0
 21
0.0000000000000001
 31
0.0
1001
ACAD
1000
MTEXTBEGIN
1070
    73
1070
     1
1070
    44
1040
1.0
1070
    74
1070
     0
1000
MTEXTEND
  0
MTEXT
  5
2D2
330
1F
100
AcDbEntity
  8
CASE
100
AcDbMText
 10
7.594578291187382
 20
23.81561066374224
 30
1.404095091298307
 40
0.15
 41
0.3113648369525695
 71
     5
 72
     5
  1
23
 11
-1.0
 21
0.0000000000000001
 31
0.0
1001
ACAD
1000
MTEXTBEGIN
1070
    73
1070
     1
1070
    44
1040
1.0
1070
    74
1070
     0
1000
MTEXTEND
  0
LINE
  5
2D3
330
1F
100
AcDbEntity
  8
CASE
100
AcDbLine
 10
8.365818022825942
 20
24.05525189326671
 30
0.0
 11
8.365818022825942
 21
24.05525189326671
 31
0.0
  0
MTEXT
  5
2D4
330
1F
100
AcDbEntity
  8
CASE
100
AcDbMText
 10
8.954795410882619
 20
23.81561066374223
 30
1.404095091298307
 40
0.15
 41
0.3113648369525695
 71
     5
 72
     5
  1
19
 11
-1.0
 21
0.0000000000000001
 31
0.0
1001
ACAD
1000
MTEXTBEGIN
1070
    73
1070
     1
1070
    44
1040
1.0
1070
    74
1070
     0
1000
MTEXTEND
  0
MTEXT
  5
2D5
330
1F
100
AcDbEntity
  8
CASE
100
AcDbMText
 10
8.617272552397446
 20
23.81561066374224
 30
1.404095091298307
 40
0.15
 41
0.3113648369525695
 71
     5
 72
     5
  1
20
 11
-1.0
 21
0.0000000000000001
 31
0.0
1001
ACAD
1000
MTEXTBEGIN
1070
    73
1070
     1
1070
    44
1040
1.0
1070
    74
1070
     0
1000
MTEXTEND
  0
LINE
  5
2D6
330
1F
100
AcDbEntity
  8
CASE
100
AcDbLine
 10
15.93484376798492
 20
17.64231758204847
 30
0.307145801221505
 11
15.93484376798492
 21
23.54896760553895
 31
0.307145801221505
210
0.0
220
0.0
230
-1.0
  0
LINE
  5
2D7
330
1F
100
AcDbEntity
  8
CASE
100
AcDbLine
 10
15.93484376798492
 20
19.97628814847342
 30
1.323089605261867
 11
15.93484376798492
 21
17.72332306808491
 31
1.323089605261867
210
1.0
220
0.0
230
0.0
  0
LINE
  5
2D8
330
1F
100
AcDbEntity
  8
CASE
100
AcDbLine
 10
15.93484376798492
 20
17.64231758204847
 30
1.404095091298307
 11
15.93484376798492
 21
20.05729363450986
 31
1.404095091298307
210
1.0
220
0.0
230
0.0
  0
LINE
  5
2D9
330
1F
100
AcDbEntity
  8
CASE
100
AcDbLine
 10
15.93484376798492
 20
19.97628814847342
 30
1.323089605261867
 11
15.93484376798492
 21
17.72332306808491
 31
1.323089605261867
210
0.0
220
0.0
230
-1.0
  0
LINE
  5
2DA
330
1F
100
AcDbEntity
  8
CASE
100
AcDbLine
 10
15.93484376798492
 20
17.64231758204847
 30
1.404095091298307
 11
15.93484376798492
 21
20.05729363450986
 31
1.404095091298307
  0
MTEXT
  5
2DB
330
1F
100
AcDbEntity
  8
CASE
100
AcDbMText
 10
13.85499995685642
 20
13.67300004844463
 30
0.832
 40
0.2
 41
4.447
 71
     1
 72
     5
  1
Pinnacle Everest DIO
1001
ACAD
1000
MTEXTBEGIN
1070
    73
1070
     1
1070
    44
1040
1.0
1070
    74
1070
     0
1000
MTEXTEND
  0
MTEXT
  5
2DD
330
1F
100
AcDbEntity
  8
CASE
100
AcDbMText
 10
13.07602515661551
 20
17.75116870390993
 30
1.404095091298307
 40
0.1265710719319388
 41
0.5248000000000001
 71
     4
 72
     5
  1
DO-11
 11
0.0000000000000001
 21
1.0
 31
0.0
1001
ACAD
1000
MTEXTBEGIN
1070
    73
1070
     1
1070
    44
1040
1.0
1070
    74
1070
     0
1000
MTEXTEND
  0
MTEXT
  5
2DE
330
1F
100
AcDbEntity
  8
CASE
100
AcDbMText
 10
13.07602515661554
 20
17.38411259530731
 30
1.404095091298307
 40
0.15
 41
0.3113648369525695
 71
     5
 72
     5
  1
12
1001
ACAD
1000
MTEXTBEGIN
1070
    73
1070
     1
1070
    44
1040
1.0
1070
    74
1070
     0
1000
MTEXTEND
  0
LINE
  5
2DF
330
1F
100
AcDbEntity
  8
CASE
100
AcDbLine
 10
12.12083546710249
 20
17.64231758204847
 30
0.0
 11
14.98977976422639
 21
17.64231758204847
 31
0.0
  0
LINE
  5
2E0
330
1F
100
AcDbEntity
  8
CASE
100
AcDbLine
 10
10.87537611929218
 20
17.13603329432076
 30
0.0
 11
10.87537611929218
 21
17.60012722473786
 31
0.0
  0
LINE
  5
2E1
330
1F
100
AcDbEntity
  8
CASE
100
AcDbLine
 10
10.19695517373699
 20
17.13603329432073
 30
0.0
 11
10.19695517373699
 21
17.60012722473784
 31
0.0
  0
LINE
  5
2E2
330
1F
100
AcDbEntity
  8
CASE
100
AcDbLine
 10
9.857744700959411
 20
17.13603329432073
 30
0.0
 11
9.857744700959411
 21
17.60012722473784
 31
0.0
  0
LINE
  5
2E3
330
1F
100
AcDbEntity
  8
CASE
100
AcDbLine
 10
9.518534228181824
 20
17.13603329432072
 30
0.0
 11
9.518534228181824
 21
17.60012722473782
 31
0.0
  0
LINE
  5
2E4
330
1F
100
AcDbEntity
  8
CASE
100
AcDbLine
 10
10.5361656465146
 20
17.13603329432074
 30
0.0
 11
10.5361656465146
 21
17.60012722473785
 31
0.0
  0
MTEXT
  5
2E5
330
1F
100
AcDbEntity
  8
CASE
100
AcDbMText
 10
9.668731900207735
 20
17.38411259530731
 30
1.404095091298307
 40
0.15
 41
0.3113648369525695
 71
     5
 72
     5
  1
2
1001
ACAD
1000
MTEXTBEGIN
1070
    73
1070
     1
1070
    44
1040
1.0
1070
    74
1070
     0
1000
MTEXTEND
  0
MTEXT
  5
2E6
330
1F
100
AcDbEntity
  8
CASE
100
AcDbMText
 10
9.300831984458891
 20
17.38411259530731
 30
1.404095091298307
 40
0.15
 41
0.3113648369525697
 71
     5
 72
     5
  1
1
1001
ACAD
1000
MTEXTBEGIN
1070
    73
1070
     1
1070
    44
1040
1.0
1070
    74
1070
     0
1000
MTEXTEND
  0
MTEXT
  5
2E7
330
1F
100
AcDbEntity
  8
CASE
100
AcDbMText
 10
10.00794237298531
 20
17.38411259530731
 30
1.404095091298307
 40
0.15
 41
0.3113648369525695
 71
     5
 72
     5
  1
3
1001
ACAD
1000
MTEXTBEGIN
1070
    73
1070
     1
1070
    44
1040
1.0
1070
    74
1070
     0
1000
MTEXTEND
  0
MTEXT
  5
2E8
330
1F
100
AcDbEntity
  8
CASE
100
AcDbMText
 10
10.67961286137081
 20
17.38411259530731
 30
1.404095091298307
 40
0.15
 41
0.3113648369525695
 71
     5
 72
     5
  1
5
1001
ACAD
1000
MTEXTBEGIN
1070
    73
1070
     1
1070
    44
1040
1.0
1070
    74
1070
     0
1000
MTEXTEND
  0
MTEXT
  5
2E9
330
1F
100
AcDbEntity
  8
CASE
100
AcDbMText
 10
10.3454652314705
 20
17.38411259530731
 30
1.404095091298307
 40
0.15
 41
0.3113648369525695
 71
     5
 72
     5
  1
4
1001
ACAD
1000
MTEXTBEGIN
1070
    73
1070
     1
1070
    44
1040
1.0
1070
    74
1070
     0
1000
MTEXTEND
  0
MTEXT
  5
2EA
330
1F
100
AcDbEntity
  8
CASE
100
AcDbMText
 10
11.01713571985599
 20
17.38411259530731
 30
1.404095091298307
 40
0.15
 41
0.3113648369525695
 71
     5
 72
     5
  1
6
1001
ACAD
1000
MTEXTBEGIN
1070
    73
1070
     1
1070
    44
1040
1.0
1070
    74
1070
     0
1000
MTEXTEND
  0
MTEXT
  5
2EB
330
1F
100
AcDbEntity
  8
CASE
100
AcDbMText
 10
9.670419514500157
 20
17.75116870390993
 30
1.404095091298307
 40
0.1265710719319388
 41
0.5248000000000001
 71
     4
 72
     5
  1
DO-2
 11
0.0000000000000001
 21
1.0
 31
0.0
1001
ACAD
1000
MTEXTBEGIN
1070
    73
1070
     1
1070
    44
1040
1.0
1070
    74
1070
     0
1000
MTEXTEND
  0
MTEXT
  5
2EC
330
1F
100
AcDbEntity
  8
CASE
100
AcDbMText
 10
9.300831984458906
 20
17.75116870390993
 30
1.404095091298307
 40
0.1265710719319388
 41
0.5248000000000001
 71
     4
 72
     5
  1
DO-1
 11
0.0000000000000001
 21
1.0
 31
0.0
1001
ACAD
1000
MTEXTBEGIN
1070
    73
1070
     1
1070
    44
1040
1.0
1070
    74
1070
     0
1000
MTEXTEND
  0
MTEXT
  5
2ED
330
1F
100
AcDbEntity
  8
CASE
100
AcDbMText
 10
10.0062547586929
 20
17.75116870390993
 30
1.404095091298307
 40
0.1265710719319388
 41
0.5248000000000001
 71
     4
 72
     5
  1
DO-3
 11
0.0000000000000001
 21
1.0
 31
0.0
1001
ACAD
1000
MTEXTBEGIN
1070
    73
1070
     1
1070
    44
1040
1.0
1070
    74
1070
     0
1000
MTEXTEND
  0
MTEXT
  5
2EE
330
1F
100
AcDbEntity
  8
CASE
100
AcDbMText
 10
10.67961286137081
 20
17.75116870390993
 30
1.404095091298307
 40
0.1265710719319388
 41
0.5248000000000001
 71
     4
 72
     5
  1
DO-5
 11
0.0000000000000001
 21
1.0
 31
0.0
1001
ACAD
1000
MTEXTBEGIN
1070
    73
1070
     1
1070
    44
1040
1.0
1070
    74
1070
     0
1000
MTEXTEND
  0
MTEXT
  5
2EF
330
1F
100
AcDbEntity
  8
CASE
100
AcDbMText
 10
10.34377761717806
 20
17.75116870390993
 30
1.404095091298307
 40
0.1265710719319388
 41
0.5248000000000001
 71
     4
 72
     5
  1
DO-4
 11
0.0000000000000001
 21
1.0
 31
0.0
1001
ACAD
1000
MTEXTBEGIN
1070
    73
1070
     1
1070
    44
1040
1.0
1070
    74
1070
     0
1000
MTEXTEND
  0
MTEXT
  5
2F0
330
1F
100
AcDbEntity
  8
CASE
100
AcDbMText
 10
11.01882333414842
 20
17.75116870390993
 30
1.404095091298307
 40
0.1265710719319388
 41
0.5248000000000001
 71
     4
 72
     5
  1
DO-6
 11
0.0000000000000001
 21
1.0
 31
0.0
1001
ACAD
1000
MTEXTBEGIN
1070
    73
1070
     1
1070
    44
1040
1.0
1070
    74
1070
     0
1000
MTEXTEND
  0
LINE
  5
2F1
330
1F
100
AcDbEntity
  8
CASE
100
AcDbLine
 10
12.57142848318011
 20
17.13603329432078
 30
0.0
 11
12.57142848318011
 21
17.6001272247379
 31
0.0
  0
LINE
  5
2F2
330
1F
100
AcDbEntity
  8
CASE
100
AcDbLine
 10
12.91063895595772
 20
17.13603329432079
 30
0.0
 11
12.91063895595772
 21
17.6001272247379
 31
0.0
  0
LINE
  5
2F3
330
1F
100
AcDbEntity
  8
CASE
100
AcDbLine
 10
12.23221801040253
 20
17.13603329432078
 30
0.0
 11
12.23221801040253
 21
17.60012722473788
 31
0.0
  0
LINE
  5
2F4
330
1F
100
AcDbEntity
  8
CASE
100
AcDbLine
 10
11.89300753762494
 20
17.13603329432077
 30
0.0
 11
11.89300753762494
 21
17.60012722473788
 31
0.0
  0
LINE
  5
2F5
330
1F
100
AcDbEntity
  8
CASE
100
AcDbLine
 10
11.21458659206977
 20
17.13603329432076
 30
0.0
 11
11.21458659206977
 21
17.60012722473786
 31
0.0
  0
LINE
  5
2F6
330
1F
100
AcDbEntity
  8
CASE
100
AcDbLine
 10
11.55379706484735
 20
17.13603329432077
 30
0.0
 11
11.55379706484735
 21
17.60012722473788
 31
0.0
  0
MTEXT
  5
2F7
330
1F
100
AcDbEntity
  8
CASE
100
AcDbMText
 10
11.35634619263359
 20
17.38411259530731
 30
1.404095091298307
 40
0.15
 41
0.3113648369525695
 71
     5
 72
     5
  1
7
1001
ACAD
1000
MTEXTBEGIN
1070
    73
1070
     1
1070
    44
1040
1.0
1070
    74
1070
     0
1000
MTEXTEND
  0
ARC
  5
2F8
330
1F
100
AcDbEntity
  8
CASE
100
AcDbCircle
 10
11.30909299244568
 20
17.13603329432072
 30
0.0
 40
0.0042190357310668
100
AcDbArc
 50
0.0
 51
180.0
  0
ARC
  5
2F9
330
1F
100
AcDbEntity
  8
CASE
100
AcDbCircle
 10
11.30909299244568
 20
17.13603329432072
 30
0.0
 40
0.0042190357310668
100
AcDbArc
 50
180.0
 51
0.0
  0
ARC
  5
2FA
330
1F
100
AcDbEntity
  8
CASE
100
AcDbCircle
 10
11.30909299244568
 20
17.13603329432072
 30
0.0
 40
0.0042190357310668
100
AcDbArc
 50
0.0
 51
180.0
  0
ARC
  5
2FB
330
1F
100
AcDbEntity
  8
CASE
100
AcDbCircle
 10
11.30909299244568
 20
17.13603329432072
 30
0.0
 40
0.0042190357310668
100
AcDbArc
 50
180.0
 51
0.0
  0
LINE
  5
2FC
330
1F
100
AcDbEntity
  8
CASE
100
AcDbLine
 10
11.30909299244568
 20
17.13603329432071
 30
0.0
 11
11.30909299244568
 21
17.13603329432071
 31
0.0
  0
MTEXT
  5
2FD
330
1F
100
AcDbEntity
  8
CASE
100
AcDbMText
 10
12.06008135257517
 20
17.38411259530731
 30
1.404095091298307
 40
0.15
 41
0.3113648369525695
 71
     5
 72
     5
  1
9
1001
ACAD
1000
MTEXTBEGIN
1070
    73
1070
     1
1070
    44
1040
1.0
1070
    74
1070
     0
1000
MTEXTEND
  0
MTEXT
  5
2FE
330
1F
100
AcDbEntity
  8
CASE
100
AcDbMText
 10
11.73268417984455
 20
17.38411259530731
 30
1.404095091298307
 40
0.15
 41
0.3113648369525695
 71
     5
 72
     5
  1
8
1001
ACAD
1000
MTEXTBEGIN
1070
    73
1070
     1
1070
    44
1040
1.0
1070
    74
1070
     0
1000
MTEXTEND
  0
MTEXT
  5
2FF
330
1F
100
AcDbEntity
  8
CASE
100
AcDbMText
 10
12.39929182535276
 20
17.38411259530731
 30
1.404095091298307
 40
0.15
 41
0.3113648369525695
 71
     5
 72
     5
  1
10
1001
ACAD
1000
MTEXTBEGIN
1070
    73
1070
     1
1070
    44
1040
1.0
1070
    74
1070
     0
1000
MTEXTEND
  0
MTEXT
  5
300
330
1F
100
AcDbEntity
  8
CASE
100
AcDbMText
 10
12.73681468383793
 20
17.38411259530731
 30
1.404095091298307
 40
0.15
 41
0.3113648369525695
 71
     5
 72
     5
  1
11
1001
ACAD
1000
MTEXTBEGIN
1070
    73
1070
     1
1070
    44
1040
1.0
1070
    74
1070
     0
1000
MTEXTEND
  0
MTEXT
  5
301
330
1F
100
AcDbEntity
  8
CASE
100
AcDbMText
 10
12.06176896686759
 20
17.75116870390993
 30
1.404095091298307
 40
0.1265710719319388
 41
0.5248000000000001
 71
     4
 72
     5
  1
DO-COMA
 11
0.0000000000000001
 21
1.0
 31
0.0
1001
ACAD
1000
MTEXTBEGIN
1070
    73
1070
     1
1070
    44
1040
1.0
1070
    74
1070
     0
1000
MTEXTEND
  0
MTEXT
  5
302
330
1F
100
AcDbEntity
  8
CASE
100
AcDbMText
 10
11.73268417984455
 20
17.75116870390993
 30
1.404095091298307
 40
0.1265710719319388
 41
0.5248000000000001
 71
     4
 72
     5
  1
DO-8
 11
0.0000000000000001
 21
1.0
 31
0.0
1001
ACAD
1000
MTEXTBEGIN
1070
    73
1070
     1
1070
    44
1040
1.0
1070
    74
1070
     0
1000
MTEXTEND
  0
MTEXT
  5
303
330
1F
100
AcDbEntity
  8
CASE
100
AcDbMText
 10
11.35465857834116
 20
17.75116870390993
 30
1.404095091298307
 40
0.1265710719319388
 41
0.5248000000000001
 71
     4
 72
     5
  1
DO-7
 11
0.0000000000000001
 21
1.0
 31
0.0
1001
ACAD
1000
MTEXTBEGIN
1070
    73
1070
     1
1070
    44
1040
1.0
1070
    74
1070
     0
1000
MTEXTEND
  0
ARC
  5
304
330
1F
100
AcDbEntity
  8
CASE
100
AcDbCircle
 10
11.31246822103053
 20
17.60012722473782
 30
0.0
 40
0.0042190357310668
100
AcDbArc
 50
180.0
 51
0.0
  0
ARC
  5
305
330
1F
100
AcDbEntity
  8
CASE
100
AcDbCircle
 10
11.31246822103053
 20
17.64231758204847
 30
0.0
 40
0.0042190357310668
100
AcDbArc
 50
0.0
 51
180.0
  0
ARC
  5
306
330
1F
100
AcDbEntity
  8
CASE
100
AcDbCircle
 10
11.31246822103053
 20
17.64231758204847
 30
0.0
 40
0.0042190357310668
100
AcDbArc
 50
180.0
 51
0.0
  0
ARC
  5
307
330
1F
100
AcDbEntity
  8
CASE
100
AcDbCircle
 10
11.31246822103053
 20
17.60012722473782
 30
0.0
 40
0.0042190357310668
100
AcDbArc
 50
0.0
 51
180.0
  0
MTEXT
  5
308
330
1F
100
AcDbEntity
  8
CASE
100
AcDbMText
 10
12.40772989681488
 20
17.75116870390993
 30
1.404095091298307
 40
0.1265710719319388
 41
0.5248000000000001
 71
     4
 72
     5
  1
DO-9
 11
0.0000000000000001
 21
1.0
 31
0.0
1001
ACAD
1000
MTEXTBEGIN
1070
    73
1070
     1
1070
    44
1040
1.0
1070
    74
1070
     0
1000
MTEXTEND
  0
MTEXT
  5
309
330
1F
100
AcDbEntity
  8
CASE
100
AcDbMText
 10
12.74187752671521
 20
17.75116870390993
 30
1.404095091298307
 40
0.1265710719319388
 41
0.5248000000000001
 71
     4
 72
     5
  1
DO-10
 11
0.0000000000000001
 21
1.0
 31
0.0
1001
ACAD
1000
MTEXTBEGIN
1070
    73
1070
     1
1070
    44
1040
1.0
1070
    74
1070
     0
1000
MTEXTEND
  0
MTEXT
  5
30A
330
1F
100
AcDbEntity
  8
CASE
100
AcDbMText
 10
13.88399998777159
 20
13.35600003202862
 30
0.832
 40
0.15
 41
3.935
 71
     1
 72
     5
  1
Wiring Diagram Template
1001
ACAD
1000
MTEXTBEGIN
1070
    73
1070
     1
1070
    44
1040
1.0
1070
    74
1070
     0
1000
MTEXTEND
  0
MTEXT
  5
30B
330
1F
100
AcDbEntity
  8
CASE
100
AcDbMText
 10
15.10960037898867
 20
17.38411259530731
 30
1.404095091298307
 40
0.15
 41
0.3113648369525695
 71
     5
 72
     5
  1
18
1001
ACAD
1000
MTEXTBEGIN
1070
    73
1070
     1
1070
    44
1040
1.0
1070
    74
1070
     0
1000
MTEXTEND
  0
MTEXT
  5
30C
330
1F
100
AcDbEntity
  8
CASE
100
AcDbMText
 10
15.10960037898867
 20
17.75116870390993
 30
1.404095091298307
 40
0.1265710719319388
 41
0.5248000000000001
 71
     4
 72
     5
  1
DO-COMB
 11
0.0000000000000001
 21
1.0
 31
0.0
1001
ACAD
1000
MTEXTBEGIN
1070
    73
1070
     1
1070
    44
1040
1.0
1070
    74
1070
     0
1000
MTEXTEND
  0
LINE
  5
30D
330
1F
100
AcDbEntity
  8
CASE
100
AcDbLine
 10
14.60669131984564
 20
17.13603329432083
 30
0.0
 11
14.60669131984564
 21
17.60012722473794
 31
0.0
  0
LINE
  5
30E
330
1F
100
AcDbEntity
  8
CASE
100
AcDbLine
 10
14.94590179262322
 20
17.13603329432083
 30
0.0
 11
14.94590179262322
 21
17.60012722473795
 31
0.0
  0
LINE
  5
30F
330
1F
100
AcDbEntity
  8
CASE
100
AcDbLine
 10
13.58905990151289
 20
17.1360332943208
 30
0.0
 11
13.58905990151289
 21
17.60012722473792
 31
0.0
  0
LINE
  5
310
330
1F
100
AcDbEntity
  8
CASE
100
AcDbLine
 10
13.92827037429047
 20
17.13603329432082
 30
0.0
 11
13.92827037429047
 21
17.60012722473792
 31
0.0
  0
LINE
  5
311
330
1F
100
AcDbEntity
  8
CASE
100
AcDbLine
 10
14.26748084706806
 20
17.13603329432083
 30
0.0
 11
14.26748084706806
 21
17.60012722473794
 31
0.0
  0
LINE
  5
312
330
1F
100
AcDbEntity
  8
CASE
100
AcDbLine
 10
13.2498494287353
 20
17.1360332943208
 30
0.0
 11
13.2498494287353
 21
17.60012722473791
 31
0.0
  0
MTEXT
  5
313
330
1F
100
AcDbEntity
  8
CASE
100
AcDbMText
 10
14.11390794645743
 20
17.38411259530731
 30
1.404095091298307
 40
0.15
 41
0.3113648369525695
 71
     5
 72
     5
  1
15
1001
ACAD
1000
MTEXTBEGIN
1070
    73
1070
     1
1070
    44
1040
1.0
1070
    74
1070
     0
1000
MTEXTEND
  0
MTEXT
  5
314
330
1F
100
AcDbEntity
  8
CASE
100
AcDbMText
 10
13.42536131514768
 20
17.38411259530731
 30
1.404095091298307
 40
0.15
 41
0.3113648369525695
 71
     5
 72
     5
  1
13
1001
ACAD
1000
MTEXTBEGIN
1070
    73
1070
     1
1070
    44
1040
1.0
1070
    74
1070
     0
1000
MTEXTEND
  0
MTEXT
  5
315
330
1F
100
AcDbEntity
  8
CASE
100
AcDbMText
 10
13.76288417363285
 20
17.38411259530731
 30
1.404095091298307
 40
0.15
 41
0.3113648369525695
 71
     5
 72
     5
  1
14
1001
ACAD
1000
MTEXTBEGIN
1070
    73
1070
     1
1070
    44
1040
1.0
1070
    74
1070
     0
1000
MTEXTEND
  0
MTEXT
  5
316
330
1F
100
AcDbEntity
  8
CASE
100
AcDbMText
 10
14.42780420484865
 20
17.38411259530731
 30
1.404095091298307
 40
0.15
 41
0.3113648369525695
 71
     5
 72
     5
  1
16
1001
ACAD
1000
MTEXTBEGIN
1070
    73
1070
     1
1070
    44
1040
1.0
1070
    74
1070
     0
1000
MTEXTEND
  0
MTEXT
  5
317
330
1F
100
AcDbEntity
  8
CASE
100
AcDbMText
 10
14.77714036338079
 20
17.38411259530731
 30
1.404095091298307
 40
0.15
 41
0.3113648369525695
 71
     5
 72
     5
  1
17
1001
ACAD
1000
MTEXTBEGIN
1070
    73
1070
     1
1070
    44
1040
1.0
1070
    74
1070
     0
1000
MTEXTEND
  0
MTEXT
  5
318
330
1F
100
AcDbEntity
  8
CASE
100
AcDbMText
 10
14.11390794645743
 20
17.75116870390993
 30
1.404095091298307
 40
0.1265710719319388
 41
0.5248000000000001
 71
     4
 72
     5
  1
DO-14
 11
0.0000000000000001
 21
1.0
 31
0.0
1001
ACAD
1000
MTEXTBEGIN
1070
    73
1070
     1
1070
    44
1040
1.0
1070
    74
1070
     0
1000
MTEXTEND
  0
MTEXT
  5
319
330
1F
100
AcDbEntity
  8
CASE
100
AcDbMText
 10
13.42367370085525
 20
17.75116870390993
 30
1.404095091298307
 40
0.1265710719319388
 41
0.5248000000000001
 71
     4
 72
     5
  1
DO-12
 11
0.0000000000000001
 21
1.0
 31
0.0
1001
ACAD
1000
MTEXTBEGIN
1070
    73
1070
     1
1070
    44
1040
1.0
1070
    74
1070
     0
1000
MTEXTEND
  0
MTEXT
  5
31A
330
1F
100
AcDbEntity
  8
CASE
100
AcDbMText
 10
13.76119655934042
 20
17.75116870390993
 30
1.404095091298307
 40
0.1265710719319388
 41
0.5248000000000001
 71
     4
 72
     5
  1
DO-13
 11
0.0000000000000001
 21
1.0
 31
0.0
1001
ACAD
1000
MTEXTBEGIN
1070
    73
1070
     1
1070
    44
1040
1.0
1070
    74
1070
     0
1000
MTEXTEND
  0
ARC
  5
31B
330
1F
100
AcDbEntity
  8
CASE
100
AcDbCircle
 10
14.31473404725611
 20
17.60012722473782
 30
0.0
 40
0.0042190357310668
100
AcDbArc
 50
180.0
 51
0.0
  0
ARC
  5
31C
330
1F
100
AcDbEntity
  8
CASE
100
AcDbCircle
 10
14.31473404725611
 20
17.64231758204847
 30
0.0
 40
0.0042190357310668
100
AcDbArc
 50
0.0
 51
180.0
  0
ARC
  5
31D
330
1F
100
AcDbEntity
  8
CASE
100
AcDbCircle
 10
14.31473404725611
 20
17.64231758204847
 30
0.0
 40
0.0042190357310668
100
AcDbArc
 50
180.0
 51
0.0
  0
ARC
  5
31E
330
1F
100
AcDbEntity
  8
CASE
100
AcDbCircle
 10
14.31473404725611
 20
17.60012722473782
 30
0.0
 40
0.0042190357310668
100
AcDbArc
 50
0.0
 51
180.0
  0
MTEXT
  5
31F
330
1F
100
AcDbEntity
  8
CASE
100
AcDbMText
 10
14.42949181914106
 20
17.75116870390993
 30
1.404095091298307
 40
0.1265710719319388
 41
0.5248000000000001
 71
     4
 72
     5
  1
DO-15
 11
0.0000000000000001
 21
1.0
 31
0.0
1001
ACAD
1000
MTEXTBEGIN
1070
    73
1070
     1
1070
    44
1040
1.0
1070
    74
1070
     0
1000
MTEXTEND
  0
MTEXT
  5
320
330
1F
100
AcDbEntity
  8
CASE
100
AcDbMText
 10
14.78389082055048
 20
17.75116870390993
 30
1.404095091298307
 40
0.1265710719319388
 41
0.5248000000000001
 71
     4
 72
     5
  1
DO-16
 11
0.0000000000000001
 21
1.0
 31
0.0
1001
ACAD
1000
MTEXTBEGIN
1070
    73
1070
     1
1070
    44
1040
1.0
1070
    74
1070
     0
1000
MTEXTEND
  0
LINE
  5
321
330
1F
100
AcDbEntity
  8
CASE
100
AcDbLine
 10
15.28511226540081
 20
17.13603329432084
 30
0.0
 11
15.28511226540081
 21
17.60012722473795
 31
0.0
  0
MTEXT
  5
322
330
1F
100
AcDbEntity
  8
CASE
100
AcDbMText
 10
15.56525623794366
 20
17.38411259530731
 30
1.404095091298307
 40
0.15
 41
0.3113648369525695
 71
     5
 72
     5
  1
TB2
1001
ACAD
1000
MTEXTBEGIN
1070
    73
1070
     1
1070
    44
1040
1.0
1070
    74
1070
     0
1000
MTEXTEND
  0
MTEXT
  5
323
330
1F
100
AcDbEntity
  8
CASE
100
AcDbMText
 10
17.77999995685641
 20
12.89000004844463
 30
0.832
 40
0.075
 41
0.2130000309151776
 71
     1
 72
     5
  1
AX1
1001
ACAD
1000
MTEXTBEGIN
1070
    73
1070
     1
1070
    44
1040
1.0
1070
    74
1070
     0
1000
MTEXTEND
  0
MTEXT
  5
324
330
1F
100
AcDbEntity
  8
CASE
100
AcDbMText
 10
13.34428018548225
 20
22.88404757432316
 30
1.404095091298307
 40
0.1265710719319388
 41
0.4877000000000001
 71
     4
 72
     5
  1
DI-28
 11
0.0000000000000001
 21
1.0
 31
0.0
1001
ACAD
1000
MTEXTBEGIN
1070
    73
1070
     1
1070
    44
1040
1.0
1070
    74
1070
     0
1000
MTEXTEND
  0
MTEXT
  5
325
330
1F
100
AcDbEntity
  8
CASE
100
AcDbMText
 10
11.31745542027882
 20
23.81561066374223
 30
1.404095091298307
 40
0.15
 41
0.3113648369525695
 71
     5
 72
     5
  1
12
 11
-1.0
 21
0.0000000000000001
 31
0.0
1001
ACAD
1000
MTEXTBEGIN
1070
    73
1070
     1
1070
    44
1040
1.0
1070
    74
1070
     0
1000
MTEXTEND
  0
MTEXT
  5
326
330
1F
100
AcDbEntity
  8
CASE
100
AcDbMText
 10
10.95545542027882
 20
22.88404757432316
 30
1.404095091298307
 40
0.1265710719319388
 41
0.4877000000000001
 71
     4
 72
     5
  1
DI-34
 11
0.0000000000000001
 21
1.0
 31
0.0
1001
ACAD
1000
MTEXTBEGIN
1070
    73
1070
     1
1070
    44
1040
1.0
1070
    74
1070
     0
1000
MTEXTEND
  0
LINE
  5
327
330
1F
100
AcDbEntity
  8
CASE
100
AcDbLine
 10
10.81960920401314
 20
23.59115796284966
 30
0.0
 11
10.81960920401314
 21
24.05525189326677
 31
0.0
  0
LINE
  5
328
330
1F
100
AcDbEntity
  8
CASE
100
AcDbLine
 10
10.48039873123553
 20
23.59115796284966
 30
0.0
 11
10.48039873123553
 21
24.05525189326677
 31
0.0
  0
LINE
  5
329
330
1F
100
AcDbEntity
  8
CASE
100
AcDbLine
 10
11.14700637674381
 20
23.59115796284967
 30
0.0
 11
11.14700637674381
 21
24.05525189326678
 31
0.0
  0
LINE
  5
32A
330
1F
100
AcDbEntity
  8
CASE
100
AcDbLine
 10
9.462767312902778
 20
23.59115796284963
 30
0.0
 11
9.462767312902778
 21
24.05525189326674
 31
0.0
  0
LINE
  5
32B
330
1F
100
AcDbEntity
  8
CASE
100
AcDbLine
 10
9.801977785680366
 20
23.59115796284963
 30
0.0
 11
9.801977785680366
 21
24.05525189326676
 31
0.0
  0
LINE
  5
32C
330
1F
100
AcDbEntity
  8
CASE
100
AcDbLine
 10
10.14118825845795
 20
23.59115796284965
 30
0.0
 11
10.14118825845795
 21
24.05525189326676
 31
0.0
  0
MTEXT
  5
32D
330
1F
100
AcDbEntity
  8
CASE
100
AcDbMText
 10
9.944574459115724
 20
22.88404757432316
 30
1.404095091298307
 40
0.1265710719319388
 41
0.4877000000000001
 71
     4
 72
     5
  1
DI-37
 11
0.0000000000000001
 21
1.0
 31
0.0
1001
ACAD
1000
MTEXTBEGIN
1070
    73
1070
     1
1070
    44
1040
1.0
1070
    74
1070
     0
1000
MTEXTEND
  0
MTEXT
  5
32E
330
1F
100
AcDbEntity
  8
CASE
100
AcDbMText
 10
9.607051600630551
 20
22.88404757432316
 30
1.404095091298307
 40
0.1265710719319388
 41
0.4877000000000001
 71
     4
 72
     5
  1
DI-38
 11
0.0000000000000001
 21
1.0
 31
0.0
1001
ACAD
1000
MTEXTBEGIN
1070
    73
1070
     1
1070
    44
1040
1.0
1070
    74
1070
     0
1000
MTEXTEND
  0
MTEXT
  5
32F
330
1F
100
AcDbEntity
  8
CASE
100
AcDbMText
 10
9.269528742145393
 20
22.88404757432316
 30
1.404095091298307
 40
0.1265710719319388
 41
0.4877000000000001
 71
     4
 72
     5
  1
DI-39
 11
0.0000000000000001
 21
1.0
 31
0.0
1001
ACAD
1000
MTEXTBEGIN
1070
    73
1070
     1
1070
    44
1040
1.0
1070
    74
1070
     0
1000
MTEXTEND
  0
MTEXT
  5
330
330
1F
100
AcDbEntity
  8
CASE
100
AcDbMText
 10
10.62130779037849
 20
22.88404757432316
 30
1.404095091298307
 40
0.1265710719319388
 41
0.4877000000000001
 71
     4
 72
     5
  1
DI-35
 11
0.0000000000000001
 21
1.0
 31
0.0
1001
ACAD
1000
MTEXTBEGIN
1070
    73
1070
     1
1070
    44
1040
1.0
1070
    74
1070
     0
1000
MTEXTEND
  0
MTEXT
  5
331
330
1F
100
AcDbEntity
  8
CASE
100
AcDbMText
 10
10.28209731760089
 20
22.88404757432316
 30
1.404095091298307
 40
0.1265710719319388
 41
0.4877000000000001
 71
     4
 72
     5
  1
DI-36
 11
0.0000000000000001
 21
1.0
 31
0.0
1001
ACAD
1000
MTEXTBEGIN
1070
    73
1070
     1
1070
    44
1040
1.0
1070
    74
1070
     0
1000
MTEXTEND
  0
MTEXT
  5
332
330
1F
100
AcDbEntity
  8
CASE
100
AcDbMText
 10
10.30657445911572
 20
23.81561066374223
 30
1.404095091298307
 40
0.15
 41
0.3113648369525695
 71
     5
 72
     5
  1
15
 11
-1.0
 21
0.0000000000000001
 31
0.0
1001
ACAD
1000
MTEXTBEGIN
1070
    73
1070
     1
1070
    44
1040
1.0
1070
    74
1070
     0
1000
MTEXTEND
  0
MTEXT
  5
333
330
1F
100
AcDbEntity
  8
CASE
100
AcDbMText
 10
9.631528742145379
 20
23.81561066374223
 30
1.404095091298307
 40
0.15
 41
0.3113648369525695
 71
     5
 72
     5
  1
17
 11
-1.0
 21
0.0000000000000001
 31
0.0
1001
ACAD
1000
MTEXTBEGIN
1070
    73
1070
     1
1070
    44
1040
1.0
1070
    74
1070
     0
1000
MTEXTEND
  0
MTEXT
  5
334
330
1F
100
AcDbEntity
  8
CASE
100
AcDbMText
 10
9.969051600630551
 20
23.81561066374223
 30
1.404095091298307
 40
0.15
 41
0.3113648369525695
 71
     5
 72
     5
  1
16
 11
-1.0
 21
0.0000000000000001
 31
0.0
1001
ACAD
1000
MTEXTBEGIN
1070
    73
1070
     1
1070
    44
1040
1.0
1070
    74
1070
     0
1000
MTEXTEND
  0
MTEXT
  5
335
330
1F
100
AcDbEntity
  8
CASE
100
AcDbMText
 10
10.64578493189331
 20
23.81561066374223
 30
1.404095091298307
 40
0.15
 41
0.3113648369525695
 71
     5
 72
     5
  1
14
 11
-1.0
 21
0.0000000000000001
 31
0.0
1001
ACAD
1000
MTEXTBEGIN
1070
    73
1070
     1
1070
    44
1040
1.0
1070
    74
1070
     0
1000
MTEXTEND
  0
MTEXT
  5
336
330
1F
100
AcDbEntity
  8
CASE
100
AcDbMText
 10
10.98330779037849
 20
23.81561066374223
 30
1.404095091298307
 40
0.15
 41
0.3113648369525695
 71
     5
 72
     5
  1
13
 11
-1.0
 21
0.0000000000000001
 31
0.0
1001
ACAD
1000
MTEXTBEGIN
1070
    73
1070
     1
1070
    44
1040
1.0
1070
    74
1070
     0
1000
MTEXTEND
  0
LINE
  5
337
330
1F
100
AcDbEntity
  8
CASE
100
AcDbLine
 10
13.17720637053211
 20
23.59115796284972
 30
0.0
 11
13.17720637053211
 21
24.05525189326683
 31
0.0
  0
LINE
  5
338
330
1F
100
AcDbEntity
  8
CASE
100
AcDbLine
 10
12.8379958977545
 20
23.5911579628497
 30
0.0
 11
12.8379958977545
 21
24.05525189326681
 31
0.0
  0
LINE
  5
339
330
1F
100
AcDbEntity
  8
CASE
100
AcDbLine
 10
12.49709781068448
 20
23.5911579628497
 30
0.0
 11
12.49709781068448
 21
24.05525189326681
 31
0.0
  0
LINE
  5
33A
330
1F
100
AcDbEntity
  8
CASE
100
AcDbLine
 10
11.82373970800657
 20
23.59115796284968
 30
0.0
 11
11.82373970800657
 21
24.05525189326679
 31
0.0
  0
LINE
  5
33B
330
1F
100
AcDbEntity
  8
CASE
100
AcDbLine
 10
11.48452923522898
 20
23.59115796284967
 30
0.0
 11
11.48452923522898
 21
24.05525189326679
 31
0.0
  0
LINE
  5
33C
330
1F
100
AcDbEntity
  8
CASE
100
AcDbLine
 10
12.16126256649174
 20
23.5911579628497
 30
0.0
 11
12.16126256649174
 21
24.0552518932668
 31
0.0
  0
MTEXT
  5
33D
330
1F
100
AcDbEntity
  8
CASE
100
AcDbMText
 10
11.96802399573432
 20
22.88404757432316
 30
1.404095091298307
 40
0.1265710719319388
 41
0.4877000000000001
 71
     4
 72
     5
  1
DI-31
 11
0.0000000000000001
 21
1.0
 31
0.0
1001
ACAD
1000
MTEXTBEGIN
1070
    73
1070
     1
1070
    44
1040
1.0
1070
    74
1070
     0
1000
MTEXTEND
  0
MTEXT
  5
33E
330
1F
100
AcDbEntity
  8
CASE
100
AcDbMText
 10
11.63387636583401
 20
22.88404757432316
 30
1.404095091298307
 40
0.1265710719319388
 41
0.4877000000000001
 71
     4
 72
     5
  1
DI-32
 11
0.0000000000000001
 21
1.0
 31
0.0
1001
ACAD
1000
MTEXTBEGIN
1070
    73
1070
     1
1070
    44
1040
1.0
1070
    74
1070
     0
1000
MTEXTEND
  0
MTEXT
  5
33F
330
1F
100
AcDbEntity
  8
CASE
100
AcDbMText
 10
11.29297827876399
 20
22.88404757432316
 30
1.404095091298307
 40
0.1265710719319388
 41
0.4877000000000001
 71
     4
 72
     5
  1
DI-33
 11
0.0000000000000001
 21
1.0
 31
0.0
1001
ACAD
1000
MTEXTBEGIN
1070
    73
1070
     1
1070
    44
1040
1.0
1070
    74
1070
     0
1000
MTEXTEND
  0
MTEXT
  5
340
330
1F
100
AcDbEntity
  8
CASE
100
AcDbMText
 10
12.64813255558195
 20
22.88404757432316
 30
1.404095091298307
 40
0.1265710719319388
 41
0.4877000000000001
 71
     4
 72
     5
  1
DI-29
 11
0.0000000000000001
 21
1.0
 31
0.0
1001
ACAD
1000
MTEXTBEGIN
1070
    73
1070
     1
1070
    44
1040
1.0
1070
    74
1070
     0
1000
MTEXTEND
  0
MTEXT
  5
341
330
1F
100
AcDbEntity
  8
CASE
100
AcDbMText
 10
12.30723446851193
 20
22.88404757432316
 30
1.404095091298307
 40
0.1265710719319388
 41
0.4877000000000001
 71
     4
 72
     5
  1
DI-30
 11
0.0000000000000001
 21
1.0
 31
0.0
1001
ACAD
1000
MTEXTBEGIN
1070
    73
1070
     1
1070
    44
1040
1.0
1070
    74
1070
     0
1000
MTEXTEND
  0
MTEXT
  5
342
330
1F
100
AcDbEntity
  8
CASE
100
AcDbMText
 10
12.33171161002676
 20
23.81561066374223
 30
1.404095091298307
 40
0.15
 41
0.3113648369525695
 71
     5
 72
     5
  1
9
 11
-1.0
 21
0.0000000000000001
 31
0.0
1001
ACAD
1000
MTEXTBEGIN
1070
    73
1070
     1
1070
    44
1040
1.0
1070
    74
1070
     0
1000
MTEXTEND
  0
MTEXT
  5
343
330
1F
100
AcDbEntity
  8
CASE
100
AcDbMText
 10
11.65497827876396
 20
23.81561066374223
 30
1.404095091298307
 40
0.15
 41
0.3113648369525695
 71
     5
 72
     5
  1
11
 11
-1.0
 21
0.0000000000000001
 31
0.0
1001
ACAD
1000
MTEXTBEGIN
1070
    73
1070
     1
1070
    44
1040
1.0
1070
    74
1070
     0
1000
MTEXTEND
  0
MTEXT
  5
344
330
1F
100
AcDbEntity
  8
CASE
100
AcDbMText
 10
11.99418875154157
 20
23.81561066374223
 30
1.404095091298307
 40
0.15
 41
0.3113648369525695
 71
     5
 72
     5
  1
10
 11
-1.0
 21
0.0000000000000001
 31
0.0
1001
ACAD
1000
MTEXTBEGIN
1070
    73
1070
     1
1070
    44
1040
1.0
1070
    74
1070
     0
1000
MTEXTEND
  0
MTEXT
  5
345
330
1F
100
AcDbEntity
  8
CASE
100
AcDbMText
 10
12.6692344685119
 20
23.81561066374223
 30
1.404095091298307
 40
0.15
 41
0.3113648369525695
 71
     5
 72
     5
  1
8
 11
-1.0
 21
0.0000000000000001
 31
0.0
1001
ACAD
1000
MTEXTBEGIN
1070
    73
1070
     1
1070
    44
1040
1.0
1070
    74
1070
     0
1000
MTEXTEND
  0
MTEXT
  5
346
330
1F
100
AcDbEntity
  8
CASE
100
AcDbMText
 10
13.00675732699707
 20
23.81561066374223
 30
1.404095091298307
 40
0.15
 41
0.3113648369525695
 71
     5
 72
     5
  1
7
 11
-1.0
 21
0.0000000000000001
 31
0.0
1001
ACAD
1000
MTEXTBEGIN
1070
    73
1070
     1
1070
    44
1040
1.0
1070
    74
1070
     0
1000
MTEXTEND
  0
LINE
  5
347
330
1F
100
AcDbEntity
  8
CASE
100
AcDbLine
 10
15.93484376798492
 20
19.97628814847342
 30
0.307145801221505
 11
15.93484376798492
 21
19.97628814847342
 31
1.323089605261867
210
1.0
220
0.0
230
0.0
  0
LINE
  5
348
330
1F
100
AcDbEntity
  8
CASE
100
AcDbLine
 10
15.93484376798492
 20
20.05729363450986
 30
0.3881512872579459
 11
15.93484376798492
 21
20.05729363450986
 31
1.404095091298307
210
1.0
220
0.0
230
0.0
  0
LINE
  5
349
330
1F
100
AcDbEntity
  8
CASE
100
AcDbLine
 10
15.93484376798492
 20
19.97628814847342
 30
0.307145801221505
 11
15.93484376798492
 21
19.97628814847342
 31
1.323089605261867
210
0.0
220
-1.0
230
0.0
  0
LINE
  5
34A
330
1F
100
AcDbEntity
  8
CASE
100
AcDbLine
 10
15.93484376798492
 20
20.05729363450986
 30
0.3881512872579459
 11
15.93484376798492
 21
20.05729363450986
 31
1.404095091298307
210
0.0
220
1.0
230
0.0
  0
LINE
  5
34B
330
1F
100
AcDbEntity
  8
CASE
100
AcDbLine
 10
14.8681958915428
 20
23.59115796284975
 30
0.0
 11
14.8681958915428
 21
24.05525189326686
 31
0.0
  0
LINE
  5
34C
330
1F
100
AcDbEntity
  8
CASE
100
AcDbLine
 10
14.19652540315733
 20
23.59115796284973
 30
0.0
 11
14.19652540315733
 21
24.05525189326685
 31
0.0
  0
LINE
  5
34D
330
1F
100
AcDbEntity
  8
CASE
100
AcDbLine
 10
14.52898541876519
 20
23.59115796284974
 30
0.0
 11
14.52898541876519
 21
24.05525189326685
 31
0.0
  0
LINE
  5
34E
330
1F
100
AcDbEntity
  8
CASE
100
AcDbLine
 10
13.85225208750244
 20
23.59115796284973
 30
0.0
 11
13.85225208750244
 21
24.05525189326684
 31
0.0
  0
LINE
  5
34F
330
1F
100
AcDbEntity
  8
CASE
100
AcDbLine
 10
13.51979207189454
 20
23.59115796284972
 30
0.0
 11
13.51979207189454
 21
24.05525189326683
 31
0.0
  0
MTEXT
  5
350
330
1F
100
AcDbEntity
  8
CASE
100
AcDbMText
 10
13.68349065825985
 20
22.88404757432316
 30
1.404095091298307
 40
0.1265710719319388
 41
0.4877000000000001
 71
     4
 72
     5
  1
DI-27
 11
0.0000000000000001
 21
1.0
 31
0.0
1001
ACAD
1000
MTEXTBEGIN
1070
    73
1070
     1
1070
    44
1040
1.0
1070
    74
1070
     0
1000
MTEXTEND
  0
MTEXT
  5
351
330
1F
100
AcDbEntity
  8
CASE
100
AcDbMText
 10
14.01763828816017
 20
22.88404757432316
 30
1.404095091298307
 40
0.1265710719319388
 41
0.4877000000000001
 71
     4
 72
     5
  1
DI-26
 11
0.0000000000000001
 21
1.0
 31
0.0
1001
ACAD
1000
MTEXTBEGIN
1070
    73
1070
     1
1070
    44
1040
1.0
1070
    74
1070
     0
1000
MTEXTEND
  0
MTEXT
  5
352
330
1F
100
AcDbEntity
  8
CASE
100
AcDbMText
 10
15.06733437804905
 20
22.88404757432316
 30
1.404095091298307
 40
0.1265710719319388
 41
0.4877000000000001
 71
     4
 72
     5
  1
DI-23
 11
0.0000000000000001
 21
1.0
 31
0.0
1001
ACAD
1000
MTEXTBEGIN
1070
    73
1070
     1
1070
    44
1040
1.0
1070
    74
1070
     0
1000
MTEXTEND
  0
MTEXT
  5
353
330
1F
100
AcDbEntity
  8
CASE
100
AcDbMText
 10
14.69605923371536
 20
22.88404757432316
 30
1.404095091298307
 40
0.1265710719319388
 41
0.4877000000000001
 71
     4
 72
     5
  1
DI-24
 11
0.0000000000000001
 21
1.0
 31
0.0
1001
ACAD
1000
MTEXTBEGIN
1070
    73
1070
     1
1070
    44
1040
1.0
1070
    74
1070
     0
1000
MTEXTEND
  0
MTEXT
  5
354
330
1F
100
AcDbEntity
  8
CASE
100
AcDbMText
 10
14.35516114664534
 20
22.88404757432316
 30
1.404095091298307
 40
0.1265710719319388
 41
0.4877000000000001
 71
     4
 72
     5
  1
DI-25
 11
0.0000000000000001
 21
1.0
 31
0.0
1001
ACAD
1000
MTEXTBEGIN
1070
    73
1070
     1
1070
    44
1040
1.0
1070
    74
1070
     0
1000
MTEXTEND
  0
MTEXT
  5
355
330
1F
100
AcDbEntity
  8
CASE
100
AcDbMText
 10
13.34596779977468
 20
23.81561066374223
 30
1.404095091298307
 40
0.15
 41
0.3113648369525695
 71
     5
 72
     5
  1
6
 11
-1.0
 21
0.0000000000000001
 31
0.0
1001
ACAD
1000
MTEXTBEGIN
1070
    73
1070
     1
1070
    44
1040
1.0
1070
    74
1070
     0
1000
MTEXTEND
  0
MTEXT
  5
356
330
1F
100
AcDbEntity
  8
CASE
100
AcDbMText
 10
13.68349065825984
 20
23.81561066374223
 30
1.404095091298307
 40
0.15
 41
0.3113648369525695
 71
     5
 72
     5
  1
5
 11
-1.0
 21
0.0000000000000001
 31
0.0
1001
ACAD
1000
MTEXTBEGIN
1070
    73
1070
     1
1070
    44
1040
1.0
1070
    74
1070
     0
1000
MTEXTEND
  0
MTEXT
  5
357
330
1F
100
AcDbEntity
  8
CASE
100
AcDbMText
 10
14.01763828816017
 20
23.81561066374223
 30
1.404095091298307
 40
0.15
 41
0.3113648369525695
 71
     5
 72
     5
  1
4
 11
-1.0
 21
0.0000000000000001
 31
0.0
1001
ACAD
1000
MTEXTBEGIN
1070
    73
1070
     1
1070
    44
1040
1.0
1070
    74
1070
     0
1000
MTEXTEND
  0
MTEXT
  5
358
330
1F
100
AcDbEntity
  8
CASE
100
AcDbMText
 10
14.35516114664534
 20
23.81561066374223
 30
1.404095091298307
 40
0.15
 41
0.3113648369525695
 71
     5
 72
     5
  1
3
 11
-1.0
 21
0.0000000000000001
 31
0.0
1001
ACAD
1000
MTEXTBEGIN
1070
    73
1070
     1
1070
    44
1040
1.0
1070
    74
1070
     0
1000
MTEXTEND
  0
MTEXT
  5
359
330
1F
100
AcDbEntity
  8
CASE
100
AcDbMText
 10
14.69437161942292
 20
23.81561066374223
 30
1.404095091298307
 40
0.15
 41
0.3113648369525695
 71
     5
 72
     5
  1
2
 11
-1.0
 21
0.0000000000000001
 31
0.0
1001
ACAD
1000
MTEXTBEGIN
1070
    73
1070
     1
1070
    44
1040
1.0
1070
    74
1070
     0
1000
MTEXTEND
  0
MTEXT
  5
35A
330
1F
100
AcDbEntity
  8
CASE
100
AcDbMText
 10
15.07239722092633
 20
23.81561066374223
 30
1.404095091298307
 40
0.15
 41
0.3113648369525697
 71
     5
 72
     5
  1
1
 11
-1.0
 21
0.0000000000000001
 31
0.0
1001
ACAD
1000
MTEXTBEGIN
1070
    73
1070
     1
1070
    44
1040
1.0
1070
    74
1070
     0
1000
MTEXTEND
  0
LINE
  5
35B
330
1F
100
AcDbEntity
  8
CASE
100
AcDbLine
 10
15.28503662177194
 20
24.05525189326671
 30
0.0
 11
15.28503662177194
 21
23.54896760553895
 31
0.0
  0
MTEXT
  5
35C
330
1F
100
AcDbEntity
  8
CASE
100
AcDbMText
 10
15.57699389436166
 20
23.81561066374223
 30
1.404095091298307
 40
0.15
 41
0.3113648369525695
 71
     5
 72
     5
  1
TB3
 11
-1.0
 21
0.0000000000000001
 31
0.0
1001
ACAD
1000
MTEXTBEGIN
1070
    73
1070
     1
1070
    44
1040
1.0
1070
    74
1070
     0
1000
MTEXTEND
  0
MTEXT
  5
36B
330
1F
100
AcDbEntity
  8
CASE
100
AcDbMText
 10
13.01013255558195
 20
22.62104757432316
 30
1.404095091298307
 40
0.1265710719319388
 41
0.4877000000000001
 71
     4
 72
     5
  1
DI-COMC
 11
0.0000000000000001
 21
1.0
 31
0.0
1001
ACAD
1000
MTEXTBEGIN
1070
    73
1070
     1
1070
    44
1040
1.0
1070
    74
1070
     0
1000
MTEXTEND
  0
LINE
  5
36D
330
1F
100
AcDbEntity
  8
CASE
100
AcDbLine
 10
0.5530283519481194
 20
23.54896760553895
 30
0.0
 11
0.5530283519481194
 21
24.05525189326671
 31
0.0
  0
LINE
  5
36E
330
1F
100
AcDbEntity
  8
CASE
100
AcDbLine
 10
0.9749319250545319
 20
23.59115796284966
 30
0.0
 11
0.9749319250545319
 21
24.05525189326677
 31
0.0
  0
MTEXT
  5
36F
330
1F
100
AcDbEntity
  8
CASE
100
AcDbMText
 10
0.7690429813786222
 20
23.81561066374223
 30
1.404095091298307
 40
0.15
 41
0.3114
 71
     5
 72
     5
  1
18
 11
-1.0
 21
0.0000000000000001
 31
0.0
1001
ACAD
1000
MTEXTBEGIN
1070
    73
1070
     1
1070
    44
1040
1.0
1070
    74
1070
     0
1000
MTEXTEND
  0
MTEXT
  5
370
330
1F
100
AcDbEntity
  8
CASE
100
AcDbMText
 10
1.142005740004745
 20
23.81561066374223
 30
1.404095091298307
 40
0.15
 41
0.3114
 71
     5
 72
     5
  1
17
 11
-1.0
 21
0.0000000000000001
 31
0.0
1001
ACAD
1000
MTEXTBEGIN
1070
    73
1070
     1
1070
    44
1040
1.0
1070
    74
1070
     0
1000
MTEXTEND
  0
MTEXT
  5
371
330
1F
100
AcDbEntity
  8
CASE
100
AcDbMText
 10
0.7656677527937786
 20
22.61299999999999
 30
1.404095091298307
 40
0.1265710719319388
 41
0.4877000000000001
 71
     4
 72
     5
  1
DO-COMD
 11
0.0000000000000001
 21
1.0
 31
0.0
1001
ACAD
1000
MTEXTBEGIN
1070
    73
1070
     1
1070
    44
1040
1.0
1070
    74
1070
     0
1000
MTEXTEND
  0
MTEXT
  5
372
330
1F
100
AcDbEntity
  8
CASE
100
AcDbMText
 10
1.138630511419901
 20
22.88404757432316
 30
1.404095091298307
 40
0.1265710719319388
 41
0.4877000000000001
 71
     4
 72
     5
  1
DO-32
 11
0.0000000000000001
 21
1.0
 31
0.0
1001
ACAD
1000
MTEXTBEGIN
1070
    73
1070
     1
1070
    44
1040
1.0
1070
    74
1070
     0
1000
MTEXTEND
  0
ENDSEC
  0
SECTION
  2
OBJECTS
  0
DICTIONARY
  5
C
330
0
100
AcDbDictionary
  3
ACAD_GROUP
350
D
  3
ACAD_LAYOUT
350
1A
  3
ACAD_MLINESTYLE
350
17
  3
ACAD_PLOTSETTINGS
350
19
  3
ACAD_PLOTSTYLENAME
350
E
  3
ACDBHEADERROUNDTRIPXREC
350
377
  0
DICTIONARY
  5
397
330
1F
100
AcDbDictionary
280
     1
  3
ACAD_LAYOUTSELFREF
360
398
  0
DICTIONARY
  5
399
330
58
100
AcDbDictionary
280
     1
  3
ACAD_LAYOUTSELFREF
360
39A
  0
DICTIONARY
  5
D
102
{ACAD_REACTORS
330
C
102
}
330
C
100
AcDbDictionary
  0
DICTIONARY
  5
1A
102
{ACAD_REACTORS
330
C
102
}
330
C
100
AcDbDictionary
  0
DICTIONARY
  5
17
102
{ACAD_REACTORS
330
C
102
}
330
C
100
AcDbDictionary
  3
STANDARD
350
18
  0
DICTIONARY
  5
19
102
{ACAD_REACTORS
330
C
102
}
330
C
100
AcDbDictionary
  0
ACDBDICTIONARYWDFLT
  5
E
102
{ACAD_REACTORS
330
C
102
}
330
C
100
AcDbDictionary
281
     1
  3
Normal
350
F
100
AcDbDictionaryWithDefault
340
F
  0
DICTIONARY
  5
377
102
{ACAD_REACTORS
330
C
102
}
330
C
100
AcDbDictionary
  3
CEPSNTYPE
350
381
  3
FINGERPRINTGUID
350
382
  3
HYPERLINKBASE
350
37A
  3
INSUNITS
350
380
  3
LAYOUTDICT
350
37C
  3
LWETCUNION
350
37F
  3
PLOTSETDICT
350
37D
  3
PLOTSTYLNAMDICT
350
37E
  3
PSVPSCALE
350
384
  3
PUCSBASE
350
387
  3
PUCSORGBACK
350
38D
  3
PUCSORGBOTTOM
350
389
  3
PUCSORGFRONT
350
38C
  3
PUCSORGLEFT
350
38A
  3
PUCSORGRIGHT
350
38B
  3
PUCSORGTOP
350
388
  3
PUCSORTHOREF
350
385
  3
PUCSORTHOVIEW
350
386
  3
STYLESHEET
350
37B
  3
TSTACKALIGN
350
378
  3
TSTACKSIZE
350
379
  3
UCSBASE
350
390
  3
UCSORGBACK
350
396
  3
UCSORGBOTTOM
350
392
  3
UCSORGFRONT
350
395
  3
UCSORGLEFT
350
393
  3
UCSORGRIGHT
350
394
  3
UCSORGTOP
350
391
  3
UCSORTHOREF
350
38E
  3
UCSORTHOVIEW
350
38F
  3
VERSIONGUID
350
383
  0
XRECORD
  5
398
102
{ACAD_REACTORS
330
397
102
}
330
397
100
AcDbXrecord
340
1F
  0
XRECORD
  5
39A
102
{ACAD_REACTORS
330
399
102
}
330
399
100
AcDbXrecord
340
58
  0
MLINESTYLE
  5
18
102
{ACAD_REACTORS
330
17
102
}
330
17
100
AcDbMlineStyle
  2
STANDARD
 70
     0
  3

 62
   256
 51
90.0
 52
90.0
 71
     2
 49
0.5
 62
   256
  6
BYLAYER
 49
-0.5
 62
   256
  6
BYLAYER
  0
ACDBPLACEHOLDER
  5
F
102
{ACAD_REACTORS
330
E
102
}
330
E
100
AcDbPlaceHolder
280
     0
  0
XRECORD
  5
381
102
{ACAD_REACTORS
330
377
102
}
330
377
100
AcDbXrecord
 90
        0
  0
XRECORD
  5
382
102
{ACAD_REACTORS
330
377
102
}
330
377
100
AcDbXrecord
  1
{FDEAD576-A652-11D2-9A35-0060089B3A3F}
  0
XRECORD
  5
37A
102
{ACAD_REACTORS
330
377
102
}
330
377
100
AcDbXrecord
  1

  0
XRECORD
  5
380
102
{ACAD_REACTORS
330
377
102
}
330
377
100
AcDbXrecord
 90
        1
  0
XRECORD
  5
37C
102
{ACAD_REACTORS
330
377
102
}
330
377
100
AcDbXrecord
340
1A
  0
XRECORD
  5
37F
102
{ACAD_REACTORS
330
377
102
}
330
377
100
AcDbXrecord
 90
    10781
  0
XRECORD
  5
37D
102
{ACAD_REACTORS
330
377
102
}
330
377
100
AcDbXrecord
340
19
  0
XRECORD
  5
37E
102
{ACAD_REACTORS
330
377
102
}
330
377
100
AcDbXrecord
340
E
  0
XRECORD
  5
384
102
{ACAD_REACTORS
330
377
102
}
330
377
100
AcDbXrecord
 40
0.0
  0
XRECORD
  5
387
102
{ACAD_REACTORS
330
377
102
}
330
377
100
AcDbXrecord
340
0
  0
XRECORD
  5
38D
102
{ACAD_REACTORS
330
377
102
}
330
377
100
AcDbXrecord
 10
0.0
 20
0.0
 30
0.0
  0
XRECORD
  5
389
102
{ACAD_REACTORS
330
377
102
}
330
377
100
AcDbXrecord
 10
0.0
 20
0.0
 30
0.0
  0
XRECORD
  5
38C
102
{ACAD_REACTORS
330
377
102
}
330
377
100
AcDbXrecord
 10
0.0
 20
0.0
 30
0.0
  0
XRECORD
  5
38A
102
{ACAD_REACTORS
330
377
102
}
330
377
100
AcDbXrecord
 10
0.0
 20
0.0
 30
0.0
  0
XRECORD
  5
38B
102
{ACAD_REACTORS
330
377
102
}
330
377
100
AcDbXrecord
 10
0.0
 20
0.0
 30
0.0
  0
XRECORD
  5
388
102
{ACAD_REACTORS
330
377
102
}
330
377
100
AcDbXrecord
 10
0.0
 20
0.0
 30
0.0
  0
XRECORD
  5
385
102
{ACAD_REACTORS
330
377
102
}
330
377
100
AcDbXrecord
340
0
  0
XRECORD
  5
386
102
{ACAD_REACTORS
330
377
102
}
330
377
100
AcDbXrecord
 70
     0
  0
XRECORD
  5
37B
102
{ACAD_REACTORS
330
377
102
}
330
377
100
AcDbXrecord
  1

  0
XRECORD
  5
378
102
{ACAD_REACTORS
330
377
102
}
330
377
100
AcDbXrecord
 90
        1
  0
XRECORD
  5
379
102
{ACAD_REACTORS
330
377
102
}
330
377
100
AcDbXrecord
 90
       70
  0
XRECORD
  5
390
102
{ACAD_REACTORS
330
377
102
}
330
377
100
AcDbXrecord
340
0
  0
XRECORD
  5
396
102
{ACAD_REACTORS
330
377
102
}
330
377
100
AcDbXrecord
 10
0.0
 20
0.0
 30
0.0
  0
XRECORD
  5
392
102
{ACAD_REACTORS
330
377
102
}
330
377
100
AcDbXrecord
 10
0.0
 20
0.0
 30
0.0
  0
XRECORD
  5
395
102
{ACAD_REACTORS
330
377
102
}
330
377
100
AcDbXrecord
 10
0.0
 20
0.0
 30
0.0
  0
XRECORD
  5
393
102
{ACAD_REACTORS
330
377
102
}
330
377
100
AcDbXrecord
 10
0.0
 20
0.0
 30
0.0
  0
XRECORD
  5
394
102
{ACAD_REACTORS
330
377
102
}
330
377
100
AcDbXrecord
 10
0.0
 20
0.0
 30
0.0
  0
XRECORD
  5
391
102
{ACAD_REACTORS
330
377
102
}
330
377
100
AcDbXrecord
 10
0.0
 20
0.0
 30
0.0
  0
XRECORD
  5
38E
102
{ACAD_REACTORS
330
377
102
}
330
377
100
AcDbXrecord
340
0
  0
XRECORD
  5
38F
102
{ACAD_REACTORS
330
377
102
}
330
377
100
AcDbXrecord
 70
     0
  0
XRECORD
  5
383
102
{ACAD_REACTORS
330
377
102
}
330
377
100
AcDbXrecord
  1
{206E340D-2409-4C19-9F9F-63C141346069}
  0
ENDSEC
  0
EOF
