  0
SECTION
  2
HEADER
  9
$ACADVER
  1
AC1015
  9
$ACADMAINTVER
 70
    10
  9
$DWGCODEPAGE
  3
ANSI_1252
  9
$INSBASE
 10
0.0
 20
0.0
 30
0.0
  9
$EXTMIN
 10
30.46311165235168
 20
1.436111652351681
 30
0.0
  9
$EXTMAX
 10
37.51488834764831
 20
9.237888347648318
 30
0.0
  9
$LIMMIN
 10
3.000000000000001
 20
2.095000000000001
  9
$LIMMAX
 10
16.52
 20
11.88
  9
$ORTHOMODE
 70
     1
  9
$REGENMODE
 70
     1
  9
$FILLMODE
 70
     1
  9
$QTEXTMODE
 70
     0
  9
$MIRRTEXT
 70
     1
  9
$LTSCALE
 40
0.1
  9
$ATTMODE
 70
     1
  9
$TEXTSIZE
 40
0.1
  9
$TRACEWID
 40
0.05
  9
$TEXTSTYLE
  7
BRUSHSCRIPT
  9
$CLAYER
  8
SMT
  9
$CELTYPE
  6
ByLayer
  9
$CECOLOR
 62
   256
  9
$CELTSCALE
 40
1.0
  9
$DISPSILH
 70
     0
  9
$DIMSCALE
 40
1.0
  9
$DIMASZ
 40
0.18
  9
$DIMEXO
 40
0.0625
  9
$DIMDLI
 40
0.38
  9
$DIMRND
 40
0.0
  9
$DIMDLE
 40
0.0
  9
$DIMEXE
 40
0.18
  9
$DIMTP
 40
0.0
  9
$DIMTM
 40
0.0
  9
$DIMTXT
 40
0.075
  9
$DIMCEN
 40
0.09
  9
$DIMTSZ
 40
0.0
  9
$DIMTOL
 70
     0
  9
$DIMLIM
 70
     0
  9
$DIMTIH
 70
     1
  9
$DIMTOH
 70
     1
  9
$DIMSE1
 70
     0
  9
$DIMSE2
 70
     0
  9
$DIMTAD
 70
     0
  9
$DIMZIN
 70
     0
  9
$DIMBLK
  1

  9
$DIMASO
 70
     1
  9
$DIMSHO
 70
     1
  9
$DIMPOST
  1

  9
$DIMAPOST
  1

  9
$DIMALT
 70
     0
  9
$DIMALTD
 70
     2
  9
$DIMALTF
 40
25.4
  9
$DIMLFAC
 40
1.0
  9
$DIMTOFL
 70
     0
  9
$DIMTVP
 40
0.0
  9
$DIMTIX
 70
     0
  9
$DIMSOXD
 70
     0
  9
$DIMSAH
 70
     0
  9
$DIMBLK1
  1

  9
$DIMBLK2
  1

  9
$DIMSTYLE
  2
Standard
  9
$DIMCLRD
 70
     0
  9
$DIMCLRE
 70
     0
  9
$DIMCLRT
 70
     0
  9
$DIMTFAC
 40
2.399999999999999
  9
$DIMGAP
 40
0.09
  9
$DIMJUST
 70
     0
  9
$DIMSD1
 70
     0
  9
$DIMSD2
 70
     0
  9
$DIMTOLJ
 70
     1
  9
$DIMTZIN
 70
     0
  9
$DIMALTZ
 70
     0
  9
$DIMALTTZ
 70
     0
  9
$DIMUPT
 70
     0
  9
$DIMDEC
 70
     4
  9
$DIMTDEC
 70
     4
  9
$DIMALTU
 70
     2
  9
$DIMALTTD
 70
     2
  9
$DIMTXSTY
  7
STANDARD
  9
$DIMAUNIT
 70
     0
  9
$DIMADEC
 70
     0
  9
$DIMALTRND
 40
0.0
  9
$DIMAZIN
 70
     0
  9
$DIMDSEP
 70
    46
  9
$DIMATFIT
 70
     3
  9
$DIMFRAC
 70
     0
  9
$DIMLDRBLK
  1

  9
$DIMLUNIT
 70
     2
  9
$DIMLWD
 70
    -2
  9
$DIMLWE
 70
    -2
  9
$DIMTMOVE
 70
     2
  9
$LUNITS
 70
     2
  9
$LUPREC
 70
     4
  9
$SKETCHINC
 40
0.1
  9
$FILLETRAD
 40
0.5
  9
$AUNITS
 70
     0
  9
$AUPREC
 70
     0
  9
$MENU
  1
acad
  9
$ELEVATION
 40
0.0
  9
$PELEVATION
 40
0.0
  9
$THICKNESS
 40
0.0
  9
$LIMCHECK
 70
     0
  9
$CHAMFERA
 40
0.5
  9
$CHAMFERB
 40
0.5
  9
$CHAMFERC
 40
0.0
  9
$CHAMFERD
 40
0.0
  9
$SKPOLY
 70
     0
  9
$TDCREATE
 40
2452286.542062847
  9
$TDUCREATE
 40
2452286.875396180
  9
$TDUPDATE
 40
2453692.459399143
  9
$TDUUPDATE
 40
2453692.792732476
  9
$TDINDWG
 40
1.3289103819
  9
$TDUSRTIMER
 40
1.3289103819
  9
$USRTIMER
 70
     1
  9
$ANGBASE
 50
0.0
  9
$ANGDIR
 70
     0
  9
$PDMODE
 70
     0
  9
$PDSIZE
 40
0.0
  9
$PLINEWID
 40
0.02
  9
$SPLFRAME
 70
     0
  9
$SPLINETYPE
 70
     6
  9
$SPLINESEGS
 70
     8
  9
$HANDSEED
  5
B90
  9
$SURFTAB1
 70
     6
  9
$SURFTAB2
 70
     6
  9
$SURFTYPE
 70
     6
  9
$SURFU
 70
     6
  9
$SURFV
 70
     6
  9
$UCSBASE
  2

  9
$UCSNAME
  2

  9
$UCSORG
 10
32.50399999999999
 20
8.590000000000003
 30
0.0
  9
$UCSXDIR
 10
1.0
 20
0.0
 30
0.0
  9
$UCSYDIR
 10
0.0
 20
1.0
 30
0.0
  9
$UCSORTHOREF
  2

  9
$UCSORTHOVIEW
 70
     0
  9
$UCSORGTOP
 10
0.0
 20
0.0
 30
0.0
  9
$UCSORGBOTTOM
 10
0.0
 20
0.0
 30
0.0
  9
$UCSORGLEFT
 10
0.0
 20
0.0
 30
0.0
  9
$UCSORGRIGHT
 10
0.0
 20
0.0
 30
0.0
  9
$UCSORGFRONT
 10
0.0
 20
0.0
 30
0.0
  9
$UCSORGBACK
 10
0.0
 20
0.0
 30
0.0
  9
$PUCSBASE
  2

  9
$PUCSNAME
  2

  9
$PUCSORG
 10
0.0
 20
0.0
 30
0.0
  9
$PUCSXDIR
 10
1.0
 20
0.0
 30
0.0
  9
$PUCSYDIR
 10
0.0
 20
1.0
 30
0.0
  9
$PUCSORTHOREF
  2

  9
$PUCSORTHOVIEW
 70
     0
  9
$PUCSORGTOP
 10
0.0
 20
0.0
 30
0.0
  9
$PUCSORGBOTTOM
 10
0.0
 20
0.0
 30
0.0
  9
$PUCSORGLEFT
 10
0.0
 20
0.0
 30
0.0
  9
$PUCSORGRIGHT
 10
0.0
 20
0.0
 30
0.0
  9
$PUCSORGFRONT
 10
0.0
 20
0.0
 30
0.0
  9
$PUCSORGBACK
 10
0.0
 20
0.0
 30
0.0
  9
$USERI1
 70
     0
  9
$USERI2
 70
     0
  9
$USERI3
 70
     0
  9
$USERI4
 70
     0
  9
$USERI5
 70
     0
  9
$USERR1
 40
0.0
  9
$USERR2
 40
0.0
  9
$USERR3
 40
0.0
  9
$USERR4
 40
0.0
  9
$USERR5
 40
0.0
  9
$WORLDVIEW
 70
     1
  9
$SHADEDGE
 70
     3
  9
$SHADEDIF
 70
    70
  9
$TILEMODE
 70
     1
  9
$MAXACTVP
 70
    16
  9
$PINSBASE
 10
0.0
 20
0.0
 30
0.0
  9
$PLIMCHECK
 70
     0
  9
$PEXTMIN
 10
1.000000000000000E+20
 20
1.000000000000000E+20
 30
1.000000000000000E+20
  9
$PEXTMAX
 10
-1.000000000000000E+20
 20
-1.000000000000000E+20
 30
-1.000000000000000E+20
  9
$PLIMMIN
 10
0.0
 20
0.0
  9
$PLIMMAX
 10
12.0
 20
9.0
  9
$UNITMODE
 70
     0
  9
$VISRETAIN
 70
     0
  9
$PLINEGEN
 70
     0
  9
$PSLTSCALE
 70
     0
  9
$TREEDEPTH
 70
  3020
  9
$CMLSTYLE
  2
Standard
  9
$CMLJUST
 70
     0
  9
$CMLSCALE
 40
1.0
  9
$PROXYGRAPHICS
 70
     1
  9
$MEASUREMENT
 70
     0
  9
$CELWEIGHT
370
    -1
  9
$ENDCAPS
280
     0
  9
$JOINSTYLE
280
     0
  9
$LWDISPLAY
290
     0
  9
$INSUNITS
 70
     0
  9
$HYPERLINKBASE
  1

  9
$STYLESHEET
  1

  9
$XEDIT
290
     1
  9
$CEPSNTYPE
380
     0
  9
$PSTYLEMODE
290
     1
  9
$FINGERPRINTGUID
  2
{8EFA3536-3CD5-474F-A355-9A2878C3D221}
  9
$VERSIONGUID
  2
{27BD4DB2-CFC0-40F7-BBFE-336D22C1BA51}
  9
$EXTNAMES
290
     1
  9
$PSVPSCALE
 40
0.0
  9
$OLESTARTUP
290
     0
  0
ENDSEC
  0
SECTION
  2
CLASSES
  0
CLASS
  1
ACDBDICTIONARYWDFLT
  2
AcDbDictionaryWithDefault
  3
AutoCAD 2000
 90
        0
280
     0
281
     0
  0
CLASS
  1
ACDBPLACEHOLDER
  2
AcDbPlaceHolder
  3
AutoCAD 2000
 90
        0
280
     0
281
     0
  0
CLASS
  1
LAYOUT
  2
AcDbLayout
  3
AutoCAD 2000
 90
        0
280
     0
281
     0
  0
ENDSEC
  0
SECTION
  2
TABLES
  0
TABLE
  2
VPORT
  5
8
330
0
100
AcDbSymbolTable
 70
     2
  0
VPORT
  5
B8F
330
8
100
AcDbSymbolTableRecord
100
AcDbViewportTableRecord
  2
*Active
 70
     0
 10
0.0
 20
0.0
 11
1.0
 21
1.0
 12
33.73326140618324
 22
5.124702210750552
 13
0.0
 23
0.0
 14
0.001
 24
0.001
 15
0.001
 25
0.001
 16
0.0
 26
0.0
 36
1.0
 17
0.0
 27
0.0
 37
0.0
 40
9.010100943062669
 41
1.767754318618042
 42
50.0
 43
0.0
 44
0.0
 50
0.0
 51
0.0
 71
     0
 72
   100
 73
     1
 74
     0
 75
     1
 76
     1
 77
     0
 78
     0
281
     0
 65
     1
110
0.0
120
0.0
130
0.0
111
1.0
121
0.0
131
0.0
112
0.0
122
1.0
132
0.0
 79
     0
146
0.0
  0
ENDTAB
  0
TABLE
  2
LTYPE
  5
5
330
0
100
AcDbSymbolTable
 70
     1
  0
LTYPE
  5
13
330
5
100
AcDbSymbolTableRecord
100
AcDbLinetypeTableRecord
  2
ByBlock
 70
     0
  3

 72
    65
 73
     0
 40
0.0
  0
LTYPE
  5
14
330
5
100
AcDbSymbolTableRecord
100
AcDbLinetypeTableRecord
  2
ByLayer
 70
     0
  3

 72
    65
 73
     0
 40
0.0
  0
LTYPE
  5
15
330
5
100
AcDbSymbolTableRecord
100
AcDbLinetypeTableRecord
  2
CONTINUOUS
 70
     0
  3
Solid line
 72
    65
 73
     0
 40
0.0
  0
ENDTAB
  0
TABLE
  2
LAYER
  5
2
330
0
100
AcDbSymbolTable
 70
     3
  0
LAYER
  5
10
330
2
100
AcDbSymbolTableRecord
100
AcDbLayerTableRecord
  2
0
 70
     0
 62
     7
  6
CONTINUOUS
370
    -3
390
F
  0
LAYER
  5
2B
330
2
100
AcDbSymbolTableRecord
100
AcDbLayerTableRecord
  2
SMT
 70
     0
 62
     7
  6
CONTINUOUS
370
    -3
390
F
  0
LAYER
  5
2E
330
2
100
AcDbSymbolTableRecord
100
AcDbLayerTableRecord
  2
LABEL
 70
     0
 62
     7
  6
CONTINUOUS
370
    -3
390
F
  0
ENDTAB
  0
TABLE
  2
STYLE
  5
3
330
0
100
AcDbSymbolTable
 70
     3
  0
STYLE
  5
11
330
3
100
AcDbSymbolTableRecord
100
AcDbTextStyleTableRecord
  2
STANDARD
 70
     0
 40
0.0
 41
1.0
 50
0.0
 71
     0
 42
0.075
  3
txt
  4

  0
STYLE
  5
26
330
3
100
AcDbSymbolTableRecord
100
AcDbTextStyleTableRecord
  2
ADESK1
 70
     0
 40
0.0
 41
1.0
 50
0.0
 71
     0
 42
0.25
  3
romans
  4

  0
STYLE
  5
27
330
3
100
AcDbSymbolTableRecord
100
AcDbTextStyleTableRecord
  2
BRUSHSCRIPT
 70
     0
 40
0.1
 41
1.0
 50
0.0
 71
     0
 42
0.1
  3
brushscript.shx
  4

  0
ENDTAB
  0
TABLE
  2
VIEW
  5
6
330
0
100
AcDbSymbolTable
 70
     0
  0
ENDTAB
  0
TABLE
  2
UCS
  5
7
330
0
100
AcDbSymbolTable
 70
     0
  0
ENDTAB
  0
TABLE
  2
APPID
  5
9
330
0
100
AcDbSymbolTable
 70
     1
  0
APPID
  5
12
330
9
100
AcDbSymbolTableRecord
100
AcDbRegAppTableRecord
  2
ACAD
 70
     0
  0
ENDTAB
  0
TABLE
  2
DIMSTYLE
  5
A
330
0
100
AcDbSymbolTable
 70
     1
100
AcDbDimStyleTable
 71
     0
  0
DIMSTYLE
105
870
330
A
100
AcDbSymbolTableRecord
100
AcDbDimStyleTableRecord
  2
Standard
 70
     0
340
11
  0
ENDTAB
  0
TABLE
  2
BLOCK_RECORD
  5
1
330
0
100
AcDbSymbolTable
 70
     0
  0
BLOCK_RECORD
  5
1E
330
1
100
AcDbSymbolTableRecord
100
AcDbBlockTableRecord
  2
*Model_Space
340
21
  0
BLOCK_RECORD
  5
1A
330
1
100
AcDbSymbolTableRecord
100
AcDbBlockTableRecord
  2
*Paper_Space
340
1D
  0
ENDTAB
  0
ENDSEC
  0
SECTION
  2
BLOCKS
  0
BLOCK
  5
31
330
1E
100
AcDbEntity
  8
0
100
AcDbBlockBegin
  2
*Model_Space
 70
     0
 10
0.0
 20
0.0
 30
0.0
  3
*Model_Space
  1

  0
ENDBLK
  5
32
330
1E
100
AcDbEntity
  8
0
100
AcDbBlockEnd
  0
BLOCK
  5
2F
330
1A
100
AcDbEntity
 67
     1
  8
0
100
AcDbBlockBegin
  2
*Paper_Space
 70
     0
 10
0.0
 20
0.0
 30
0.0
  3
*Paper_Space
  1

  0
ENDBLK
  5
30
330
1A
100
AcDbEntity
 67
     1
  8
0
100
AcDbBlockEnd
  0
ENDSEC
  0
SECTION
  2
ENTITIES
  0
LINE
  5
5A
330
1E
100
AcDbEntity
  8
LABEL
100
AcDbLine
 10
30.98899999999999
 20
1.461999999999999
 30
0.0
 11
30.98899999999999
 21
9.211999999999999
 31
0.0
  0
LINE
  5
5B
330
1E
100
AcDbEntity
  8
LABEL
100
AcDbLine
 10
36.989
 20
1.461999999999999
 30
0.0
 11
36.989
 21
9.211999999999999
 31
0.0
  0
LINE
  5
5C
330
1E
100
AcDbEntity
  8
LABEL
100
AcDbLine
 10
37.36399999999999
 20
9.211999999999999
 30
0.0
 11
30.61399999999999
 21
9.211999999999999
 31
0.0
  0
LINE
  5
5D
330
1E
100
AcDbEntity
  8
LABEL
100
AcDbLine
 10
37.36399999999999
 20
1.461999999999999
 30
0.0
 11
30.61399999999999
 21
1.461999999999999
 31
0.0
  0
LINE
  5
62
330
1E
100
AcDbEntity
  8
LABEL
100
AcDbLine
 10
30.48899999999999
 20
1.587000000000003
 30
0.0
 11
30.48899999999999
 21
9.087000000000003
 31
0.0
  0
LINE
  5
63
330
1E
100
AcDbEntity
  8
LABEL
100
AcDbLine
 10
37.48899999999999
 20
1.587000000000003
 30
0.0
 11
37.48899999999999
 21
9.087000000000003
 31
0.0
  0
LINE
  5
69
330
1E
100
AcDbEntity
  8
LABEL
100
AcDbLine
 10
31.089
 20
8.387
 30
0.0
 11
31.089
 21
2.092000000000001
 31
0.0
  0
ARC
  5
6B
330
1E
100
AcDbEntity
  8
LABEL
100
AcDbCircle
 10
30.61399999999999
 20
9.087000000000001
 30
0.0
 40
0.1249999999999982
100
AcDbArc
 50
89.9999999999992
 51
179.9999999999991
  0
ARC
  5
6C
330
1E
100
AcDbEntity
  8
LABEL
100
AcDbCircle
 10
30.614
 20
1.587000000000001
 30
0.0
 40
0.1250000000000015
100
AcDbArc
 50
179.999999999999
 51
269.999999999999
  0
ARC
  5
6D
330
1E
100
AcDbEntity
  8
LABEL
100
AcDbCircle
 10
37.36399999999999
 20
1.587000000000001
 30
0.0
 40
0.1250000000000018
100
AcDbArc
 50
270.0000000000008
 51
0.0000000000008142
  0
ARC
  5
6E
330
1E
100
AcDbEntity
  8
LABEL
100
AcDbCircle
 10
37.36399999999999
 20
9.087000000000001
 30
0.0
 40
0.1249999999999982
100
AcDbArc
 50
0.0000000000007888
 51
90.00000000000078
  0
LINE
  5
71
330
1E
100
AcDbEntity
  8
LABEL
100
AcDbLine
 10
31.63899999999999
 20
2.011999999999999
 30
0.0
 11
36.389
 21
2.011999999999999
 31
0.0
  0
LINE
  5
72
330
1E
100
AcDbEntity
  8
LABEL
100
AcDbLine
 10
31.63899999999999
 20
8.461999999999999
 30
0.0
 11
33.35399999999999
 21
8.461999999999999
 31
0.0
  0
LINE
  5
73
330
1E
100
AcDbEntity
  8
LABEL
100
AcDbLine
 10
36.38896176990759
 20
2.011999999999999
 30
0.0
 11
36.38896176990759
 21
8.461999999999999
 31
0.0
  0
LINE
  5
74
330
1E
100
AcDbEntity
  8
LABEL
100
AcDbLine
 10
31.63899999999999
 20
2.011999999999999
 30
0.0
 11
31.63899999999999
 21
8.461999999999999
 31
0.0
  0
TEXT
  5
75
330
1E
100
AcDbEntity
  8
LABEL
100
AcDbText
 10
36.20278571428571
 20
7.909500000000003
 30
0.0
 40
0.075
  1
8B
  7
ADESK1
 72
     4
 11
36.276
 21
7.947000000000003
 31
0.0
100
AcDbText
  0
TEXT
  5
77
330
1E
100
AcDbEntity
  8
LABEL
100
AcDbText
 10
36.20457142857143
 20
7.709500000000003
 30
0.0
 40
0.075
  1
8A
  7
ADESK1
 72
     4
 11
36.276
 21
7.747000000000003
 31
0.0
100
AcDbText
  0
TEXT
  5
78
330
1E
100
AcDbEntity
  8
LABEL
100
AcDbText
 10
36.20457142857143
 20
7.309500000000003
 30
0.0
 40
0.075
  1
7A
  7
ADESK1
 72
     4
 11
36.276
 21
7.347000000000003
 31
0.0
100
AcDbText
  0
TEXT
  5
79
330
1E
100
AcDbEntity
  8
LABEL
100
AcDbText
 10
36.20278571428571
 20
7.509500000000003
 30
0.0
 40
0.075
  1
7B
  7
ADESK1
 72
     4
 11
36.276
 21
7.547000000000003
 31
0.0
100
AcDbText
  0
TEXT
  5
7A
330
1E
100
AcDbEntity
  8
LABEL
100
AcDbText
 10
36.201
 20
7.109500000000004
 30
0.0
 40
0.075
  1
6B
  7
ADESK1
 72
     4
 11
36.276
 21
7.147000000000003
 31
0.0
100
AcDbText
  0
TEXT
  5
7B
330
1E
100
AcDbEntity
  8
LABEL
100
AcDbText
 10
36.20278571428571
 20
6.909500000000003
 30
0.0
 40
0.075
  1
6A
  7
ADESK1
 72
     4
 11
36.276
 21
6.947000000000003
 31
0.0
100
AcDbText
  0
TEXT
  5
7C
330
1E
100
AcDbEntity
  8
LABEL
100
AcDbText
 10
36.20457142857143
 20
6.509500000000003
 30
0.0
 40
0.075
  1
5A
  7
ADESK1
 72
     4
 11
36.276
 21
6.547000000000003
 31
0.0
100
AcDbText
  0
TEXT
  5
7D
330
1E
100
AcDbEntity
  8
LABEL
100
AcDbText
 10
36.20278571428571
 20
6.709500000000003
 30
0.0
 40
0.075
  1
5B
  7
ADESK1
 72
     4
 11
36.276
 21
6.747000000000003
 31
0.0
100
AcDbText
  0
TEXT
  5
7E
330
1E
100
AcDbEntity
  8
LABEL
100
AcDbText
 10
36.20457142857143
 20
6.109500000000003
 30
0.0
 40
0.075
  1
4A
  7
ADESK1
 72
     4
 11
36.276
 21
6.147000000000002
 31
0.0
100
AcDbText
  0
TEXT
  5
7F
330
1E
100
AcDbEntity
  8
LABEL
100
AcDbText
 10
36.20278571428571
 20
6.309500000000003
 30
0.0
 40
0.075
  1
4B
  7
ADESK1
 72
     4
 11
36.276
 21
6.347000000000003
 31
0.0
100
AcDbText
  0
TEXT
  5
80
330
1E
100
AcDbEntity
  8
LABEL
100
AcDbText
 10
36.20457142857143
 20
5.709500000000003
 30
0.0
 40
0.075
  1
3A
  7
ADESK1
 72
     4
 11
36.276
 21
5.747000000000003
 31
0.0
100
AcDbText
  0
TEXT
  5
81
330
1E
100
AcDbEntity
  8
LABEL
100
AcDbText
 10
36.20278571428571
 20
5.909500000000003
 30
0.0
 40
0.075
  1
3B
  7
ADESK1
 72
     4
 11
36.276
 21
5.947000000000003
 31
0.0
100
AcDbText
  0
TEXT
  5
82
330
1E
100
AcDbEntity
  8
LABEL
100
AcDbText
 10
36.20457142857143
 20
5.309500000000003
 30
0.0
 40
0.075
  1
2A
  7
ADESK1
 72
     4
 11
36.276
 21
5.347000000000003
 31
0.0
100
AcDbText
  0
TEXT
  5
83
330
1E
100
AcDbEntity
  8
LABEL
100
AcDbText
 10
36.20278571428571
 20
5.509500000000003
 30
0.0
 40
0.075
  1
2B
  7
ADESK1
 72
     4
 11
36.276
 21
5.547000000000003
 31
0.0
100
AcDbText
  0
TEXT
  5
84
330
1E
100
AcDbEntity
  8
LABEL
100
AcDbText
 10
36.19921428571429
 20
4.909500000000003
 30
0.0
 40
0.075
  1
1A
  7
ADESK1
 72
     4
 11
36.276
 21
4.947000000000003
 31
0.0
100
AcDbText
  0
TEXT
  5
85
330
1E
100
AcDbEntity
  8
LABEL
100
AcDbText
 10
36.19742857142857
 20
5.109500000000004
 30
0.0
 40
0.075
  1
1B
  7
ADESK1
 72
     4
 11
36.276
 21
5.147000000000003
 31
0.0
100
AcDbText
  0
TEXT
  5
86
330
1E
100
AcDbEntity
  8
LABEL
100
AcDbText
 10
36.2385
 20
4.554500000000005
 30
0.0
 40
0.075
  1
C
  7
ADESK1
 72
     4
 11
36.276
 21
4.592000000000004
 31
0.0
100
AcDbText
  0
TEXT
  5
87
330
1E
100
AcDbEntity
  8
LABEL
100
AcDbText
 10
36.20457142857143
 20
4.354500000000005
 30
0.0
 40
0.075
  1
20
  7
ADESK1
 72
     4
 11
36.276
 21
4.392000000000004
 31
0.0
100
AcDbText
  0
TEXT
  5
88
330
1E
100
AcDbEntity
  8
LABEL
100
AcDbText
 10
36.201
 20
4.154500000000004
 30
0.0
 40
0.075
  1
19
  7
ADESK1
 72
     4
 11
36.276
 21
4.192000000000003
 31
0.0
100
AcDbText
  0
TEXT
  5
89
330
1E
100
AcDbEntity
  8
LABEL
100
AcDbText
 10
36.19921428571429
 20
3.954500000000004
 30
0.0
 40
0.075
  1
18
  7
ADESK1
 72
     4
 11
36.276
 21
3.992000000000004
 31
0.0
100
AcDbText
  0
TEXT
  5
8A
330
1E
100
AcDbEntity
  8
LABEL
100
AcDbText
 10
36.19921428571429
 20
3.754500000000004
 30
0.0
 40
0.075
  1
17
  7
ADESK1
 72
     4
 11
36.276
 21
3.792000000000004
 31
0.0
100
AcDbText
  0
TEXT
  5
8B
330
1E
100
AcDbEntity
  8
LABEL
100
AcDbText
 10
36.19921428571429
 20
3.554500000000004
 30
0.0
 40
0.075
  1
16
  7
ADESK1
 72
     4
 11
36.276
 21
3.592000000000004
 31
0.0
100
AcDbText
  0
TEXT
  5
8C
330
1E
100
AcDbEntity
  8
LABEL
100
AcDbText
 10
36.19921428571429
 20
3.354500000000004
 30
0.0
 40
0.075
  1
15
  7
ADESK1
 72
     4
 11
36.276
 21
3.392000000000004
 31
0.0
100
AcDbText
  0
TEXT
  5
8D
330
1E
100
AcDbEntity
  8
LABEL
100
AcDbText
 10
36.19742857142857
 20
3.154500000000004
 30
0.0
 40
0.075
  1
14
  7
ADESK1
 72
     4
 11
36.276
 21
3.192000000000004
 31
0.0
100
AcDbText
  0
TEXT
  5
8E
330
1E
100
AcDbEntity
  8
LABEL
100
AcDbText
 10
36.19921428571429
 20
2.954500000000004
 30
0.0
 40
0.075
  1
13
  7
ADESK1
 72
     4
 11
36.276
 21
2.992000000000004
 31
0.0
100
AcDbText
  0
TEXT
  5
8F
330
1E
100
AcDbEntity
  8
LABEL
100
AcDbText
 10
36.19921428571429
 20
2.754500000000004
 30
0.0
 40
0.075
  1
12
  7
ADESK1
 72
     4
 11
36.276
 21
2.792000000000004
 31
0.0
100
AcDbText
  0
TEXT
  5
90
330
1E
100
AcDbEntity
  8
LABEL
100
AcDbText
 10
36.24207142857143
 20
2.154500000000003
 30
0.0
 40
0.075
  1
9
  7
ADESK1
 72
     4
 11
36.276
 21
2.192000000000003
 31
0.0
100
AcDbText
  0
TEXT
  5
91
330
1E
100
AcDbEntity
  8
LABEL
100
AcDbText
 10
36.19921428571429
 20
2.354500000000003
 30
0.0
 40
0.075
  1
10
  7
ADESK1
 72
     4
 11
36.276
 21
2.392000000000003
 31
0.0
100
AcDbText
  0
TEXT
  5
92
330
1E
100
AcDbEntity
  8
LABEL
100
AcDbText
 10
36.20992857142857
 20
2.554500000000003
 30
0.0
 40
0.075
  1
11
  7
ADESK1
 72
     4
 11
36.276
 21
2.592000000000004
 31
0.0
100
AcDbText
  0
LINE
  5
93
330
1E
100
AcDbEntity
  8
LABEL
100
AcDbLine
 10
36.044
 20
7.947000000000003
 30
0.0
 11
36.14399999999999
 21
7.947000000000003
 31
0.0
  0
LINE
  5
94
330
1E
100
AcDbEntity
  8
LABEL
100
AcDbLine
 10
36.044
 20
7.747000000000003
 30
0.0
 11
36.14399999999999
 21
7.747000000000003
 31
0.0
  0
LINE
  5
95
330
1E
100
AcDbEntity
  8
LABEL
100
AcDbLine
 10
36.10899999999999
 20
7.867000000000003
 30
0.0
 11
35.979
 21
7.867000000000003
 31
0.0
  0
LINE
  5
96
330
1E
100
AcDbEntity
  8
LABEL
100
AcDbLine
 10
36.10899999999999
 20
7.827000000000003
 30
0.0
 11
35.979
 21
7.827000000000003
 31
0.0
  0
LINE
  5
97
330
1E
100
AcDbEntity
  8
LABEL
100
AcDbLine
 10
36.044
 20
7.867000000000003
 30
0.0
 11
36.044
 21
7.947000000000003
 31
0.0
  0
LINE
  5
98
330
1E
100
AcDbEntity
  8
LABEL
100
AcDbLine
 10
36.044
 20
7.827000000000003
 30
0.0
 11
36.044
 21
7.747000000000003
 31
0.0
  0
LINE
  5
99
330
1E
100
AcDbEntity
  8
LABEL
100
AcDbLine
 10
36.044
 20
7.467000000000003
 30
0.0
 11
36.044
 21
7.547000000000003
 31
0.0
  0
LINE
  5
9A
330
1E
100
AcDbEntity
  8
LABEL
100
AcDbLine
 10
36.10899999999999
 20
7.467000000000003
 30
0.0
 11
35.979
 21
7.467000000000003
 31
0.0
  0
LINE
  5
9B
330
1E
100
AcDbEntity
  8
LABEL
100
AcDbLine
 10
36.044
 20
7.427000000000003
 30
0.0
 11
36.044
 21
7.347000000000003
 31
0.0
  0
LINE
  5
9C
330
1E
100
AcDbEntity
  8
LABEL
100
AcDbLine
 10
36.10899999999999
 20
7.427000000000003
 30
0.0
 11
35.979
 21
7.427000000000003
 31
0.0
  0
LINE
  5
9D
330
1E
100
AcDbEntity
  8
LABEL
100
AcDbLine
 10
36.044
 20
7.347000000000003
 30
0.0
 11
36.14399999999999
 21
7.347000000000003
 31
0.0
  0
LINE
  5
9E
330
1E
100
AcDbEntity
  8
LABEL
100
AcDbLine
 10
36.044
 20
7.547000000000003
 30
0.0
 11
36.14399999999999
 21
7.547000000000003
 31
0.0
  0
LINE
  5
9F
330
1E
100
AcDbEntity
  8
LABEL
100
AcDbLine
 10
36.044
 20
6.667000000000003
 30
0.0
 11
36.044
 21
6.747000000000003
 31
0.0
  0
LINE
  5
A0
330
1E
100
AcDbEntity
  8
LABEL
100
AcDbLine
 10
36.044
 20
6.547000000000003
 30
0.0
 11
36.14399999999999
 21
6.547000000000003
 31
0.0
  0
LINE
  5
A1
330
1E
100
AcDbEntity
  8
LABEL
100
AcDbLine
 10
36.10899999999999
 20
6.627000000000003
 30
0.0
 11
35.979
 21
6.627000000000003
 31
0.0
  0
LINE
  5
A2
330
1E
100
AcDbEntity
  8
LABEL
100
AcDbLine
 10
36.044
 20
6.627000000000003
 30
0.0
 11
36.044
 21
6.547000000000003
 31
0.0
  0
LINE
  5
A3
330
1E
100
AcDbEntity
  8
LABEL
100
AcDbLine
 10
36.10899999999999
 20
6.667000000000003
 30
0.0
 11
35.979
 21
6.667000000000003
 31
0.0
  0
LINE
  5
A4
330
1E
100
AcDbEntity
  8
LABEL
100
AcDbLine
 10
36.044
 20
6.747000000000003
 30
0.0
 11
36.14399999999999
 21
6.747000000000003
 31
0.0
  0
LINE
  5
A5
330
1E
100
AcDbEntity
  8
LABEL
100
AcDbLine
 10
36.044
 20
7.067000000000003
 30
0.0
 11
36.044
 21
7.147000000000003
 31
0.0
  0
LINE
  5
A6
330
1E
100
AcDbEntity
  8
LABEL
100
AcDbLine
 10
36.10899999999999
 20
7.067000000000003
 30
0.0
 11
35.979
 21
7.067000000000003
 31
0.0
  0
LINE
  5
A7
330
1E
100
AcDbEntity
  8
LABEL
100
AcDbLine
 10
36.044
 20
7.027000000000003
 30
0.0
 11
36.044
 21
6.947000000000003
 31
0.0
  0
LINE
  5
A8
330
1E
100
AcDbEntity
  8
LABEL
100
AcDbLine
 10
36.10899999999999
 20
7.027000000000003
 30
0.0
 11
35.979
 21
7.027000000000003
 31
0.0
  0
LINE
  5
A9
330
1E
100
AcDbEntity
  8
LABEL
100
AcDbLine
 10
36.044
 20
6.947000000000003
 30
0.0
 11
36.14399999999999
 21
6.947000000000003
 31
0.0
  0
LINE
  5
AA
330
1E
100
AcDbEntity
  8
LABEL
100
AcDbLine
 10
36.044
 20
7.147000000000003
 30
0.0
 11
36.14399999999999
 21
7.147000000000003
 31
0.0
  0
LINE
  5
AB
330
1E
100
AcDbEntity
  8
LABEL
100
AcDbLine
 10
36.044
 20
5.867000000000002
 30
0.0
 11
36.044
 21
5.947000000000002
 31
0.0
  0
LINE
  5
AC
330
1E
100
AcDbEntity
  8
LABEL
100
AcDbLine
 10
36.044
 20
5.427000000000003
 30
0.0
 11
36.044
 21
5.347000000000003
 31
0.0
  0
LINE
  5
AD
330
1E
100
AcDbEntity
  8
LABEL
100
AcDbLine
 10
36.044
 20
5.347000000000003
 30
0.0
 11
36.14399999999999
 21
5.347000000000003
 31
0.0
  0
LINE
  5
AE
330
1E
100
AcDbEntity
  8
LABEL
100
AcDbLine
 10
36.044
 20
5.147000000000002
 30
0.0
 11
36.14399999999999
 21
5.147000000000002
 31
0.0
  0
LINE
  5
AF
330
1E
100
AcDbEntity
  8
LABEL
100
AcDbLine
 10
36.10899999999999
 20
5.067000000000002
 30
0.0
 11
35.979
 21
5.067000000000002
 31
0.0
  0
LINE
  5
B0
330
1E
100
AcDbEntity
  8
LABEL
100
AcDbLine
 10
36.044
 20
5.027000000000002
 30
0.0
 11
36.044
 21
4.947000000000002
 31
0.0
  0
LINE
  5
B1
330
1E
100
AcDbEntity
  8
LABEL
100
AcDbLine
 10
36.10899999999999
 20
5.027000000000002
 30
0.0
 11
35.979
 21
5.027000000000002
 31
0.0
  0
LINE
  5
B2
330
1E
100
AcDbEntity
  8
LABEL
100
AcDbLine
 10
36.044
 20
4.947000000000002
 30
0.0
 11
36.14399999999999
 21
4.947000000000002
 31
0.0
  0
LINE
  5
B3
330
1E
100
AcDbEntity
  8
LABEL
100
AcDbLine
 10
36.044
 20
5.067000000000002
 30
0.0
 11
36.044
 21
5.147000000000002
 31
0.0
  0
LINE
  5
B4
330
1E
100
AcDbEntity
  8
LABEL
100
AcDbLine
 10
36.044
 20
5.547000000000003
 30
0.0
 11
36.14399999999999
 21
5.547000000000003
 31
0.0
  0
LINE
  5
B5
330
1E
100
AcDbEntity
  8
LABEL
100
AcDbLine
 10
36.10899999999999
 20
5.427000000000003
 30
0.0
 11
35.979
 21
5.427000000000003
 31
0.0
  0
LINE
  5
B6
330
1E
100
AcDbEntity
  8
LABEL
100
AcDbLine
 10
36.10899999999999
 20
5.467000000000003
 30
0.0
 11
35.979
 21
5.467000000000003
 31
0.0
  0
LINE
  5
B7
330
1E
100
AcDbEntity
  8
LABEL
100
AcDbLine
 10
36.044
 20
5.467000000000003
 30
0.0
 11
36.044
 21
5.547000000000003
 31
0.0
  0
LINE
  5
B8
330
1E
100
AcDbEntity
  8
LABEL
100
AcDbLine
 10
36.044
 20
5.747000000000002
 30
0.0
 11
36.14399999999999
 21
5.747000000000002
 31
0.0
  0
LINE
  5
B9
330
1E
100
AcDbEntity
  8
LABEL
100
AcDbLine
 10
36.10899999999999
 20
5.827000000000002
 30
0.0
 11
35.979
 21
5.827000000000002
 31
0.0
  0
LINE
  5
BA
330
1E
100
AcDbEntity
  8
LABEL
100
AcDbLine
 10
36.044
 20
5.827000000000002
 30
0.0
 11
36.044
 21
5.747000000000002
 31
0.0
  0
LINE
  5
BB
330
1E
100
AcDbEntity
  8
LABEL
100
AcDbLine
 10
36.10899999999999
 20
5.867000000000002
 30
0.0
 11
35.979
 21
5.867000000000002
 31
0.0
  0
LINE
  5
BC
330
1E
100
AcDbEntity
  8
LABEL
100
AcDbLine
 10
36.044
 20
5.947000000000002
 30
0.0
 11
36.14399999999999
 21
5.947000000000002
 31
0.0
  0
LINE
  5
BD
330
1E
100
AcDbEntity
  8
LABEL
100
AcDbLine
 10
36.044
 20
6.267000000000003
 30
0.0
 11
36.044
 21
6.347000000000003
 31
0.0
  0
LINE
  5
BE
330
1E
100
AcDbEntity
  8
LABEL
100
AcDbLine
 10
36.10899999999999
 20
6.267000000000003
 30
0.0
 11
35.979
 21
6.267000000000003
 31
0.0
  0
LINE
  5
BF
330
1E
100
AcDbEntity
  8
LABEL
100
AcDbLine
 10
36.044
 20
6.227000000000002
 30
0.0
 11
36.044
 21
6.147000000000002
 31
0.0
  0
LINE
  5
C0
330
1E
100
AcDbEntity
  8
LABEL
100
AcDbLine
 10
36.10899999999999
 20
6.227000000000002
 30
0.0
 11
35.979
 21
6.227000000000002
 31
0.0
  0
LINE
  5
C1
330
1E
100
AcDbEntity
  8
LABEL
100
AcDbLine
 10
36.044
 20
6.147000000000002
 30
0.0
 11
36.14399999999999
 21
6.147000000000002
 31
0.0
  0
LINE
  5
C2
330
1E
100
AcDbEntity
  8
LABEL
100
AcDbLine
 10
36.044
 20
6.347000000000003
 30
0.0
 11
36.14399999999999
 21
6.347000000000003
 31
0.0
  0
LINE
  5
C3
330
1E
100
AcDbEntity
  8
LABEL
100
AcDbLine
 10
36.38896176990759
 20
8.077000000000003
 30
0.0
 11
35.76396176990759
 21
8.077000000000003
 31
0.0
  0
LINE
  5
C4
330
1E
100
AcDbEntity
  8
LABEL
100
AcDbLine
 10
36.38896176990759
 20
4.817000000000003
 30
0.0
 11
35.76396176990759
 21
4.817000000000003
 31
0.0
  0
LINE
  5
C5
330
1E
100
AcDbEntity
  8
LABEL
100
AcDbLine
 10
35.76396176990759
 20
8.077000000000003
 30
0.0
 11
35.76396176990759
 21
7.021999999999999
 31
0.0
  0
TEXT
  5
C6
330
1E
100
AcDbEntity
  8
LABEL
100
AcDbText
 10
35.78896176990759
 20
6.023785714285717
 30
0.0
 40
0.075
  1
Digital Outputs
 50
90.0
  7
ADESK1
 72
     4
 11
35.76396176990759
 21
6.447000000000003
 31
0.0
100
AcDbText
  0
LINE
  5
C7
330
1E
100
AcDbEntity
  8
LABEL
100
AcDbLine
 10
36.38896176990759
 20
4.722000000000004
 30
0.0
 11
35.76396176990759
 21
4.722000000000004
 31
0.0
  0
LINE
  5
C8
330
1E
100
AcDbEntity
  8
LABEL
100
AcDbLine
 10
36.38896176990759
 20
2.062000000000003
 30
0.0
 11
35.76396176990759
 21
2.062000000000003
 31
0.0
  0
CIRCLE
  5
C9
330
1E
100
AcDbEntity
  8
LABEL
100
AcDbCircle
 10
36.03799999999999
 20
4.392000000000003
 30
0.0
 40
0.0409999999999968
  0
CIRCLE
  5
CA
330
1E
100
AcDbEntity
  8
LABEL
100
AcDbCircle
 10
36.03799999999999
 20
4.192000000000003
 30
0.0
 40
0.0409999999999968
  0
CIRCLE
  5
CB
330
1E
100
AcDbEntity
  8
LABEL
100
AcDbCircle
 10
36.03799999999999
 20
3.792000000000004
 30
0.0
 40
0.0409999999999968
  0
CIRCLE
  5
CC
330
1E
100
AcDbEntity
  8
LABEL
100
AcDbCircle
 10
36.03799999999999
 20
3.992000000000004
 30
0.0
 40
0.0409999999999968
  0
CIRCLE
  5
CD
330
1E
100
AcDbEntity
  8
LABEL
100
AcDbCircle
 10
36.03799999999999
 20
3.392000000000003
 30
0.0
 40
0.0409999999999968
  0
CIRCLE
  5
CE
330
1E
100
AcDbEntity
  8
LABEL
100
AcDbCircle
 10
36.03799999999999
 20
3.592000000000004
 30
0.0
 40
0.0409999999999968
  0
CIRCLE
  5
CF
330
1E
100
AcDbEntity
  8
LABEL
100
AcDbCircle
 10
36.03799999999999
 20
2.992000000000004
 30
0.0
 40
0.0409999999999968
  0
CIRCLE
  5
D0
330
1E
100
AcDbEntity
  8
LABEL
100
AcDbCircle
 10
36.03799999999999
 20
3.192000000000003
 30
0.0
 40
0.0409999999999968
  0
CIRCLE
  5
D1
330
1E
100
AcDbEntity
  8
LABEL
100
AcDbCircle
 10
36.03799999999999
 20
2.792000000000004
 30
0.0
 40
0.0409999999999968
  0
CIRCLE
  5
D2
330
1E
100
AcDbEntity
  8
LABEL
100
AcDbCircle
 10
36.03799999999999
 20
2.592000000000004
 30
0.0
 40
0.0409999999999968
  0
CIRCLE
  5
D3
330
1E
100
AcDbEntity
  8
LABEL
100
AcDbCircle
 10
36.03799999999999
 20
2.192000000000003
 30
0.0
 40
0.0409999999999968
  0
CIRCLE
  5
D4
330
1E
100
AcDbEntity
  8
LABEL
100
AcDbCircle
 10
36.03799999999999
 20
2.392000000000003
 30
0.0
 40
0.0409999999999968
  0
LINE
  5
D5
330
1E
100
AcDbEntity
  8
LABEL
100
AcDbLine
 10
36.079
 20
4.392000000000003
 30
0.0
 11
36.149
 21
4.392000000000003
 31
0.0
  0
LINE
  5
D6
330
1E
100
AcDbEntity
  8
LABEL
100
AcDbLine
 10
35.997
 20
4.392000000000003
 30
0.0
 11
35.967
 21
4.392000000000003
 31
0.0
  0
LINE
  5
D7
330
1E
100
AcDbEntity
  8
LABEL
100
AcDbLine
 10
36.079
 20
4.192000000000003
 30
0.0
 11
36.149
 21
4.192000000000003
 31
0.0
  0
LINE
  5
D8
330
1E
100
AcDbEntity
  8
LABEL
100
AcDbLine
 10
35.997
 20
4.192000000000003
 30
0.0
 11
35.967
 21
4.192000000000003
 31
0.0
  0
LINE
  5
D9
330
1E
100
AcDbEntity
  8
LABEL
100
AcDbLine
 10
36.079
 20
3.792000000000003
 30
0.0
 11
36.149
 21
3.792000000000003
 31
0.0
  0
LINE
  5
DA
330
1E
100
AcDbEntity
  8
LABEL
100
AcDbLine
 10
35.997
 20
3.792000000000003
 30
0.0
 11
35.967
 21
3.792000000000003
 31
0.0
  0
LINE
  5
DB
330
1E
100
AcDbEntity
  8
LABEL
100
AcDbLine
 10
36.079
 20
3.992000000000004
 30
0.0
 11
36.149
 21
3.992000000000004
 31
0.0
  0
LINE
  5
DC
330
1E
100
AcDbEntity
  8
LABEL
100
AcDbLine
 10
35.997
 20
3.992000000000004
 30
0.0
 11
35.967
 21
3.992000000000004
 31
0.0
  0
LINE
  5
DD
330
1E
100
AcDbEntity
  8
LABEL
100
AcDbLine
 10
36.079
 20
3.392000000000003
 30
0.0
 11
36.149
 21
3.392000000000003
 31
0.0
  0
LINE
  5
DE
330
1E
100
AcDbEntity
  8
LABEL
100
AcDbLine
 10
35.997
 20
3.392000000000003
 30
0.0
 11
35.967
 21
3.392000000000003
 31
0.0
  0
LINE
  5
DF
330
1E
100
AcDbEntity
  8
LABEL
100
AcDbLine
 10
35.997
 20
3.592000000000004
 30
0.0
 11
35.967
 21
3.592000000000004
 31
0.0
  0
LINE
  5
E0
330
1E
100
AcDbEntity
  8
LABEL
100
AcDbLine
 10
36.079
 20
3.592000000000004
 30
0.0
 11
36.149
 21
3.592000000000004
 31
0.0
  0
LINE
  5
E1
330
1E
100
AcDbEntity
  8
LABEL
100
AcDbLine
 10
36.079
 20
2.992000000000003
 30
0.0
 11
36.149
 21
2.992000000000003
 31
0.0
  0
LINE
  5
E2
330
1E
100
AcDbEntity
  8
LABEL
100
AcDbLine
 10
35.997
 20
2.992000000000003
 30
0.0
 11
35.967
 21
2.992000000000003
 31
0.0
  0
LINE
  5
E3
330
1E
100
AcDbEntity
  8
LABEL
100
AcDbLine
 10
35.997
 20
3.192000000000003
 30
0.0
 11
35.967
 21
3.192000000000003
 31
0.0
  0
LINE
  5
E4
330
1E
100
AcDbEntity
  8
LABEL
100
AcDbLine
 10
36.079
 20
3.192000000000003
 30
0.0
 11
36.149
 21
3.192000000000003
 31
0.0
  0
LINE
  5
E5
330
1E
100
AcDbEntity
  8
LABEL
100
AcDbLine
 10
36.079
 20
2.592000000000003
 30
0.0
 11
36.149
 21
2.592000000000003
 31
0.0
  0
LINE
  5
E6
330
1E
100
AcDbEntity
  8
LABEL
100
AcDbLine
 10
35.997
 20
2.592000000000003
 30
0.0
 11
35.967
 21
2.592000000000003
 31
0.0
  0
LINE
  5
E7
330
1E
100
AcDbEntity
  8
LABEL
100
AcDbLine
 10
35.997
 20
2.792000000000003
 30
0.0
 11
35.967
 21
2.792000000000003
 31
0.0
  0
LINE
  5
E8
330
1E
100
AcDbEntity
  8
LABEL
100
AcDbLine
 10
36.079
 20
2.792000000000003
 30
0.0
 11
36.149
 21
2.792000000000003
 31
0.0
  0
LINE
  5
E9
330
1E
100
AcDbEntity
  8
LABEL
100
AcDbLine
 10
36.079
 20
2.192000000000003
 30
0.0
 11
36.149
 21
2.192000000000003
 31
0.0
  0
LINE
  5
EA
330
1E
100
AcDbEntity
  8
LABEL
100
AcDbLine
 10
35.997
 20
2.192000000000003
 30
0.0
 11
35.967
 21
2.192000000000003
 31
0.0
  0
LINE
  5
EB
330
1E
100
AcDbEntity
  8
LABEL
100
AcDbLine
 10
36.079
 20
2.392000000000003
 30
0.0
 11
36.149
 21
2.392000000000003
 31
0.0
  0
LINE
  5
EC
330
1E
100
AcDbEntity
  8
LABEL
100
AcDbLine
 10
35.997
 20
2.392000000000003
 30
0.0
 11
35.967
 21
2.392000000000003
 31
0.0
  0
LINE
  5
ED
330
1E
100
AcDbEntity
  8
LABEL
100
AcDbLine
 10
35.967
 20
4.592000000000004
 30
0.0
 11
36.149
 21
4.592000000000004
 31
0.0
  0
LINE
  5
EE
330
1E
100
AcDbEntity
  8
LABEL
100
AcDbLine
 10
35.967
 20
2.192000000000003
 30
0.0
 11
35.967
 21
4.592000000000004
 31
0.0
  0
TEXT
  5
EF
330
1E
100
AcDbEntity
  8
LABEL
100
AcDbText
 10
35.78896176990759
 20
3.01521428571429
 30
0.0
 40
0.075
  1
Digital Inputs
 50
90.0
  7
ADESK1
 72
     4
 11
35.76396176990759
 21
3.392000000000004
 31
0.0
100
AcDbText
  0
LINE
  5
F0
330
1E
100
AcDbEntity
  8
LABEL
100
AcDbLine
 10
35.76396176990759
 20
4.722000000000004
 30
0.0
 11
35.76396176990759
 21
3.916000000000003
 31
0.0
  0
LINE
  5
F1
330
1E
100
AcDbEntity
  8
LABEL
100
AcDbLine
 10
35.76396176990759
 20
5.872000000000007
 30
0.0
 11
35.76396176990759
 21
4.817000000000003
 31
0.0
  0
LINE
  5
F2
330
1E
100
AcDbEntity
  8
LABEL
100
AcDbLine
 10
35.76396176990759
 20
2.868000000000004
 30
0.0
 11
35.76396176990759
 21
2.062000000000003
 31
0.0
  0
TEXT
  5
F3
330
1E
100
AcDbEntity
  8
LABEL
100
AcDbText
 10
34.51578571428572
 20
2.244499999999999
 30
0.0
 40
0.075
  1
Network
  7
ADESK1
 72
     4
 11
34.739
 21
2.281999999999999
 31
0.0
100
AcDbText
  0
TEXT
  5
F4
330
1E
100
AcDbEntity
  8
LABEL
100
AcDbText
 10
34.5265
 20
2.114499999999999
 30
0.0
 40
0.075
  1
Address
  7
ADESK1
 72
     4
 11
34.739
 21
2.151999999999999
 31
0.0
100
AcDbText
  0
LINE
  5
F5
330
1E
100
AcDbEntity
  8
LABEL
100
AcDbLine
 10
32.2635
 20
2.127000000000003
 30
0.0
 11
31.6385
 21
2.127000000000003
 31
0.0
  0
LINE
  5
F6
330
1E
100
AcDbEntity
  8
LABEL
100
AcDbLine
 10
32.2635
 20
2.587000000000003
 30
0.0
 11
31.6385
 21
2.587000000000003
 31
0.0
  0
TEXT
  5
F7
330
1E
100
AcDbEntity
  8
LABEL
100
AcDbText
 10
31.73685714285713
 20
2.303428571428574
 30
0.0
 40
0.075
  1
+
 50
270.0
  7
ADESK1
 72
     4
 11
31.76899999999999
 21
2.257000000000003
 31
0.0
100
AcDbText
  0
TEXT
  5
F8
330
1E
100
AcDbEntity
  8
LABEL
100
AcDbText
 10
31.72257142857143
 20
2.424857142857146
 30
0.0
 40
0.075
  1
-
  7
ADESK1
 72
     4
 11
31.76899999999999
 21
2.457000000000003
 31
0.0
100
AcDbText
  0
TEXT
  5
F9
330
1E
100
AcDbEntity
  8
LABEL
100
AcDbText
 10
31.88685714285714
 20
2.537357142857146
 30
0.0
 40
0.075
  1
AC/DC
 50
270.0
  7
ADESK1
 72
     4
 11
31.919
 21
2.357000000000003
 31
0.0
100
AcDbText
  0
TEXT
  5
FA
330
1E
100
AcDbEntity
  8
LABEL
100
AcDbText
 10
32.02149999999999
 20
2.46414285714286
 30
0.0
 40
0.075
  1
24V
 50
270.0
  7
ADESK1
 72
     4
 11
32.05899999999999
 21
2.357000000000003
 31
0.0
100
AcDbText
  0
TEXT
  5
FB
330
1E
100
AcDbEntity
  8
LABEL
100
AcDbText
 10
32.2215
 20
2.528428571428574
 30
0.0
 40
0.075
  1
Power
 50
270.0
  7
ADESK1
 72
     4
 11
32.259
 21
2.357000000000003
 31
0.0
100
AcDbText
  0
LINE
  5
FC
330
1E
100
AcDbEntity
  8
LABEL
100
AcDbLine
 10
32.2635
 20
2.587000000000003
 30
0.0
 11
32.2635
 21
2.555999999999999
 31
0.0
  0
LINE
  5
FD
330
1E
100
AcDbEntity
  8
LABEL
100
AcDbLine
 10
32.2635
 20
2.158000000000007
 30
0.0
 11
32.2635
 21
2.127000000000003
 31
0.0
  0
TEXT
  5
FE
330
1E
100
AcDbEntity
  8
LABEL
100
AcDbText
 10
33.21502393460332
 20
4.659317139298528
 30
0.0
 40
0.45
  1
EtherLogic
 50
30.0
  7
BRUSHSCRIPT
 72
     4
 11
34.014
 21
5.237
 31
0.0
100
AcDbText
  0
TEXT
  5
100
330
1E
100
AcDbEntity
  8
LABEL
100
AcDbText
 10
33.07361904761904
 20
4.360333333333333
 30
0.0
 40
0.08
  1
Open Programmable Controller
 51
15.0
  7
ADESK1
 72
     4
 11
34.02599999999999
 21
4.386999999999999
 31
0.0
100
AcDbText
  0
LINE
  5
101
330
1E
100
AcDbEntity
  8
LABEL
100
AcDbLine
 10
31.77
 20
2.777000000000003
 30
0.0
 11
31.77
 21
2.587000000000003
 31
0.0
  0
TEXT
  5
102
330
1E
100
AcDbEntity
  8
LABEL
100
AcDbText
 10
32.12621428571428
 20
2.793500000000002
 30
0.0
 40
0.075
  1
Status
  7
ADESK1
 72
     4
 11
32.30299999999999
 21
2.831000000000003
 31
0.0
100
AcDbText
  0
LINE
  5
103
330
1E
100
AcDbEntity
  8
LABEL
100
AcDbLine
 10
31.99899999999999
 20
2.831000000000003
 30
0.0
 11
32.076
 21
2.831000000000003
 31
0.0
  0
TEXT
  5
104
330
1E
100
AcDbEntity
  8
LABEL
100
AcDbText
 10
31.87285714285714
 20
3.084500000000003
 30
0.0
 40
0.075
  1
Reset
  7
ADESK1
 72
     4
 11
32.03
 21
3.122000000000003
 31
0.0
100
AcDbText
  0
LWPOLYLINE
  5
105
330
1E
100
AcDbEntity
  8
LABEL
100
AcDbPolyline
 90
        2
 70
     1
 43
0.05
 10
31.745
 20
3.122000000000003
 42
1.0
 10
31.79499999999999
 20
3.122000000000003
 42
1.0
  0
CIRCLE
  5
109
330
1E
100
AcDbEntity
  8
LABEL
100
AcDbCircle
 10
31.77
 20
2.831000000000003
 30
0.0
 40
0.0390000000000015
  0
LINE
  5
10A
330
1E
100
AcDbEntity
  8
LABEL
100
AcDbLine
 10
31.714
 20
2.775000000000003
 30
0.0
 11
31.742
 21
2.803000000000002
 31
0.0
  0
LINE
  5
10B
330
1E
100
AcDbEntity
  8
LABEL
100
AcDbLine
 10
31.826
 20
2.887000000000003
 30
0.0
 11
31.798
 21
2.859000000000003
 31
0.0
  0
LINE
  5
10C
330
1E
100
AcDbEntity
  8
LABEL
100
AcDbLine
 10
31.826
 20
2.775000000000003
 30
0.0
 11
31.798
 21
2.803000000000002
 31
0.0
  0
LINE
  5
10D
330
1E
100
AcDbEntity
  8
LABEL
100
AcDbLine
 10
31.714
 20
2.887000000000003
 30
0.0
 11
31.742
 21
2.859000000000003
 31
0.0
  0
LINE
  5
10E
330
1E
100
AcDbEntity
  8
LABEL
100
AcDbLine
 10
32.006
 20
2.775000000000003
 30
0.0
 11
31.97799999999999
 21
2.803000000000002
 31
0.0
  0
CIRCLE
  5
10F
330
1E
100
AcDbEntity
  8
LABEL
100
AcDbCircle
 10
31.95
 20
2.831000000000003
 30
0.0
 40
0.0390000000000015
  0
LINE
  5
110
330
1E
100
AcDbEntity
  8
LABEL
100
AcDbLine
 10
32.006
 20
2.887000000000003
 30
0.0
 11
31.97799999999999
 21
2.859000000000003
 31
0.0
  0
LINE
  5
111
330
1E
100
AcDbEntity
  8
LABEL
100
AcDbLine
 10
31.894
 20
2.887000000000003
 30
0.0
 11
31.922
 21
2.859000000000003
 31
0.0
  0
LINE
  5
112
330
1E
100
AcDbEntity
  8
LABEL
100
AcDbLine
 10
31.894
 20
2.775000000000003
 30
0.0
 11
31.922
 21
2.803000000000002
 31
0.0
  0
LINE
  5
113
330
1E
100
AcDbEntity
  8
LABEL
100
AcDbLine
 10
32.2635
 20
3.357000000000003
 30
0.0
 11
31.6385
 21
3.357000000000003
 31
0.0
  0
LINE
  5
114
330
1E
100
AcDbEntity
  8
LABEL
100
AcDbLine
 10
32.2635
 20
4.617000000000003
 30
0.0
 11
31.6385
 21
4.617000000000003
 31
0.0
  0
TEXT
  5
115
330
1E
100
AcDbEntity
  8
LABEL
100
AcDbText
 10
32.234
 20
4.417357142857146
 30
0.0
 40
0.075
  1
Analog Outputs
 50
270.0
  7
ADESK1
 72
     4
 11
32.259
 21
3.987000000000003
 31
0.0
100
AcDbText
  0
TEXT
  5
116
330
1E
100
AcDbEntity
  8
LABEL
100
AcDbText
 10
31.7225
 20
3.449500000000003
 30
0.0
 40
0.075
  1
C
  7
ADESK1
 72
     4
 11
31.76
 21
3.487000000000003
 31
0.0
100
AcDbText
  0
TEXT
  5
117
330
1E
100
AcDbEntity
  8
LABEL
100
AcDbText
 10
31.7225
 20
3.849500000000002
 30
0.0
 40
0.075
  1
C
  7
ADESK1
 72
     4
 11
31.76
 21
3.887000000000003
 31
0.0
100
AcDbText
  0
TEXT
  5
118
330
1E
100
AcDbEntity
  8
LABEL
100
AcDbText
 10
31.7225
 20
4.249500000000003
 30
0.0
 40
0.075
  1
C
  7
ADESK1
 72
     4
 11
31.76
 21
4.287000000000003
 31
0.0
100
AcDbText
  0
TEXT
  5
119
330
1E
100
AcDbEntity
  8
LABEL
100
AcDbText
 10
31.72428571428571
 20
3.649500000000002
 30
0.0
 40
0.075
  1
3
  7
ADESK1
 72
     4
 11
31.76
 21
3.687000000000002
 31
0.0
100
AcDbText
  0
TEXT
  5
11A
330
1E
100
AcDbEntity
  8
LABEL
100
AcDbText
 10
31.72428571428571
 20
4.049500000000003
 30
0.0
 40
0.075
  1
2
  7
ADESK1
 72
     4
 11
31.76
 21
4.087000000000003
 31
0.0
100
AcDbText
  0
TEXT
  5
11B
330
1E
100
AcDbEntity
  8
LABEL
100
AcDbText
 10
31.72964285714285
 20
4.449500000000004
 30
0.0
 40
0.075
  1
1
  7
ADESK1
 72
     4
 11
31.76
 21
4.487000000000003
 31
0.0
100
AcDbText
  0
LINE
  5
11C
330
1E
100
AcDbEntity
  8
LABEL
100
AcDbLine
 10
32.2635
 20
4.617000000000003
 30
0.0
 11
32.2635
 21
4.456000000000003
 31
0.0
  0
LINE
  5
11D
330
1E
100
AcDbEntity
  8
LABEL
100
AcDbLine
 10
32.2635
 20
3.518000000000002
 30
0.0
 11
32.2635
 21
3.357000000000003
 31
0.0
  0
LINE
  5
11E
330
1E
100
AcDbEntity
  8
LABEL
100
AcDbLine
 10
31.87
 20
4.487000000000003
 30
0.0
 11
31.92899999999999
 21
4.487000000000003
 31
0.0
  0
LINE
  5
11F
330
1E
100
AcDbEntity
  8
LABEL
100
AcDbLine
 10
32.02899999999999
 20
4.552000000000004
 30
0.0
 11
32.02899999999999
 21
4.422000000000003
 31
0.0
  0
LINE
  5
120
330
1E
100
AcDbEntity
  8
LABEL
100
AcDbLine
 10
31.92899999999999
 20
4.487000000000003
 30
0.0
 11
32.02899999999999
 21
4.552000000000004
 31
0.0
  0
LINE
  5
121
330
1E
100
AcDbEntity
  8
LABEL
100
AcDbLine
 10
31.92899999999999
 20
4.487000000000003
 30
0.0
 11
32.02899999999999
 21
4.422000000000003
 31
0.0
  0
LINE
  5
122
330
1E
100
AcDbEntity
  8
LABEL
100
AcDbLine
 10
32.02899999999999
 20
4.487000000000003
 30
0.0
 11
32.11399999999999
 21
4.487000000000003
 31
0.0
  0
LINE
  5
123
330
1E
100
AcDbEntity
  8
LABEL
100
AcDbLine
 10
31.87
 20
4.287000000000003
 30
0.0
 11
31.99404055497088
 21
4.287000000000003
 31
0.0
  0
LINE
  5
124
330
1E
100
AcDbEntity
  8
LABEL
100
AcDbLine
 10
31.99404055497088
 20
4.287000000000003
 30
0.0
 11
31.99404055497088
 21
4.443732956723547
 31
0.0
  0
TEXT
  5
125
330
1E
100
AcDbEntity
  8
LABEL
100
AcDbText
 10
31.86915649657154
 20
4.510940443282724
 30
0.0
 40
0.06
  1
+
  7
ADESK1
 72
     4
 11
31.9062993537144
 21
4.53665472899701
 31
0.0
100
AcDbText
  0
LINE
  5
126
330
1E
100
AcDbEntity
  8
LABEL
100
AcDbLine
 10
31.87
 20
3.887000000000003
 30
0.0
 11
31.99404055497088
 21
3.887000000000003
 31
0.0
  0
LINE
  5
127
330
1E
100
AcDbEntity
  8
LABEL
100
AcDbLine
 10
31.99404055497088
 20
3.887000000000003
 30
0.0
 11
31.99404055497088
 21
4.043732956723546
 31
0.0
  0
LINE
  5
128
330
1E
100
AcDbEntity
  8
LABEL
100
AcDbLine
 10
32.02899999999999
 20
4.087000000000003
 30
0.0
 11
32.11399999999999
 21
4.087000000000003
 31
0.0
  0
LINE
  5
129
330
1E
100
AcDbEntity
  8
LABEL
100
AcDbLine
 10
32.02899999999999
 20
4.152000000000003
 30
0.0
 11
32.02899999999999
 21
4.022000000000002
 31
0.0
  0
LINE
  5
12A
330
1E
100
AcDbEntity
  8
LABEL
100
AcDbLine
 10
31.92899999999999
 20
4.087000000000003
 30
0.0
 11
32.02899999999999
 21
4.022000000000002
 31
0.0
  0
LINE
  5
12B
330
1E
100
AcDbEntity
  8
LABEL
100
AcDbLine
 10
31.92899999999999
 20
4.087000000000003
 30
0.0
 11
32.02899999999999
 21
4.152000000000003
 31
0.0
  0
LINE
  5
12C
330
1E
100
AcDbEntity
  8
LABEL
100
AcDbLine
 10
31.87
 20
4.087000000000003
 30
0.0
 11
31.92899999999999
 21
4.087000000000003
 31
0.0
  0
TEXT
  5
12D
330
1E
100
AcDbEntity
  8
LABEL
100
AcDbText
 10
31.86915649657154
 20
4.110940443282724
 30
0.0
 40
0.06
  1
+
  7
ADESK1
 72
     4
 11
31.9062993537144
 21
4.13665472899701
 31
0.0
100
AcDbText
  0
LINE
  5
12E
330
1E
100
AcDbEntity
  8
LABEL
100
AcDbLine
 10
31.87
 20
3.487000000000003
 30
0.0
 11
31.99404055497088
 21
3.487000000000003
 31
0.0
  0
LINE
  5
12F
330
1E
100
AcDbEntity
  8
LABEL
100
AcDbLine
 10
31.99404055497088
 20
3.487000000000003
 30
0.0
 11
31.99404055497088
 21
3.643732956723547
 31
0.0
  0
LINE
  5
130
330
1E
100
AcDbEntity
  8
LABEL
100
AcDbLine
 10
32.02899999999999
 20
3.752000000000004
 30
0.0
 11
32.02899999999999
 21
3.622000000000003
 31
0.0
  0
LINE
  5
131
330
1E
100
AcDbEntity
  8
LABEL
100
AcDbLine
 10
32.02899999999999
 20
3.687000000000003
 30
0.0
 11
32.11399999999999
 21
3.687000000000003
 31
0.0
  0
LINE
  5
132
330
1E
100
AcDbEntity
  8
LABEL
100
AcDbLine
 10
31.92899999999999
 20
3.687000000000003
 30
0.0
 11
32.02899999999999
 21
3.622000000000003
 31
0.0
  0
LINE
  5
133
330
1E
100
AcDbEntity
  8
LABEL
100
AcDbLine
 10
31.92899999999999
 20
3.687000000000003
 30
0.0
 11
32.02899999999999
 21
3.752000000000004
 31
0.0
  0
LINE
  5
134
330
1E
100
AcDbEntity
  8
LABEL
100
AcDbLine
 10
31.87
 20
3.687000000000003
 30
0.0
 11
31.92899999999999
 21
3.687000000000003
 31
0.0
  0
TEXT
  5
135
330
1E
100
AcDbEntity
  8
LABEL
100
AcDbText
 10
31.86915649657154
 20
3.710940443282725
 30
0.0
 40
0.06
  1
+
  7
ADESK1
 72
     4
 11
31.9062993537144
 21
3.73665472899701
 31
0.0
100
AcDbText
  0
LINE
  5
136
330
1E
100
AcDbEntity
  8
LABEL
100
AcDbLine
 10
32.2635
 20
4.707000000000004
 30
0.0
 11
31.6385
 21
4.707000000000004
 31
0.0
  0
LINE
  5
137
330
1E
100
AcDbEntity
  8
LABEL
100
AcDbLine
 10
32.2635
 20
8.367000000000004
 30
0.0
 11
31.6385
 21
8.367000000000004
 31
0.0
  0
TEXT
  5
138
330
1E
100
AcDbEntity
  8
LABEL
100
AcDbText
 10
32.22685714285714
 20
7.472714285714289
 30
0.0
 40
0.075
  1
Universal (Analog/Digital) Inputs
 50
270.0
  7
ADESK1
 72
     4
 11
32.259
 21
6.537000000000004
 31
0.0
100
AcDbText
  0
TEXT
  5
139
330
1E
100
AcDbEntity
  8
LABEL
100
AcDbText
 10
31.67607142857142
 20
4.799500000000004
 30
0.0
 40
0.075
  1
+V
  7
ADESK1
 72
     4
 11
31.76
 21
4.837000000000004
 31
0.0
100
AcDbText
  0
TEXT
  5
13A
330
1E
100
AcDbEntity
  8
LABEL
100
AcDbText
 10
31.67607142857142
 20
4.999500000000003
 30
0.0
 40
0.075
  1
+V
  7
ADESK1
 72
     4
 11
31.76
 21
5.037000000000003
 31
0.0
100
AcDbText
  0
TEXT
  5
13B
330
1E
100
AcDbEntity
  8
LABEL
100
AcDbText
 10
31.72428571428571
 20
5.399500000000005
 30
0.0
 40
0.075
  1
8
  7
ADESK1
 72
     4
 11
31.76
 21
5.437000000000004
 31
0.0
100
AcDbText
  0
TEXT
  5
13C
330
1E
100
AcDbEntity
  8
LABEL
100
AcDbText
 10
31.7225
 20
5.199500000000003
 30
0.0
 40
0.075
  1
C
  7
ADESK1
 72
     4
 11
31.76
 21
5.237000000000002
 31
0.0
100
AcDbText
  0
TEXT
  5
13D
330
1E
100
AcDbEntity
  8
LABEL
100
AcDbText
 10
31.7225
 20
5.999500000000004
 30
0.0
 40
0.075
  1
C
  7
ADESK1
 72
     4
 11
31.76
 21
6.037000000000004
 31
0.0
100
AcDbText
  0
TEXT
  5
13E
330
1E
100
AcDbEntity
  8
LABEL
100
AcDbText
 10
31.7225
 20
6.199500000000004
 30
0.0
 40
0.075
  1
6
  7
ADESK1
 72
     4
 11
31.76
 21
6.237000000000003
 31
0.0
100
AcDbText
  0
TEXT
  5
13F
330
1E
100
AcDbEntity
  8
LABEL
100
AcDbText
 10
31.72428571428571
 20
5.799500000000003
 30
0.0
 40
0.075
  1
7
  7
ADESK1
 72
     4
 11
31.76
 21
5.837000000000003
 31
0.0
100
AcDbText
  0
TEXT
  5
140
330
1E
100
AcDbEntity
  8
LABEL
100
AcDbText
 10
31.7225
 20
5.599500000000004
 30
0.0
 40
0.075
  1
C
  7
ADESK1
 72
     4
 11
31.76
 21
5.637000000000004
 31
0.0
100
AcDbText
  0
TEXT
  5
141
330
1E
100
AcDbEntity
  8
LABEL
100
AcDbText
 10
31.7225
 20
6.399500000000003
 30
0.0
 40
0.075
  1
C
  7
ADESK1
 72
     4
 11
31.76
 21
6.437000000000002
 31
0.0
100
AcDbText
  0
TEXT
  5
142
330
1E
100
AcDbEntity
  8
LABEL
100
AcDbText
 10
31.72428571428571
 20
6.599500000000004
 30
0.0
 40
0.075
  1
5
  7
ADESK1
 72
     4
 11
31.76
 21
6.637000000000004
 31
0.0
100
AcDbText
  0
TEXT
  5
143
330
1E
100
AcDbEntity
  8
LABEL
100
AcDbText
 10
31.7225
 20
6.799500000000004
 30
0.0
 40
0.075
  1
C
  7
ADESK1
 72
     4
 11
31.76
 21
6.837000000000004
 31
0.0
100
AcDbText
  0
TEXT
  5
144
330
1E
100
AcDbEntity
  8
LABEL
100
AcDbText
 10
31.7225
 20
6.999500000000003
 30
0.0
 40
0.075
  1
4
  7
ADESK1
 72
     4
 11
31.76
 21
7.037000000000003
 31
0.0
100
AcDbText
  0
TEXT
  5
145
330
1E
100
AcDbEntity
  8
LABEL
100
AcDbText
 10
31.7225
 20
7.199500000000004
 30
0.0
 40
0.075
  1
C
  7
ADESK1
 72
     4
 11
31.76
 21
7.237000000000004
 31
0.0
100
AcDbText
  0
TEXT
  5
146
330
1E
100
AcDbEntity
  8
LABEL
100
AcDbText
 10
31.72428571428571
 20
7.399500000000003
 30
0.0
 40
0.075
  1
3
  7
ADESK1
 72
     4
 11
31.76
 21
7.437000000000002
 31
0.0
100
AcDbText
  0
TEXT
  5
147
330
1E
100
AcDbEntity
  8
LABEL
100
AcDbText
 10
31.7225
 20
7.599500000000004
 30
0.0
 40
0.075
  1
C
  7
ADESK1
 72
     4
 11
31.76
 21
7.637000000000004
 31
0.0
100
AcDbText
  0
TEXT
  5
148
330
1E
100
AcDbEntity
  8
LABEL
100
AcDbText
 10
31.72428571428571
 20
7.799500000000003
 30
0.0
 40
0.075
  1
2
  7
ADESK1
 72
     4
 11
31.76
 21
7.837000000000003
 31
0.0
100
AcDbText
  0
TEXT
  5
149
330
1E
100
AcDbEntity
  8
LABEL
100
AcDbText
 10
31.7225
 20
7.999500000000004
 30
0.0
 40
0.075
  1
C
  7
ADESK1
 72
     4
 11
31.76
 21
8.037000000000004
 31
0.0
100
AcDbText
  0
TEXT
  5
14A
330
1E
100
AcDbEntity
  8
LABEL
100
AcDbText
 10
31.72964285714285
 20
8.199500000000004
 30
0.0
 40
0.075
  1
1
  7
ADESK1
 72
     4
 11
31.76
 21
8.237000000000003
 31
0.0
100
AcDbText
  0
LINE
  5
14B
330
1E
100
AcDbEntity
  8
LABEL
100
AcDbLine
 10
32.2635
 20
8.367000000000004
 30
0.0
 11
32.2635
 21
7.550000000000003
 31
0.0
  0
LINE
  5
14C
330
1E
100
AcDbEntity
  8
LABEL
100
AcDbLine
 10
32.2635
 20
4.707000000000004
 30
0.0
 11
32.2635
 21
5.532000000000003
 31
0.0
  0
LINE
  5
14D
330
1E
100
AcDbEntity
  8
LABEL
100
AcDbLine
 10
31.9035
 20
8.237000000000003
 30
0.0
 11
31.85849999999999
 21
8.237000000000003
 31
0.0
  0
LINE
  5
14E
330
1E
100
AcDbEntity
  8
LABEL
100
AcDbLine
 10
31.9035
 20
8.037000000000004
 30
0.0
 11
31.85849999999999
 21
8.037000000000004
 31
0.0
  0
LINE
  5
14F
330
1E
100
AcDbEntity
  8
LABEL
100
AcDbLine
 10
31.86949999999999
 20
8.096000000000001
 30
0.0
 11
31.9035
 21
8.085000000000002
 31
0.0
  0
LINE
  5
150
330
1E
100
AcDbEntity
  8
LABEL
100
AcDbLine
 10
31.91949999999999
 20
8.111500000000001
 30
0.0
 11
31.86949999999999
 21
8.096000000000001
 31
0.0
  0
LINE
  5
151
330
1E
100
AcDbEntity
  8
LABEL
100
AcDbLine
 10
31.86949999999999
 20
8.127
 30
0.0
 11
31.91949999999999
 21
8.111500000000001
 31
0.0
  0
LINE
  5
152
330
1E
100
AcDbEntity
  8
LABEL
100
AcDbLine
 10
31.91949999999999
 20
8.1425
 30
0.0
 11
31.86949999999999
 21
8.127
 31
0.0
  0
LINE
  5
153
330
1E
100
AcDbEntity
  8
LABEL
100
AcDbLine
 10
31.9035
 20
8.037000000000004
 30
0.0
 11
31.9035
 21
8.085000000000002
 31
0.0
  0
LINE
  5
154
330
1E
100
AcDbEntity
  8
LABEL
100
AcDbLine
 10
31.86949999999999
 20
8.157999999999999
 30
0.0
 11
31.91949999999999
 21
8.1425
 31
0.0
  0
LINE
  5
155
330
1E
100
AcDbEntity
  8
LABEL
100
AcDbLine
 10
31.91949999999999
 20
8.173499999999998
 30
0.0
 11
31.86949999999999
 21
8.157999999999999
 31
0.0
  0
LINE
  5
156
330
1E
100
AcDbEntity
  8
LABEL
100
AcDbLine
 10
31.86949999999999
 20
8.188999999999998
 30
0.0
 11
31.91949999999999
 21
8.173499999999998
 31
0.0
  0
LINE
  5
157
330
1E
100
AcDbEntity
  8
LABEL
100
AcDbLine
 10
31.9035
 20
8.200000000000002
 30
0.0
 11
31.86949999999999
 21
8.188999999999998
 31
0.0
  0
LINE
  5
158
330
1E
100
AcDbEntity
  8
LABEL
100
AcDbLine
 10
31.9035
 20
8.237000000000003
 30
0.0
 11
31.9035
 21
8.200000000000002
 31
0.0
  0
LINE
  5
159
330
1E
100
AcDbEntity
  8
LABEL
100
AcDbLine
 10
31.99849999999999
 20
8.237000000000003
 30
0.0
 11
31.95349999999999
 21
8.237000000000003
 31
0.0
  0
LINE
  5
15A
330
1E
100
AcDbEntity
  8
LABEL
100
AcDbLine
 10
31.99849999999999
 20
8.037000000000004
 30
0.0
 11
31.95349999999999
 21
8.037000000000004
 31
0.0
  0
LINE
  5
15B
330
1E
100
AcDbEntity
  8
LABEL
100
AcDbLine
 10
31.99849999999999
 20
8.237000000000003
 30
0.0
 11
31.99849999999999
 21
8.174000000000004
 31
0.0
  0
LINE
  5
15C
330
1E
100
AcDbEntity
  8
LABEL
100
AcDbLine
 10
31.99849999999999
 20
8.037000000000004
 30
0.0
 11
31.99849999999999
 21
8.111000000000004
 31
0.0
  0
LINE
  5
15D
330
1E
100
AcDbEntity
  8
LABEL
100
AcDbLine
 10
31.97224999999999
 20
8.111000000000004
 30
0.0
 11
32.02474999999999
 21
8.111000000000004
 31
0.0
  0
LINE
  5
15E
330
1E
100
AcDbEntity
  8
LABEL
100
AcDbLine
 10
31.97224999999999
 20
8.174000000000004
 30
0.0
 11
32.02474999999999
 21
8.174000000000004
 31
0.0
  0
LINE
  5
15F
330
1E
100
AcDbEntity
  8
LABEL
100
AcDbLine
 10
32.02474999999999
 20
8.174000000000004
 30
0.0
 11
32.02474999999999
 21
8.111000000000004
 31
0.0
  0
LINE
  5
160
330
1E
100
AcDbEntity
  8
LABEL
100
AcDbLine
 10
31.97224999999999
 20
8.174000000000004
 30
0.0
 11
31.97224999999999
 21
8.111000000000004
 31
0.0
  0
TEXT
  5
161
330
1E
100
AcDbEntity
  8
LABEL
100
AcDbText
 10
32.0050238095238
 20
8.192285714285718
 30
0.0
 40
0.025
  1
+
  7
ADESK1
 72
     4
 11
32.02049999999999
 21
8.203000000000004
 31
0.0
100
AcDbText
  0
LINE
  5
162
330
1E
100
AcDbEntity
  8
LABEL
100
AcDbLine
 10
32.09149999999999
 20
8.037000000000004
 30
0.0
 11
32.04649999999999
 21
8.037000000000004
 31
0.0
  0
LINE
  5
163
330
1E
100
AcDbEntity
  8
LABEL
100
AcDbLine
 10
32.09149999999999
 20
8.037000000000004
 30
0.0
 11
32.09149999999999
 21
8.127000000000004
 31
0.0
  0
LINE
  5
164
330
1E
100
AcDbEntity
  8
LABEL
100
AcDbLine
 10
32.06525
 20
8.127000000000004
 30
0.0
 11
32.11775
 21
8.127000000000004
 31
0.0
  0
LINE
  5
165
330
1E
100
AcDbEntity
  8
LABEL
100
AcDbLine
 10
32.06525
 20
8.157000000000003
 30
0.0
 11
32.11775
 21
8.157000000000003
 31
0.0
  0
LINE
  5
166
330
1E
100
AcDbEntity
  8
LABEL
100
AcDbLine
 10
32.09149999999999
 20
8.237000000000003
 30
0.0
 11
32.09149999999999
 21
8.157000000000003
 31
0.0
  0
LINE
  5
167
330
1E
100
AcDbEntity
  8
LABEL
100
AcDbLine
 10
32.09149999999999
 20
8.237000000000003
 30
0.0
 11
32.04649999999999
 21
8.237000000000003
 31
0.0
  0
LINE
  5
168
330
1E
100
AcDbEntity
  8
LABEL
100
AcDbLine
 10
32.06525
 20
7.757000000000003
 30
0.0
 11
32.11775
 21
7.757000000000003
 31
0.0
  0
LINE
  5
169
330
1E
100
AcDbEntity
  8
LABEL
100
AcDbLine
 10
32.06525
 20
7.727000000000003
 30
0.0
 11
32.11775
 21
7.727000000000003
 31
0.0
  0
LINE
  5
16A
330
1E
100
AcDbEntity
  8
LABEL
100
AcDbLine
 10
32.09149999999999
 20
7.837000000000003
 30
0.0
 11
32.09149999999999
 21
7.757000000000003
 31
0.0
  0
LINE
  5
16B
330
1E
100
AcDbEntity
  8
LABEL
100
AcDbLine
 10
32.09149999999999
 20
7.637000000000004
 30
0.0
 11
32.09149999999999
 21
7.727000000000003
 31
0.0
  0
LINE
  5
16C
330
1E
100
AcDbEntity
  8
LABEL
100
AcDbLine
 10
32.09149999999999
 20
7.837000000000003
 30
0.0
 11
32.04649999999999
 21
7.837000000000003
 31
0.0
  0
LINE
  5
16D
330
1E
100
AcDbEntity
  8
LABEL
100
AcDbLine
 10
32.09149999999999
 20
7.637000000000004
 30
0.0
 11
32.04649999999999
 21
7.637000000000004
 31
0.0
  0
TEXT
  5
16E
330
1E
100
AcDbEntity
  8
LABEL
100
AcDbText
 10
32.0050238095238
 20
7.792285714285718
 30
0.0
 40
0.025
  1
+
  7
ADESK1
 72
     4
 11
32.02049999999999
 21
7.803000000000004
 31
0.0
100
AcDbText
  0
LINE
  5
16F
330
1E
100
AcDbEntity
  8
LABEL
100
AcDbLine
 10
31.97224999999999
 20
7.774000000000004
 30
0.0
 11
31.97224999999999
 21
7.711000000000003
 31
0.0
  0
LINE
  5
170
330
1E
100
AcDbEntity
  8
LABEL
100
AcDbLine
 10
32.02474999999999
 20
7.774000000000004
 30
0.0
 11
32.02474999999999
 21
7.711000000000003
 31
0.0
  0
LINE
  5
171
330
1E
100
AcDbEntity
  8
LABEL
100
AcDbLine
 10
31.97224999999999
 20
7.774000000000004
 30
0.0
 11
32.02474999999999
 21
7.774000000000004
 31
0.0
  0
LINE
  5
172
330
1E
100
AcDbEntity
  8
LABEL
100
AcDbLine
 10
31.97224999999999
 20
7.711000000000003
 30
0.0
 11
32.02474999999999
 21
7.711000000000003
 31
0.0
  0
LINE
  5
173
330
1E
100
AcDbEntity
  8
LABEL
100
AcDbLine
 10
31.99849999999999
 20
7.637000000000004
 30
0.0
 11
31.99849999999999
 21
7.711000000000003
 31
0.0
  0
LINE
  5
174
330
1E
100
AcDbEntity
  8
LABEL
100
AcDbLine
 10
31.99849999999999
 20
7.837000000000003
 30
0.0
 11
31.99849999999999
 21
7.774000000000004
 31
0.0
  0
LINE
  5
175
330
1E
100
AcDbEntity
  8
LABEL
100
AcDbLine
 10
31.99849999999999
 20
7.837000000000003
 30
0.0
 11
31.95349999999999
 21
7.837000000000003
 31
0.0
  0
LINE
  5
176
330
1E
100
AcDbEntity
  8
LABEL
100
AcDbLine
 10
31.99849999999999
 20
7.637000000000004
 30
0.0
 11
31.95349999999999
 21
7.637000000000004
 31
0.0
  0
LINE
  5
177
330
1E
100
AcDbEntity
  8
LABEL
100
AcDbLine
 10
31.9035
 20
7.800000000000002
 30
0.0
 11
31.86949999999999
 21
7.788999999999997
 31
0.0
  0
LINE
  5
178
330
1E
100
AcDbEntity
  8
LABEL
100
AcDbLine
 10
31.9035
 20
7.837000000000003
 30
0.0
 11
31.9035
 21
7.800000000000002
 31
0.0
  0
LINE
  5
179
330
1E
100
AcDbEntity
  8
LABEL
100
AcDbLine
 10
31.9035
 20
7.637000000000004
 30
0.0
 11
31.9035
 21
7.685000000000002
 31
0.0
  0
LINE
  5
17A
330
1E
100
AcDbEntity
  8
LABEL
100
AcDbLine
 10
31.91949999999999
 20
7.7115
 30
0.0
 11
31.86949999999999
 21
7.696000000000001
 31
0.0
  0
LINE
  5
17B
330
1E
100
AcDbEntity
  8
LABEL
100
AcDbLine
 10
31.86949999999999
 20
7.727
 30
0.0
 11
31.91949999999999
 21
7.7115
 31
0.0
  0
LINE
  5
17C
330
1E
100
AcDbEntity
  8
LABEL
100
AcDbLine
 10
31.91949999999999
 20
7.742499999999999
 30
0.0
 11
31.86949999999999
 21
7.727
 31
0.0
  0
LINE
  5
17D
330
1E
100
AcDbEntity
  8
LABEL
100
AcDbLine
 10
31.86949999999999
 20
7.696000000000001
 30
0.0
 11
31.9035
 21
7.685000000000002
 31
0.0
  0
LINE
  5
17E
330
1E
100
AcDbEntity
  8
LABEL
100
AcDbLine
 10
31.86949999999999
 20
7.757999999999999
 30
0.0
 11
31.91949999999999
 21
7.742499999999999
 31
0.0
  0
LINE
  5
17F
330
1E
100
AcDbEntity
  8
LABEL
100
AcDbLine
 10
31.91949999999999
 20
7.773499999999998
 30
0.0
 11
31.86949999999999
 21
7.757999999999999
 31
0.0
  0
LINE
  5
180
330
1E
100
AcDbEntity
  8
LABEL
100
AcDbLine
 10
31.86949999999999
 20
7.788999999999997
 30
0.0
 11
31.91949999999999
 21
7.773499999999998
 31
0.0
  0
LINE
  5
181
330
1E
100
AcDbEntity
  8
LABEL
100
AcDbLine
 10
31.9035
 20
7.637000000000004
 30
0.0
 11
31.85849999999999
 21
7.637000000000004
 31
0.0
  0
LINE
  5
182
330
1E
100
AcDbEntity
  8
LABEL
100
AcDbLine
 10
31.9035
 20
7.837000000000003
 30
0.0
 11
31.85849999999999
 21
7.837000000000003
 31
0.0
  0
LINE
  5
183
330
1E
100
AcDbEntity
  8
LABEL
100
AcDbLine
 10
32.06525
 20
6.927000000000004
 30
0.0
 11
32.11775
 21
6.927000000000004
 31
0.0
  0
LINE
  5
184
330
1E
100
AcDbEntity
  8
LABEL
100
AcDbLine
 10
32.06525
 20
6.957000000000003
 30
0.0
 11
32.11775
 21
6.957000000000003
 31
0.0
  0
LINE
  5
185
330
1E
100
AcDbEntity
  8
LABEL
100
AcDbLine
 10
32.06525
 20
7.357000000000003
 30
0.0
 11
32.11775
 21
7.357000000000003
 31
0.0
  0
LINE
  5
186
330
1E
100
AcDbEntity
  8
LABEL
100
AcDbLine
 10
32.06525
 20
7.327000000000004
 30
0.0
 11
32.11775
 21
7.327000000000004
 31
0.0
  0
LINE
  5
187
330
1E
100
AcDbEntity
  8
LABEL
100
AcDbLine
 10
31.9035
 20
7.037000000000003
 30
0.0
 11
31.85849999999999
 21
7.037000000000003
 31
0.0
  0
LINE
  5
188
330
1E
100
AcDbEntity
  8
LABEL
100
AcDbLine
 10
31.9035
 20
6.837000000000004
 30
0.0
 11
31.85849999999999
 21
6.837000000000004
 31
0.0
  0
LINE
  5
189
330
1E
100
AcDbEntity
  8
LABEL
100
AcDbLine
 10
31.86949999999999
 20
6.988999999999998
 30
0.0
 11
31.91949999999999
 21
6.973499999999998
 31
0.0
  0
LINE
  5
18A
330
1E
100
AcDbEntity
  8
LABEL
100
AcDbLine
 10
31.91949999999999
 20
6.973499999999998
 30
0.0
 11
31.86949999999999
 21
6.957999999999999
 31
0.0
  0
LINE
  5
18B
330
1E
100
AcDbEntity
  8
LABEL
100
AcDbLine
 10
31.86949999999999
 20
6.957999999999999
 30
0.0
 11
31.91949999999999
 21
6.942499999999999
 31
0.0
  0
LINE
  5
18C
330
1E
100
AcDbEntity
  8
LABEL
100
AcDbLine
 10
31.86949999999999
 20
6.896000000000001
 30
0.0
 11
31.9035
 21
6.885000000000002
 31
0.0
  0
LINE
  5
18D
330
1E
100
AcDbEntity
  8
LABEL
100
AcDbLine
 10
31.91949999999999
 20
6.942499999999999
 30
0.0
 11
31.86949999999999
 21
6.927
 31
0.0
  0
LINE
  5
18E
330
1E
100
AcDbEntity
  8
LABEL
100
AcDbLine
 10
31.86949999999999
 20
6.927
 30
0.0
 11
31.91949999999999
 21
6.911500000000001
 31
0.0
  0
LINE
  5
18F
330
1E
100
AcDbEntity
  8
LABEL
100
AcDbLine
 10
31.91949999999999
 20
6.911500000000001
 30
0.0
 11
31.86949999999999
 21
6.896000000000001
 31
0.0
  0
LINE
  5
190
330
1E
100
AcDbEntity
  8
LABEL
100
AcDbLine
 10
31.9035
 20
6.837000000000004
 30
0.0
 11
31.9035
 21
6.885000000000002
 31
0.0
  0
LINE
  5
191
330
1E
100
AcDbEntity
  8
LABEL
100
AcDbLine
 10
31.9035
 20
7.037000000000003
 30
0.0
 11
31.9035
 21
7.000000000000002
 31
0.0
  0
LINE
  5
192
330
1E
100
AcDbEntity
  8
LABEL
100
AcDbLine
 10
31.9035
 20
7.000000000000002
 30
0.0
 11
31.86949999999999
 21
6.988999999999998
 31
0.0
  0
LINE
  5
193
330
1E
100
AcDbEntity
  8
LABEL
100
AcDbLine
 10
31.99849999999999
 20
6.837000000000004
 30
0.0
 11
31.95349999999999
 21
6.837000000000004
 31
0.0
  0
LINE
  5
194
330
1E
100
AcDbEntity
  8
LABEL
100
AcDbLine
 10
31.99849999999999
 20
7.037000000000003
 30
0.0
 11
31.95349999999999
 21
7.037000000000003
 31
0.0
  0
LINE
  5
195
330
1E
100
AcDbEntity
  8
LABEL
100
AcDbLine
 10
31.99849999999999
 20
7.037000000000003
 30
0.0
 11
31.99849999999999
 21
6.974000000000004
 31
0.0
  0
LINE
  5
196
330
1E
100
AcDbEntity
  8
LABEL
100
AcDbLine
 10
31.99849999999999
 20
6.837000000000004
 30
0.0
 11
31.99849999999999
 21
6.911000000000004
 31
0.0
  0
LINE
  5
197
330
1E
100
AcDbEntity
  8
LABEL
100
AcDbLine
 10
31.97224999999999
 20
6.911000000000004
 30
0.0
 11
32.02474999999999
 21
6.911000000000004
 31
0.0
  0
LINE
  5
198
330
1E
100
AcDbEntity
  8
LABEL
100
AcDbLine
 10
31.97224999999999
 20
6.974000000000004
 30
0.0
 11
32.02474999999999
 21
6.974000000000004
 31
0.0
  0
LINE
  5
199
330
1E
100
AcDbEntity
  8
LABEL
100
AcDbLine
 10
32.02474999999999
 20
6.974000000000004
 30
0.0
 11
32.02474999999999
 21
6.911000000000004
 31
0.0
  0
LINE
  5
19A
330
1E
100
AcDbEntity
  8
LABEL
100
AcDbLine
 10
31.97224999999999
 20
6.974000000000004
 30
0.0
 11
31.97224999999999
 21
6.911000000000004
 31
0.0
  0
TEXT
  5
19B
330
1E
100
AcDbEntity
  8
LABEL
100
AcDbText
 10
32.0050238095238
 20
6.992285714285718
 30
0.0
 40
0.025
  1
+
  7
ADESK1
 72
     4
 11
32.02049999999999
 21
7.003000000000004
 31
0.0
100
AcDbText
  0
LINE
  5
19C
330
1E
100
AcDbEntity
  8
LABEL
100
AcDbLine
 10
32.09149999999999
 20
6.837000000000004
 30
0.0
 11
32.04649999999999
 21
6.837000000000004
 31
0.0
  0
LINE
  5
19D
330
1E
100
AcDbEntity
  8
LABEL
100
AcDbLine
 10
32.09149999999999
 20
7.037000000000003
 30
0.0
 11
32.04649999999999
 21
7.037000000000003
 31
0.0
  0
LINE
  5
19E
330
1E
100
AcDbEntity
  8
LABEL
100
AcDbLine
 10
32.09149999999999
 20
6.837000000000004
 30
0.0
 11
32.09149999999999
 21
6.927000000000004
 31
0.0
  0
LINE
  5
19F
330
1E
100
AcDbEntity
  8
LABEL
100
AcDbLine
 10
32.09149999999999
 20
7.037000000000003
 30
0.0
 11
32.09149999999999
 21
6.957000000000003
 31
0.0
  0
LINE
  5
1A0
330
1E
100
AcDbEntity
  8
LABEL
100
AcDbLine
 10
32.09149999999999
 20
7.437000000000003
 30
0.0
 11
32.09149999999999
 21
7.357000000000003
 31
0.0
  0
LINE
  5
1A1
330
1E
100
AcDbEntity
  8
LABEL
100
AcDbLine
 10
32.09149999999999
 20
7.237000000000004
 30
0.0
 11
32.09149999999999
 21
7.327000000000004
 31
0.0
  0
LINE
  5
1A2
330
1E
100
AcDbEntity
  8
LABEL
100
AcDbLine
 10
32.09149999999999
 20
7.437000000000003
 30
0.0
 11
32.04649999999999
 21
7.437000000000003
 31
0.0
  0
LINE
  5
1A3
330
1E
100
AcDbEntity
  8
LABEL
100
AcDbLine
 10
32.09149999999999
 20
7.237000000000004
 30
0.0
 11
32.04649999999999
 21
7.237000000000004
 31
0.0
  0
TEXT
  5
1A4
330
1E
100
AcDbEntity
  8
LABEL
100
AcDbText
 10
32.0050238095238
 20
7.392285714285718
 30
0.0
 40
0.025
  1
+
  7
ADESK1
 72
     4
 11
32.02049999999999
 21
7.403000000000004
 31
0.0
100
AcDbText
  0
LINE
  5
1A5
330
1E
100
AcDbEntity
  8
LABEL
100
AcDbLine
 10
31.97224999999999
 20
7.374000000000004
 30
0.0
 11
31.97224999999999
 21
7.311000000000004
 31
0.0
  0
LINE
  5
1A6
330
1E
100
AcDbEntity
  8
LABEL
100
AcDbLine
 10
32.02474999999999
 20
7.374000000000004
 30
0.0
 11
32.02474999999999
 21
7.311000000000004
 31
0.0
  0
LINE
  5
1A7
330
1E
100
AcDbEntity
  8
LABEL
100
AcDbLine
 10
31.97224999999999
 20
7.374000000000004
 30
0.0
 11
32.02474999999999
 21
7.374000000000004
 31
0.0
  0
LINE
  5
1A8
330
1E
100
AcDbEntity
  8
LABEL
100
AcDbLine
 10
31.97224999999999
 20
7.311000000000004
 30
0.0
 11
32.02474999999999
 21
7.311000000000004
 31
0.0
  0
LINE
  5
1A9
330
1E
100
AcDbEntity
  8
LABEL
100
AcDbLine
 10
31.99849999999999
 20
7.237000000000004
 30
0.0
 11
31.99849999999999
 21
7.311000000000004
 31
0.0
  0
LINE
  5
1AA
330
1E
100
AcDbEntity
  8
LABEL
100
AcDbLine
 10
31.99849999999999
 20
7.437000000000003
 30
0.0
 11
31.99849999999999
 21
7.374000000000004
 31
0.0
  0
LINE
  5
1AB
330
1E
100
AcDbEntity
  8
LABEL
100
AcDbLine
 10
31.99849999999999
 20
7.437000000000003
 30
0.0
 11
31.95349999999999
 21
7.437000000000003
 31
0.0
  0
LINE
  5
1AC
330
1E
100
AcDbEntity
  8
LABEL
100
AcDbLine
 10
31.99849999999999
 20
7.237000000000004
 30
0.0
 11
31.95349999999999
 21
7.237000000000004
 31
0.0
  0
LINE
  5
1AD
330
1E
100
AcDbEntity
  8
LABEL
100
AcDbLine
 10
31.9035
 20
7.400000000000003
 30
0.0
 11
31.86949999999999
 21
7.388999999999998
 31
0.0
  0
LINE
  5
1AE
330
1E
100
AcDbEntity
  8
LABEL
100
AcDbLine
 10
31.9035
 20
7.437000000000003
 30
0.0
 11
31.9035
 21
7.400000000000003
 31
0.0
  0
LINE
  5
1AF
330
1E
100
AcDbEntity
  8
LABEL
100
AcDbLine
 10
31.9035
 20
7.237000000000004
 30
0.0
 11
31.9035
 21
7.285000000000002
 31
0.0
  0
LINE
  5
1B0
330
1E
100
AcDbEntity
  8
LABEL
100
AcDbLine
 10
31.91949999999999
 20
7.311500000000001
 30
0.0
 11
31.86949999999999
 21
7.296000000000002
 31
0.0
  0
LINE
  5
1B1
330
1E
100
AcDbEntity
  8
LABEL
100
AcDbLine
 10
31.86949999999999
 20
7.327
 30
0.0
 11
31.91949999999999
 21
7.311500000000001
 31
0.0
  0
LINE
  5
1B2
330
1E
100
AcDbEntity
  8
LABEL
100
AcDbLine
 10
31.91949999999999
 20
7.3425
 30
0.0
 11
31.86949999999999
 21
7.327
 31
0.0
  0
LINE
  5
1B3
330
1E
100
AcDbEntity
  8
LABEL
100
AcDbLine
 10
31.86949999999999
 20
7.296000000000002
 30
0.0
 11
31.9035
 21
7.285000000000002
 31
0.0
  0
LINE
  5
1B4
330
1E
100
AcDbEntity
  8
LABEL
100
AcDbLine
 10
31.86949999999999
 20
7.357999999999999
 30
0.0
 11
31.91949999999999
 21
7.3425
 31
0.0
  0
LINE
  5
1B5
330
1E
100
AcDbEntity
  8
LABEL
100
AcDbLine
 10
31.91949999999999
 20
7.373499999999999
 30
0.0
 11
31.86949999999999
 21
7.357999999999999
 31
0.0
  0
LINE
  5
1B6
330
1E
100
AcDbEntity
  8
LABEL
100
AcDbLine
 10
31.86949999999999
 20
7.388999999999998
 30
0.0
 11
31.91949999999999
 21
7.373499999999999
 31
0.0
  0
LINE
  5
1B7
330
1E
100
AcDbEntity
  8
LABEL
100
AcDbLine
 10
31.9035
 20
7.237000000000004
 30
0.0
 11
31.85849999999999
 21
7.237000000000004
 31
0.0
  0
LINE
  5
1B8
330
1E
100
AcDbEntity
  8
LABEL
100
AcDbLine
 10
31.9035
 20
7.437000000000003
 30
0.0
 11
31.85849999999999
 21
7.437000000000003
 31
0.0
  0
LINE
  5
1B9
330
1E
100
AcDbEntity
  8
LABEL
100
AcDbLine
 10
32.06525
 20
5.727000000000004
 30
0.0
 11
32.11775
 21
5.727000000000004
 31
0.0
  0
LINE
  5
1BA
330
1E
100
AcDbEntity
  8
LABEL
100
AcDbLine
 10
32.06525
 20
5.757000000000004
 30
0.0
 11
32.11775
 21
5.757000000000004
 31
0.0
  0
LINE
  5
1BB
330
1E
100
AcDbEntity
  8
LABEL
100
AcDbLine
 10
32.06525
 20
5.357000000000003
 30
0.0
 11
32.11775
 21
5.357000000000003
 31
0.0
  0
LINE
  5
1BC
330
1E
100
AcDbEntity
  8
LABEL
100
AcDbLine
 10
32.06525
 20
5.327000000000004
 30
0.0
 11
32.11775
 21
5.327000000000004
 31
0.0
  0
LINE
  5
1BD
330
1E
100
AcDbEntity
  8
LABEL
100
AcDbLine
 10
32.09149999999999
 20
5.437000000000003
 30
0.0
 11
32.09149999999999
 21
5.357000000000003
 31
0.0
  0
TEXT
  5
1BE
330
1E
100
AcDbEntity
  8
LABEL
100
AcDbText
 10
32.0050238095238
 20
5.392285714285718
 30
0.0
 40
0.025
  1
+
  7
ADESK1
 72
     4
 11
32.02049999999999
 21
5.403000000000004
 31
0.0
100
AcDbText
  0
LINE
  5
1BF
330
1E
100
AcDbEntity
  8
LABEL
100
AcDbLine
 10
31.99849999999999
 20
5.437000000000003
 30
0.0
 11
31.99849999999999
 21
5.374000000000004
 31
0.0
  0
LINE
  5
1C0
330
1E
100
AcDbEntity
  8
LABEL
100
AcDbLine
 10
31.9035
 20
5.400000000000003
 30
0.0
 11
31.86949999999999
 21
5.388999999999998
 31
0.0
  0
LINE
  5
1C1
330
1E
100
AcDbEntity
  8
LABEL
100
AcDbLine
 10
32.09149999999999
 20
5.237000000000004
 30
0.0
 11
32.09149999999999
 21
5.327000000000004
 31
0.0
  0
LINE
  5
1C2
330
1E
100
AcDbEntity
  8
LABEL
100
AcDbLine
 10
32.09149999999999
 20
5.237000000000004
 30
0.0
 11
32.04649999999999
 21
5.237000000000004
 31
0.0
  0
LINE
  5
1C3
330
1E
100
AcDbEntity
  8
LABEL
100
AcDbLine
 10
31.97224999999999
 20
5.374000000000004
 30
0.0
 11
31.97224999999999
 21
5.311000000000004
 31
0.0
  0
LINE
  5
1C4
330
1E
100
AcDbEntity
  8
LABEL
100
AcDbLine
 10
32.02474999999999
 20
5.374000000000004
 30
0.0
 11
32.02474999999999
 21
5.311000000000004
 31
0.0
  0
LINE
  5
1C5
330
1E
100
AcDbEntity
  8
LABEL
100
AcDbLine
 10
31.97224999999999
 20
5.374000000000004
 30
0.0
 11
32.02474999999999
 21
5.374000000000004
 31
0.0
  0
LINE
  5
1C6
330
1E
100
AcDbEntity
  8
LABEL
100
AcDbLine
 10
31.97224999999999
 20
5.311000000000004
 30
0.0
 11
32.02474999999999
 21
5.311000000000004
 31
0.0
  0
LINE
  5
1C7
330
1E
100
AcDbEntity
  8
LABEL
100
AcDbLine
 10
31.99849999999999
 20
5.237000000000004
 30
0.0
 11
31.99849999999999
 21
5.311000000000004
 31
0.0
  0
LINE
  5
1C8
330
1E
100
AcDbEntity
  8
LABEL
100
AcDbLine
 10
31.99849999999999
 20
5.237000000000004
 30
0.0
 11
31.95349999999999
 21
5.237000000000004
 31
0.0
  0
LINE
  5
1C9
330
1E
100
AcDbEntity
  8
LABEL
100
AcDbLine
 10
31.9035
 20
5.237000000000004
 30
0.0
 11
31.9035
 21
5.285000000000002
 31
0.0
  0
LINE
  5
1CA
330
1E
100
AcDbEntity
  8
LABEL
100
AcDbLine
 10
31.91949999999999
 20
5.311500000000001
 30
0.0
 11
31.86949999999999
 21
5.296000000000002
 31
0.0
  0
LINE
  5
1CB
330
1E
100
AcDbEntity
  8
LABEL
100
AcDbLine
 10
31.86949999999999
 20
5.327
 30
0.0
 11
31.91949999999999
 21
5.311500000000001
 31
0.0
  0
LINE
  5
1CC
330
1E
100
AcDbEntity
  8
LABEL
100
AcDbLine
 10
31.91949999999999
 20
5.3425
 30
0.0
 11
31.86949999999999
 21
5.327
 31
0.0
  0
LINE
  5
1CD
330
1E
100
AcDbEntity
  8
LABEL
100
AcDbLine
 10
31.86949999999999
 20
5.296000000000002
 30
0.0
 11
31.9035
 21
5.285000000000002
 31
0.0
  0
LINE
  5
1CE
330
1E
100
AcDbEntity
  8
LABEL
100
AcDbLine
 10
31.86949999999999
 20
5.357999999999999
 30
0.0
 11
31.91949999999999
 21
5.3425
 31
0.0
  0
LINE
  5
1CF
330
1E
100
AcDbEntity
  8
LABEL
100
AcDbLine
 10
31.91949999999999
 20
5.373499999999999
 30
0.0
 11
31.86949999999999
 21
5.357999999999999
 31
0.0
  0
LINE
  5
1D0
330
1E
100
AcDbEntity
  8
LABEL
100
AcDbLine
 10
31.86949999999999
 20
5.388999999999998
 30
0.0
 11
31.91949999999999
 21
5.373499999999999
 31
0.0
  0
LINE
  5
1D1
330
1E
100
AcDbEntity
  8
LABEL
100
AcDbLine
 10
31.9035
 20
5.237000000000004
 30
0.0
 11
31.85849999999999
 21
5.237000000000004
 31
0.0
  0
LINE
  5
1D2
330
1E
100
AcDbEntity
  8
LABEL
100
AcDbLine
 10
31.9035
 20
5.837000000000004
 30
0.0
 11
31.85849999999999
 21
5.837000000000004
 31
0.0
  0
LINE
  5
1D3
330
1E
100
AcDbEntity
  8
LABEL
100
AcDbLine
 10
31.9035
 20
5.637000000000004
 30
0.0
 11
31.85849999999999
 21
5.637000000000004
 31
0.0
  0
LINE
  5
1D4
330
1E
100
AcDbEntity
  8
LABEL
100
AcDbLine
 10
31.86949999999999
 20
5.788999999999998
 30
0.0
 11
31.91949999999999
 21
5.773499999999999
 31
0.0
  0
LINE
  5
1D5
330
1E
100
AcDbEntity
  8
LABEL
100
AcDbLine
 10
31.91949999999999
 20
5.773499999999999
 30
0.0
 11
31.86949999999999
 21
5.758
 31
0.0
  0
LINE
  5
1D6
330
1E
100
AcDbEntity
  8
LABEL
100
AcDbLine
 10
31.86949999999999
 20
5.758
 30
0.0
 11
31.91949999999999
 21
5.7425
 31
0.0
  0
LINE
  5
1D7
330
1E
100
AcDbEntity
  8
LABEL
100
AcDbLine
 10
31.86949999999999
 20
5.696000000000002
 30
0.0
 11
31.9035
 21
5.685000000000003
 31
0.0
  0
LINE
  5
1D8
330
1E
100
AcDbEntity
  8
LABEL
100
AcDbLine
 10
31.91949999999999
 20
5.7425
 30
0.0
 11
31.86949999999999
 21
5.727000000000001
 31
0.0
  0
LINE
  5
1D9
330
1E
100
AcDbEntity
  8
LABEL
100
AcDbLine
 10
31.86949999999999
 20
5.727000000000001
 30
0.0
 11
31.91949999999999
 21
5.711500000000001
 31
0.0
  0
LINE
  5
1DA
330
1E
100
AcDbEntity
  8
LABEL
100
AcDbLine
 10
31.91949999999999
 20
5.711500000000001
 30
0.0
 11
31.86949999999999
 21
5.696000000000002
 31
0.0
  0
LINE
  5
1DB
330
1E
100
AcDbEntity
  8
LABEL
100
AcDbLine
 10
31.9035
 20
5.637000000000004
 30
0.0
 11
31.9035
 21
5.685000000000003
 31
0.0
  0
LINE
  5
1DC
330
1E
100
AcDbEntity
  8
LABEL
100
AcDbLine
 10
31.9035
 20
5.837000000000004
 30
0.0
 11
31.9035
 21
5.800000000000003
 31
0.0
  0
LINE
  5
1DD
330
1E
100
AcDbEntity
  8
LABEL
100
AcDbLine
 10
31.9035
 20
5.800000000000003
 30
0.0
 11
31.86949999999999
 21
5.788999999999998
 31
0.0
  0
LINE
  5
1DE
330
1E
100
AcDbEntity
  8
LABEL
100
AcDbLine
 10
31.99849999999999
 20
5.637000000000004
 30
0.0
 11
31.95349999999999
 21
5.637000000000004
 31
0.0
  0
LINE
  5
1DF
330
1E
100
AcDbEntity
  8
LABEL
100
AcDbLine
 10
31.99849999999999
 20
5.837000000000004
 30
0.0
 11
31.95349999999999
 21
5.837000000000004
 31
0.0
  0
LINE
  5
1E0
330
1E
100
AcDbEntity
  8
LABEL
100
AcDbLine
 10
31.99849999999999
 20
5.837000000000004
 30
0.0
 11
31.99849999999999
 21
5.774000000000005
 31
0.0
  0
LINE
  5
1E1
330
1E
100
AcDbEntity
  8
LABEL
100
AcDbLine
 10
31.99849999999999
 20
5.637000000000004
 30
0.0
 11
31.99849999999999
 21
5.711000000000004
 31
0.0
  0
LINE
  5
1E2
330
1E
100
AcDbEntity
  8
LABEL
100
AcDbLine
 10
31.97224999999999
 20
5.711000000000004
 30
0.0
 11
32.02474999999999
 21
5.711000000000004
 31
0.0
  0
LINE
  5
1E3
330
1E
100
AcDbEntity
  8
LABEL
100
AcDbLine
 10
31.97224999999999
 20
5.774000000000005
 30
0.0
 11
32.02474999999999
 21
5.774000000000005
 31
0.0
  0
LINE
  5
1E4
330
1E
100
AcDbEntity
  8
LABEL
100
AcDbLine
 10
32.02474999999999
 20
5.774000000000005
 30
0.0
 11
32.02474999999999
 21
5.711000000000004
 31
0.0
  0
LINE
  5
1E5
330
1E
100
AcDbEntity
  8
LABEL
100
AcDbLine
 10
31.97224999999999
 20
5.774000000000005
 30
0.0
 11
31.97224999999999
 21
5.711000000000004
 31
0.0
  0
TEXT
  5
1E6
330
1E
100
AcDbEntity
  8
LABEL
100
AcDbText
 10
32.0050238095238
 20
5.792285714285719
 30
0.0
 40
0.025
  1
+
  7
ADESK1
 72
     4
 11
32.02049999999999
 21
5.803000000000005
 31
0.0
100
AcDbText
  0
LINE
  5
1E7
330
1E
100
AcDbEntity
  8
LABEL
100
AcDbLine
 10
32.09149999999999
 20
5.637000000000004
 30
0.0
 11
32.04649999999999
 21
5.637000000000004
 31
0.0
  0
LINE
  5
1E8
330
1E
100
AcDbEntity
  8
LABEL
100
AcDbLine
 10
32.09149999999999
 20
5.837000000000004
 30
0.0
 11
32.04649999999999
 21
5.837000000000004
 31
0.0
  0
LINE
  5
1E9
330
1E
100
AcDbEntity
  8
LABEL
100
AcDbLine
 10
32.09149999999999
 20
5.637000000000004
 30
0.0
 11
32.09149999999999
 21
5.727000000000004
 31
0.0
  0
LINE
  5
1EA
330
1E
100
AcDbEntity
  8
LABEL
100
AcDbLine
 10
32.09149999999999
 20
5.837000000000004
 30
0.0
 11
32.09149999999999
 21
5.757000000000004
 31
0.0
  0
LINE
  5
1EB
330
1E
100
AcDbEntity
  8
LABEL
100
AcDbLine
 10
32.09149999999999
 20
5.437000000000003
 30
0.0
 11
32.04649999999999
 21
5.437000000000003
 31
0.0
  0
LINE
  5
1EC
330
1E
100
AcDbEntity
  8
LABEL
100
AcDbLine
 10
31.99849999999999
 20
5.437000000000003
 30
0.0
 11
31.95349999999999
 21
5.437000000000003
 31
0.0
  0
LINE
  5
1ED
330
1E
100
AcDbEntity
  8
LABEL
100
AcDbLine
 10
31.9035
 20
5.437000000000003
 30
0.0
 11
31.9035
 21
5.400000000000003
 31
0.0
  0
LINE
  5
1EE
330
1E
100
AcDbEntity
  8
LABEL
100
AcDbLine
 10
31.9035
 20
5.437000000000003
 30
0.0
 11
31.85849999999999
 21
5.437000000000003
 31
0.0
  0
LINE
  5
1EF
330
1E
100
AcDbEntity
  8
LABEL
100
AcDbLine
 10
32.06525
 20
6.127000000000004
 30
0.0
 11
32.11775
 21
6.127000000000004
 31
0.0
  0
LINE
  5
1F0
330
1E
100
AcDbEntity
  8
LABEL
100
AcDbLine
 10
32.06525
 20
6.157000000000003
 30
0.0
 11
32.11775
 21
6.157000000000003
 31
0.0
  0
LINE
  5
1F1
330
1E
100
AcDbEntity
  8
LABEL
100
AcDbLine
 10
32.06525
 20
6.557000000000003
 30
0.0
 11
32.11775
 21
6.557000000000003
 31
0.0
  0
LINE
  5
1F2
330
1E
100
AcDbEntity
  8
LABEL
100
AcDbLine
 10
32.06525
 20
6.527000000000004
 30
0.0
 11
32.11775
 21
6.527000000000004
 31
0.0
  0
LINE
  5
1F3
330
1E
100
AcDbEntity
  8
LABEL
100
AcDbLine
 10
31.9035
 20
6.237000000000003
 30
0.0
 11
31.85849999999999
 21
6.237000000000003
 31
0.0
  0
LINE
  5
1F4
330
1E
100
AcDbEntity
  8
LABEL
100
AcDbLine
 10
31.9035
 20
6.037000000000004
 30
0.0
 11
31.85849999999999
 21
6.037000000000004
 31
0.0
  0
LINE
  5
1F5
330
1E
100
AcDbEntity
  8
LABEL
100
AcDbLine
 10
31.86949999999999
 20
6.188999999999998
 30
0.0
 11
31.91949999999999
 21
6.173499999999998
 31
0.0
  0
LINE
  5
1F6
330
1E
100
AcDbEntity
  8
LABEL
100
AcDbLine
 10
31.91949999999999
 20
6.173499999999998
 30
0.0
 11
31.86949999999999
 21
6.157999999999999
 31
0.0
  0
LINE
  5
1F7
330
1E
100
AcDbEntity
  8
LABEL
100
AcDbLine
 10
31.86949999999999
 20
6.157999999999999
 30
0.0
 11
31.91949999999999
 21
6.1425
 31
0.0
  0
LINE
  5
1F8
330
1E
100
AcDbEntity
  8
LABEL
100
AcDbLine
 10
31.86949999999999
 20
6.096000000000001
 30
0.0
 11
31.9035
 21
6.085000000000002
 31
0.0
  0
LINE
  5
1F9
330
1E
100
AcDbEntity
  8
LABEL
100
AcDbLine
 10
31.91949999999999
 20
6.1425
 30
0.0
 11
31.86949999999999
 21
6.127
 31
0.0
  0
LINE
  5
1FA
330
1E
100
AcDbEntity
  8
LABEL
100
AcDbLine
 10
31.86949999999999
 20
6.127
 30
0.0
 11
31.91949999999999
 21
6.111500000000001
 31
0.0
  0
LINE
  5
1FB
330
1E
100
AcDbEntity
  8
LABEL
100
AcDbLine
 10
31.91949999999999
 20
6.111500000000001
 30
0.0
 11
31.86949999999999
 21
6.096000000000001
 31
0.0
  0
LINE
  5
1FC
330
1E
100
AcDbEntity
  8
LABEL
100
AcDbLine
 10
31.9035
 20
6.037000000000004
 30
0.0
 11
31.9035
 21
6.085000000000002
 31
0.0
  0
LINE
  5
1FD
330
1E
100
AcDbEntity
  8
LABEL
100
AcDbLine
 10
31.9035
 20
6.237000000000003
 30
0.0
 11
31.9035
 21
6.200000000000002
 31
0.0
  0
LINE
  5
1FE
330
1E
100
AcDbEntity
  8
LABEL
100
AcDbLine
 10
31.9035
 20
6.200000000000002
 30
0.0
 11
31.86949999999999
 21
6.188999999999998
 31
0.0
  0
LINE
  5
1FF
330
1E
100
AcDbEntity
  8
LABEL
100
AcDbLine
 10
31.99849999999999
 20
6.037000000000004
 30
0.0
 11
31.95349999999999
 21
6.037000000000004
 31
0.0
  0
LINE
  5
200
330
1E
100
AcDbEntity
  8
LABEL
100
AcDbLine
 10
31.99849999999999
 20
6.237000000000003
 30
0.0
 11
31.95349999999999
 21
6.237000000000003
 31
0.0
  0
LINE
  5
201
330
1E
100
AcDbEntity
  8
LABEL
100
AcDbLine
 10
31.99849999999999
 20
6.237000000000003
 30
0.0
 11
31.99849999999999
 21
6.174000000000004
 31
0.0
  0
LINE
  5
202
330
1E
100
AcDbEntity
  8
LABEL
100
AcDbLine
 10
31.99849999999999
 20
6.037000000000004
 30
0.0
 11
31.99849999999999
 21
6.111000000000004
 31
0.0
  0
LINE
  5
203
330
1E
100
AcDbEntity
  8
LABEL
100
AcDbLine
 10
31.97224999999999
 20
6.111000000000004
 30
0.0
 11
32.02474999999999
 21
6.111000000000004
 31
0.0
  0
LINE
  5
204
330
1E
100
AcDbEntity
  8
LABEL
100
AcDbLine
 10
31.97224999999999
 20
6.174000000000004
 30
0.0
 11
32.02474999999999
 21
6.174000000000004
 31
0.0
  0
LINE
  5
205
330
1E
100
AcDbEntity
  8
LABEL
100
AcDbLine
 10
32.02474999999999
 20
6.174000000000004
 30
0.0
 11
32.02474999999999
 21
6.111000000000004
 31
0.0
  0
LINE
  5
206
330
1E
100
AcDbEntity
  8
LABEL
100
AcDbLine
 10
31.97224999999999
 20
6.174000000000004
 30
0.0
 11
31.97224999999999
 21
6.111000000000004
 31
0.0
  0
TEXT
  5
207
330
1E
100
AcDbEntity
  8
LABEL
100
AcDbText
 10
32.0050238095238
 20
6.192285714285718
 30
0.0
 40
0.025
  1
+
  7
ADESK1
 72
     4
 11
32.02049999999999
 21
6.203000000000004
 31
0.0
100
AcDbText
  0
LINE
  5
208
330
1E
100
AcDbEntity
  8
LABEL
100
AcDbLine
 10
32.09149999999999
 20
6.037000000000004
 30
0.0
 11
32.04649999999999
 21
6.037000000000004
 31
0.0
  0
LINE
  5
209
330
1E
100
AcDbEntity
  8
LABEL
100
AcDbLine
 10
32.09149999999999
 20
6.237000000000003
 30
0.0
 11
32.04649999999999
 21
6.237000000000003
 31
0.0
  0
LINE
  5
20A
330
1E
100
AcDbEntity
  8
LABEL
100
AcDbLine
 10
32.09149999999999
 20
6.037000000000004
 30
0.0
 11
32.09149999999999
 21
6.127000000000004
 31
0.0
  0
LINE
  5
20B
330
1E
100
AcDbEntity
  8
LABEL
100
AcDbLine
 10
32.09149999999999
 20
6.237000000000003
 30
0.0
 11
32.09149999999999
 21
6.157000000000003
 31
0.0
  0
LINE
  5
20C
330
1E
100
AcDbEntity
  8
LABEL
100
AcDbLine
 10
32.09149999999999
 20
6.637000000000004
 30
0.0
 11
32.09149999999999
 21
6.557000000000003
 31
0.0
  0
LINE
  5
20D
330
1E
100
AcDbEntity
  8
LABEL
100
AcDbLine
 10
32.09149999999999
 20
6.437000000000004
 30
0.0
 11
32.09149999999999
 21
6.527000000000004
 31
0.0
  0
LINE
  5
20E
330
1E
100
AcDbEntity
  8
LABEL
100
AcDbLine
 10
32.09149999999999
 20
6.637000000000004
 30
0.0
 11
32.04649999999999
 21
6.637000000000004
 31
0.0
  0
LINE
  5
20F
330
1E
100
AcDbEntity
  8
LABEL
100
AcDbLine
 10
32.09149999999999
 20
6.437000000000004
 30
0.0
 11
32.04649999999999
 21
6.437000000000004
 31
0.0
  0
TEXT
  5
210
330
1E
100
AcDbEntity
  8
LABEL
100
AcDbText
 10
32.0050238095238
 20
6.592285714285718
 30
0.0
 40
0.025
  1
+
  7
ADESK1
 72
     4
 11
32.02049999999999
 21
6.603000000000005
 31
0.0
100
AcDbText
  0
LINE
  5
211
330
1E
100
AcDbEntity
  8
LABEL
100
AcDbLine
 10
31.97224999999999
 20
6.574000000000005
 30
0.0
 11
31.97224999999999
 21
6.511000000000004
 31
0.0
  0
LINE
  5
212
330
1E
100
AcDbEntity
  8
LABEL
100
AcDbLine
 10
32.02474999999999
 20
6.574000000000005
 30
0.0
 11
32.02474999999999
 21
6.511000000000004
 31
0.0
  0
LINE
  5
213
330
1E
100
AcDbEntity
  8
LABEL
100
AcDbLine
 10
31.97224999999999
 20
6.574000000000005
 30
0.0
 11
32.02474999999999
 21
6.574000000000005
 31
0.0
  0
LINE
  5
214
330
1E
100
AcDbEntity
  8
LABEL
100
AcDbLine
 10
31.97224999999999
 20
6.511000000000004
 30
0.0
 11
32.02474999999999
 21
6.511000000000004
 31
0.0
  0
LINE
  5
215
330
1E
100
AcDbEntity
  8
LABEL
100
AcDbLine
 10
31.99849999999999
 20
6.437000000000004
 30
0.0
 11
31.99849999999999
 21
6.511000000000004
 31
0.0
  0
LINE
  5
216
330
1E
100
AcDbEntity
  8
LABEL
100
AcDbLine
 10
31.99849999999999
 20
6.637000000000004
 30
0.0
 11
31.99849999999999
 21
6.574000000000005
 31
0.0
  0
LINE
  5
217
330
1E
100
AcDbEntity
  8
LABEL
100
AcDbLine
 10
31.99849999999999
 20
6.637000000000004
 30
0.0
 11
31.95349999999999
 21
6.637000000000004
 31
0.0
  0
LINE
  5
218
330
1E
100
AcDbEntity
  8
LABEL
100
AcDbLine
 10
31.99849999999999
 20
6.437000000000004
 30
0.0
 11
31.95349999999999
 21
6.437000000000004
 31
0.0
  0
LINE
  5
219
330
1E
100
AcDbEntity
  8
LABEL
100
AcDbLine
 10
31.9035
 20
6.600000000000003
 30
0.0
 11
31.86949999999999
 21
6.588999999999998
 31
0.0
  0
LINE
  5
21A
330
1E
100
AcDbEntity
  8
LABEL
100
AcDbLine
 10
31.9035
 20
6.637000000000004
 30
0.0
 11
31.9035
 21
6.600000000000003
 31
0.0
  0
LINE
  5
21B
330
1E
100
AcDbEntity
  8
LABEL
100
AcDbLine
 10
31.9035
 20
6.437000000000004
 30
0.0
 11
31.9035
 21
6.485000000000002
 31
0.0
  0
LINE
  5
21C
330
1E
100
AcDbEntity
  8
LABEL
100
AcDbLine
 10
31.91949999999999
 20
6.511500000000001
 30
0.0
 11
31.86949999999999
 21
6.496000000000002
 31
0.0
  0
LINE
  5
21D
330
1E
100
AcDbEntity
  8
LABEL
100
AcDbLine
 10
31.86949999999999
 20
6.527000000000001
 30
0.0
 11
31.91949999999999
 21
6.511500000000001
 31
0.0
  0
LINE
  5
21E
330
1E
100
AcDbEntity
  8
LABEL
100
AcDbLine
 10
31.91949999999999
 20
6.5425
 30
0.0
 11
31.86949999999999
 21
6.527000000000001
 31
0.0
  0
LINE
  5
21F
330
1E
100
AcDbEntity
  8
LABEL
100
AcDbLine
 10
31.86949999999999
 20
6.496000000000002
 30
0.0
 11
31.9035
 21
6.485000000000002
 31
0.0
  0
LINE
  5
220
330
1E
100
AcDbEntity
  8
LABEL
100
AcDbLine
 10
31.86949999999999
 20
6.557999999999999
 30
0.0
 11
31.91949999999999
 21
6.5425
 31
0.0
  0
LINE
  5
221
330
1E
100
AcDbEntity
  8
LABEL
100
AcDbLine
 10
31.91949999999999
 20
6.573499999999999
 30
0.0
 11
31.86949999999999
 21
6.557999999999999
 31
0.0
  0
LINE
  5
222
330
1E
100
AcDbEntity
  8
LABEL
100
AcDbLine
 10
31.86949999999999
 20
6.588999999999998
 30
0.0
 11
31.91949999999999
 21
6.573499999999999
 31
0.0
  0
LINE
  5
223
330
1E
100
AcDbEntity
  8
LABEL
100
AcDbLine
 10
31.9035
 20
6.437000000000004
 30
0.0
 11
31.85849999999999
 21
6.437000000000004
 31
0.0
  0
LINE
  5
224
330
1E
100
AcDbEntity
  8
LABEL
100
AcDbLine
 10
31.9035
 20
6.637000000000004
 30
0.0
 11
31.85849999999999
 21
6.637000000000004
 31
0.0
  0
TEXT
  5
225
330
1E
100
AcDbEntity
  8
LABEL
100
AcDbText
 10
34.98149999999999
 20
8.385714285714287
 30
0.0
 40
0.075
  1
TX
 50
270.0
  7
ADESK1
 72
     4
 11
35.019
 21
8.325000000000002
 31
0.0
100
AcDbText
  0
LINE
  5
226
330
1E
100
AcDbEntity
  8
LABEL
100
AcDbLine
 10
35.149
 20
8.462000000000005
 30
0.0
 11
35.149
 21
7.837000000000004
 31
0.0
  0
LINE
  5
227
330
1E
100
AcDbEntity
  8
LABEL
100
AcDbLine
 10
34.08899999999999
 20
8.462000000000005
 30
0.0
 11
34.08899999999999
 21
7.837000000000004
 31
0.0
  0
TEXT
  5
228
330
1E
100
AcDbEntity
  8
LABEL
100
AcDbText
 10
34.78149999999999
 20
8.400000000000002
 30
0.0
 40
0.075
  1
RX
 50
270.0
  7
ADESK1
 72
     4
 11
34.81899999999999
 21
8.325000000000002
 31
0.0
100
AcDbText
  0
TEXT
  5
229
330
1E
100
AcDbEntity
  8
LABEL
100
AcDbText
 10
34.58149999999999
 20
8.439285714285716
 30
0.0
 40
0.075
  1
GND
 50
270.0
  7
ADESK1
 72
     4
 11
34.61899999999999
 21
8.325000000000002
 31
0.0
100
AcDbText
  0
TEXT
  5
22A
330
1E
100
AcDbEntity
  8
LABEL
100
AcDbText
 10
34.38685714285714
 20
8.371428571428573
 30
0.0
 40
0.075
  1
-
 50
270.0
  7
ADESK1
 72
     4
 11
34.41899999999999
 21
8.325000000000002
 31
0.0
100
AcDbText
  0
TEXT
  5
22B
330
1E
100
AcDbEntity
  8
LABEL
100
AcDbText
 10
34.18685714285713
 20
8.371428571428573
 30
0.0
 40
0.075
  1
+
 50
270.0
  7
ADESK1
 72
     4
 11
34.21899999999999
 21
8.325000000000002
 31
0.0
100
AcDbText
  0
TEXT
  5
22C
330
1E
100
AcDbEntity
  8
LABEL
100
AcDbText
 10
34.65442857142857
 20
8.030500000000005
 30
0.0
 40
0.075
  1
RS-232
  7
ADESK1
 72
     4
 11
34.883
 21
8.068000000000004
 31
0.0
100
AcDbText
  0
LINE
  5
22D
330
1E
100
AcDbEntity
  8
LABEL
100
AcDbLine
 10
34.61899999999999
 20
8.180000000000005
 30
0.0
 11
34.61899999999999
 21
7.874000000000004
 31
0.0
  0
TEXT
  5
22E
330
1E
100
AcDbEntity
  8
LABEL
100
AcDbText
 10
34.13642857142857
 20
8.030500000000005
 30
0.0
 40
0.075
  1
RS-485
  7
ADESK1
 72
     4
 11
34.365
 21
8.068000000000004
 31
0.0
100
AcDbText
  0
LINE
  5
22F
330
1E
100
AcDbEntity
  8
LABEL
100
AcDbLine
 10
35.149
 20
7.837000000000004
 30
0.0
 11
34.08899999999999
 21
7.837000000000004
 31
0.0
  0
LINE
  5
230
330
1E
100
AcDbEntity
  8
LABEL
100
AcDbLine
 10
33.235
 20
8.425000000000004
 30
0.0
 11
33.235
 21
8.252000000000004
 31
0.0
  0
LINE
  5
231
330
1E
100
AcDbEntity
  8
LABEL
100
AcDbLine
 10
33.29099999999999
 20
8.131000000000005
 30
0.0
 11
33.26299999999999
 21
8.159000000000004
 31
0.0
  0
CIRCLE
  5
232
330
1E
100
AcDbEntity
  8
LABEL
100
AcDbCircle
 10
33.235
 20
8.187000000000004
 30
0.0
 40
0.0390000000000015
  0
LINE
  5
233
330
1E
100
AcDbEntity
  8
LABEL
100
AcDbLine
 10
33.29099999999999
 20
8.243000000000003
 30
0.0
 11
33.26299999999999
 21
8.215000000000005
 31
0.0
  0
LINE
  5
234
330
1E
100
AcDbEntity
  8
LABEL
100
AcDbLine
 10
33.179
 20
8.131000000000005
 30
0.0
 11
33.207
 21
8.159000000000004
 31
0.0
  0
LINE
  5
235
330
1E
100
AcDbEntity
  8
LABEL
100
AcDbLine
 10
33.179
 20
8.243000000000003
 30
0.0
 11
33.207
 21
8.215000000000005
 31
0.0
  0
LINE
  5
236
330
1E
100
AcDbEntity
  8
LABEL
100
AcDbLine
 10
33.29099999999999
 20
7.991000000000004
 30
0.0
 11
33.26299999999999
 21
8.019000000000003
 31
0.0
  0
CIRCLE
  5
237
330
1E
100
AcDbEntity
  8
LABEL
100
AcDbCircle
 10
33.235
 20
8.047000000000004
 30
0.0
 40
0.0390000000000015
  0
LINE
  5
238
330
1E
100
AcDbEntity
  8
LABEL
100
AcDbLine
 10
33.29099999999999
 20
8.103000000000003
 30
0.0
 11
33.26299999999999
 21
8.075000000000004
 31
0.0
  0
LINE
  5
239
330
1E
100
AcDbEntity
  8
LABEL
100
AcDbLine
 10
33.179
 20
8.103000000000003
 30
0.0
 11
33.207
 21
8.075000000000004
 31
0.0
  0
LINE
  5
23A
330
1E
100
AcDbEntity
  8
LABEL
100
AcDbLine
 10
33.179
 20
7.991000000000004
 30
0.0
 11
33.207
 21
8.019000000000003
 31
0.0
  0
TEXT
  5
23B
330
1E
100
AcDbEntity
  8
LABEL
100
AcDbText
 10
33.3185
 20
8.148500000000005
 30
0.0
 40
0.075
  1
Link
  7
ADESK1
 72
     4
 11
33.43099999999999
 21
8.186000000000005
 31
0.0
100
AcDbText
  0
TEXT
  5
23C
330
1E
100
AcDbEntity
  8
LABEL
100
AcDbText
 10
33.31778571428571
 20
8.009500000000004
 30
0.0
 40
0.075
  1
Lan
  7
ADESK1
 72
     4
 11
33.416
 21
8.047000000000004
 31
0.0
100
AcDbText
  0
TEXT
  5
23D
330
1E
100
AcDbEntity
  8
LABEL
100
AcDbText
 10
33.42128571428571
 20
8.248500000000003
 30
0.0
 40
0.075
  1
Ethernet
  7
ADESK1
 72
     4
 11
33.657
 21
8.286000000000003
 31
0.0
100
AcDbText
  0
TEXT
  5
23E
330
1E
100
AcDbEntity
  8
LABEL
100
AcDbText
 10
32.34492857142857
 20
8.317500000000004
 30
0.0
 40
0.075
  1
Console
  7
ADESK1
 72
     4
 11
32.561
 21
8.355000000000003
 31
0.0
100
AcDbText
  0
TEXT
  5
23F
330
1E
100
AcDbEntity
  8
LABEL
100
AcDbText
 10
32.82799999999999
 20
7.17471428571429
 30
0.0
 40
0.075
  1
Analog Mode Switches
 50
270.0
  7
ADESK1
 72
     4
 11
32.85299999999999
 21
6.539000000000005
 31
0.0
100
AcDbText
  0
TEXT
  5
240
330
1E
100
AcDbEntity
  8
LABEL
100
AcDbText
 10
32.6595
 20
7.12171428571429
 30
0.0
 40
0.075
  1
20mA
 50
270.0
  7
ADESK1
 72
     4
 11
32.697
 21
6.961000000000004
 31
0.0
100
AcDbText
  0
TEXT
  5
241
330
1E
100
AcDbEntity
  8
LABEL
100
AcDbText
 10
32.6595
 20
6.370285714285719
 30
0.0
 40
0.075
  1
Std
 50
270.0
  7
ADESK1
 72
     4
 11
32.697
 21
6.281000000000005
 31
0.0
100
AcDbText
  0
LINE
  5
242
330
1E
100
AcDbEntity
  8
LABEL
100
AcDbLine
 10
32.452
 20
7.130000000000005
 30
0.0
 11
32.452
 21
6.810000000000004
 31
0.0
  0
LINE
  5
243
330
1E
100
AcDbEntity
  8
LABEL
100
AcDbLine
 10
32.452
 20
7.130000000000005
 30
0.0
 11
32.552
 21
7.130000000000005
 31
0.0
  0
LINE
  5
244
330
1E
100
AcDbEntity
  8
LABEL
100
AcDbLine
 10
32.552
 20
7.130000000000005
 30
0.0
 11
32.552
 21
6.810000000000004
 31
0.0
  0
LINE
  5
245
330
1E
100
AcDbEntity
  8
LABEL
100
AcDbLine
 10
32.552
 20
6.810000000000004
 30
0.0
 11
32.452
 21
6.810000000000004
 31
0.0
  0
LWPOLYLINE
  5
246
330
1E
100
AcDbEntity
  8
LABEL
100
AcDbPolyline
 90
        2
 70
     0
 43
0.08
 10
32.50199999999999
 20
7.122000000000005
 10
32.50199999999999
 20
6.919000000000004
  0
LINE
  5
24A
330
1E
100
AcDbEntity
  8
LABEL
100
AcDbLine
 10
32.595
 20
7.084000000000004
 30
0.0
 11
32.595
 21
6.853000000000005
 31
0.0
  0
SOLID
  5
24B
330
1E
100
AcDbEntity
  8
LABEL
100
AcDbTrace
 10
32.595
 20
7.130000000000005
 30
0.0
 11
32.61499999999999
 21
7.084000000000004
 31
0.0
 12
32.57499999999999
 22
7.084000000000004
 32
0.0
 13
32.61499999999999
 23
7.084000000000004
 33
0.0
  0
LINE
  5
24C
330
1E
100
AcDbEntity
  8
LABEL
100
AcDbLine
 10
32.595
 20
6.185000000000006
 30
0.0
 11
32.595
 21
6.416000000000006
 31
0.0
  0
LWPOLYLINE
  5
24D
330
1E
100
AcDbEntity
  8
LABEL
100
AcDbPolyline
 90
        2
 70
     0
 43
0.08
 10
32.50199999999999
 20
6.147000000000006
 10
32.50199999999999
 20
6.350000000000006
  0
LINE
  5
251
330
1E
100
AcDbEntity
  8
LABEL
100
AcDbLine
 10
32.452
 20
6.139000000000006
 30
0.0
 11
32.452
 21
6.459000000000006
 31
0.0
  0
LINE
  5
252
330
1E
100
AcDbEntity
  8
LABEL
100
AcDbLine
 10
32.552
 20
6.139000000000006
 30
0.0
 11
32.552
 21
6.459000000000006
 31
0.0
  0
LINE
  5
253
330
1E
100
AcDbEntity
  8
LABEL
100
AcDbLine
 10
32.552
 20
6.459000000000006
 30
0.0
 11
32.452
 21
6.459000000000006
 31
0.0
  0
LINE
  5
254
330
1E
100
AcDbEntity
  8
LABEL
100
AcDbLine
 10
32.452
 20
6.139000000000006
 30
0.0
 11
32.552
 21
6.139000000000006
 31
0.0
  0
SOLID
  5
255
330
1E
100
AcDbEntity
  8
LABEL
100
AcDbTrace
 10
32.595
 20
6.139000000000006
 30
0.0
 11
32.61499999999999
 21
6.185000000000006
 31
0.0
 12
32.57499999999999
 22
6.185000000000006
 32
0.0
 13
32.61499999999999
 23
6.185000000000006
 33
0.0
  0
LINE
  5
256
330
1E
100
AcDbEntity
  8
LABEL
100
AcDbLine
 10
34.79099999999999
 20
7.589000000000005
 30
0.0
 11
34.763
 21
7.617000000000004
 31
0.0
  0
CIRCLE
  5
257
330
1E
100
AcDbEntity
  8
LABEL
100
AcDbCircle
 10
34.735
 20
7.645000000000004
 30
0.0
 40
0.0390000000000015
  0
LINE
  5
258
330
1E
100
AcDbEntity
  8
LABEL
100
AcDbLine
 10
34.79099999999999
 20
7.701000000000004
 30
0.0
 11
34.763
 21
7.673000000000005
 31
0.0
  0
LINE
  5
259
330
1E
100
AcDbEntity
  8
LABEL
100
AcDbLine
 10
34.679
 20
7.701000000000004
 30
0.0
 11
34.707
 21
7.673000000000005
 31
0.0
  0
LINE
  5
25A
330
1E
100
AcDbEntity
  8
LABEL
100
AcDbLine
 10
34.679
 20
7.589000000000005
 30
0.0
 11
34.707
 21
7.617000000000004
 31
0.0
  0
LINE
  5
25B
330
1E
100
AcDbEntity
  8
LABEL
100
AcDbLine
 10
34.473
 20
7.589000000000005
 30
0.0
 11
34.501
 21
7.617000000000004
 31
0.0
  0
LINE
  5
25C
330
1E
100
AcDbEntity
  8
LABEL
100
AcDbLine
 10
34.473
 20
7.701000000000004
 30
0.0
 11
34.501
 21
7.673000000000005
 31
0.0
  0
LINE
  5
25D
330
1E
100
AcDbEntity
  8
LABEL
100
AcDbLine
 10
34.585
 20
7.701000000000004
 30
0.0
 11
34.557
 21
7.673000000000005
 31
0.0
  0
CIRCLE
  5
25E
330
1E
100
AcDbEntity
  8
LABEL
100
AcDbCircle
 10
34.529
 20
7.645000000000004
 30
0.0
 40
0.0390000000000015
  0
LINE
  5
25F
330
1E
100
AcDbEntity
  8
LABEL
100
AcDbLine
 10
34.585
 20
7.589000000000005
 30
0.0
 11
34.557
 21
7.617000000000004
 31
0.0
  0
TEXT
  5
260
330
1E
100
AcDbEntity
  8
LABEL
100
AcDbText
 10
34.45199999999999
 20
7.477500000000002
 30
0.0
 40
0.075
  1
RX
  7
ADESK1
 72
     4
 11
34.527
 21
7.515000000000002
 31
0.0
100
AcDbText
  0
TEXT
  5
261
330
1E
100
AcDbEntity
  8
LABEL
100
AcDbText
 10
34.67428571428571
 20
7.477500000000002
 30
0.0
 40
0.075
  1
TX
  7
ADESK1
 72
     4
 11
34.735
 21
7.515000000000002
 31
0.0
100
AcDbText
  0
LWPOLYLINE
  5
26A
330
1E
100
AcDbEntity
  8
LABEL
100
AcDbPolyline
 90
        2
 70
     0
 43
0.01
 10
34.75799999999999
 20
8.580000000000003
 42
1.0
 10
34.75799999999999
 20
8.744000000000003
  0
LWPOLYLINE
  5
26E
330
1E
100
AcDbEntity
  8
LABEL
100
AcDbPolyline
 90
        2
 70
     0
 43
0.01
 10
34.75799999999999
 20
8.744000000000003
 42
1.0
 10
34.75799999999999
 20
8.580000000000003
  0
LWPOLYLINE
  5
272
330
1E
100
AcDbEntity
  8
LABEL
100
AcDbPolyline
 90
        5
 70
     1
 43
0.01
 10
33.11099999999999
 20
9.084000000000003
 10
33.11099999999999
 20
8.590000000000003
 10
31.897
 20
8.590000000000003
 10
31.897
 20
9.084000000000003
 10
33.11099999999999
 20
9.084000000000003
  0
LWPOLYLINE
  5
279
330
1E
100
AcDbEntity
  8
LABEL
100
AcDbPolyline
 90
        6
 70
     1
 43
0.001
 10
33.96399999999999
 20
9.082000000000004
 10
34.024
 20
9.082000000000004
 10
34.024
 20
8.372000000000003
 10
33.384
 20
8.372000000000003
 10
33.384
 20
9.082000000000004
 10
33.96399999999999
 20
9.082000000000004
  0
LWPOLYLINE
  5
281
330
1E
100
AcDbEntity
  8
LABEL
100
AcDbPolyline
 90
        2
 70
     0
 43
0.01
 10
34.548
 20
8.580000000000003
 42
1.0
 10
34.548
 20
8.744000000000003
  0
LWPOLYLINE
  5
285
330
1E
100
AcDbEntity
  8
LABEL
100
AcDbPolyline
 90
        2
 70
     0
 43
0.01
 10
34.548
 20
8.744000000000003
 42
1.0
 10
34.548
 20
8.580000000000003
  0
LWPOLYLINE
  5
289
330
1E
100
AcDbEntity
  8
LABEL
100
AcDbPolyline
 90
        2
 70
     1
 43
0.036
 10
32.722
 20
8.911000000000003
 42
1.0
 10
32.722
 20
8.875000000000003
 42
1.0
  0
LWPOLYLINE
  5
291
330
1E
100
AcDbEntity
  8
LABEL
100
AcDbPolyline
 90
        2
 70
     1
 43
0.085
 10
32.012
 20
8.876000000000002
 42
1.0
 10
32.012
 20
8.792000000000003
 42
1.0
  0
LWPOLYLINE
  5
295
330
1E
100
AcDbEntity
  8
LABEL
100
AcDbPolyline
 90
        2
 70
     1
 43
0.005
 10
31.897
 20
9.086500000000004
 42
1.0
 10
31.897
 20
9.081500000000003
 42
1.0
  0
LWPOLYLINE
  5
299
330
1E
100
AcDbEntity
  8
LABEL
100
AcDbPolyline
 90
        2
 70
     1
 43
0.036
 10
32.33999999999999
 20
8.799000000000003
 42
1.0
 10
32.33999999999999
 20
8.763000000000003
 42
1.0
  0
SOLID
  5
29D
330
1E
100
AcDbEntity
  8
LABEL
100
AcDbTrace
 10
32.25
 20
8.929000000000003
 30
0.0
 11
32.25
 21
8.857000000000002
 31
0.0
 12
32.32199999999999
 22
8.929000000000003
 32
0.0
 13
32.32199999999999
 23
8.857000000000002
 33
0.0
  0
LWPOLYLINE
  5
29E
330
1E
100
AcDbEntity
  8
LABEL
100
AcDbPolyline
 90
        2
 70
     1
 43
0.036
 10
32.39499999999999
 20
8.911000000000003
 42
1.0
 10
32.39499999999999
 20
8.875000000000003
 42
1.0
  0
LWPOLYLINE
  5
2A2
330
1E
100
AcDbEntity
  8
LABEL
100
AcDbPolyline
 90
        2
 70
     1
 43
0.036
 10
32.50399999999999
 20
8.911000000000003
 42
1.0
 10
32.50399999999999
 20
8.875000000000003
 42
1.0
  0
LWPOLYLINE
  5
2A6
330
1E
100
AcDbEntity
  8
LABEL
100
AcDbPolyline
 90
        2
 70
     1
 43
0.036
 10
32.613
 20
8.911000000000003
 42
1.0
 10
32.613
 20
8.875000000000003
 42
1.0
  0
LWPOLYLINE
  5
2AA
330
1E
100
AcDbEntity
  8
LABEL
100
AcDbPolyline
 90
        2
 70
     1
 43
0.036
 10
32.558
 20
8.799000000000003
 42
1.0
 10
32.558
 20
8.763000000000003
 42
1.0
  0
LWPOLYLINE
  5
2AE
330
1E
100
AcDbEntity
  8
LABEL
100
AcDbPolyline
 90
        2
 70
     1
 43
0.036
 10
32.44899999999999
 20
8.799000000000003
 42
1.0
 10
32.44899999999999
 20
8.763000000000003
 42
1.0
  0
LWPOLYLINE
  5
2B2
330
1E
100
AcDbEntity
  8
LABEL
100
AcDbPolyline
 90
        2
 70
     1
 43
0.036
 10
32.667
 20
8.799000000000003
 42
1.0
 10
32.667
 20
8.763000000000003
 42
1.0
  0
LWPOLYLINE
  5
2C1
330
1E
100
AcDbEntity
  8
LABEL
100
AcDbPolyline
 90
        2
 70
     1
 43
0.085
 10
32.99599999999999
 20
8.876000000000002
 42
1.0
 10
32.99599999999999
 20
8.792000000000003
 42
1.0
  0
LWPOLYLINE
  5
2C5
330
1E
100
AcDbEntity
  8
LABEL
100
AcDbPolyline
 90
        2
 70
     1
 43
0.005
 10
33.11099999999999
 20
9.086500000000004
 42
1.0
 10
33.11099999999999
 20
9.081500000000003
 42
1.0
  0
LWPOLYLINE
  5
2C9
330
1E
100
AcDbEntity
  8
LABEL
100
AcDbPolyline
 90
        2
 70
     1
 43
0.005
 10
33.11099999999999
 20
9.086500000000004
 42
1.0
 10
33.11099999999999
 20
9.081500000000003
 42
1.0
  0
LWPOLYLINE
  5
2CD
330
1E
100
AcDbEntity
  8
LABEL
100
AcDbPolyline
 90
        2
 70
     0
 43
0.01
 10
33.235
 20
8.875000000000003
 42
1.0
 10
33.235
 20
9.039000000000003
  0
LWPOLYLINE
  5
2D1
330
1E
100
AcDbEntity
  8
LABEL
100
AcDbPolyline
 90
        2
 70
     0
 43
0.01
 10
33.235
 20
9.039000000000003
 42
1.0
 10
33.235
 20
8.875000000000003
  0
LWPOLYLINE
  5
2D5
330
1E
100
AcDbEntity
  8
LABEL
100
AcDbPolyline
 90
        2
 70
     1
 43
0.005
 10
33.235
 20
9.041500000000002
 42
1.0
 10
33.235
 20
9.036500000000003
 42
1.0
  0
LWPOLYLINE
  5
2D9
330
1E
100
AcDbEntity
  8
LABEL
100
AcDbPolyline
 90
        2
 70
     1
 43
0.005
 10
33.235
 20
9.041500000000002
 42
1.0
 10
33.235
 20
9.036500000000003
 42
1.0
  0
LWPOLYLINE
  5
2DD
330
1E
100
AcDbEntity
  8
LABEL
100
AcDbPolyline
 90
        2
 70
     1
 43
0.0005
 10
33.384
 20
9.082200000000003
 42
1.0
 10
33.384
 20
9.081800000000002
 42
1.0
  0
LWPOLYLINE
  5
2E1
330
1E
100
AcDbEntity
  8
LABEL
100
AcDbPolyline
 90
        2
 70
     0
 43
0.01
 10
33.235
 20
8.670000000000003
 42
1.0
 10
33.235
 20
8.834000000000003
  0
LWPOLYLINE
  5
2E5
330
1E
100
AcDbEntity
  8
LABEL
100
AcDbPolyline
 90
        2
 70
     0
 43
0.01
 10
33.235
 20
8.834000000000003
 42
1.0
 10
33.235
 20
8.670000000000003
  0
LWPOLYLINE
  5
2E9
330
1E
100
AcDbEntity
  8
LABEL
100
AcDbPolyline
 90
        2
 70
     1
 43
0.005
 10
33.235
 20
8.836500000000004
 42
1.0
 10
33.235
 20
8.831500000000003
 42
1.0
  0
LWPOLYLINE
  5
2ED
330
1E
100
AcDbEntity
  8
LABEL
100
AcDbPolyline
 90
        2
 70
     1
 43
0.005
 10
33.235
 20
8.836500000000004
 42
1.0
 10
33.235
 20
8.831500000000003
 42
1.0
  0
LWPOLYLINE
  5
2F1
330
1E
100
AcDbEntity
  8
LABEL
100
AcDbPolyline
 90
        2
 70
     1
 43
0.005
 10
33.235
 20
8.877500000000003
 42
1.0
 10
33.235
 20
8.872500000000004
 42
1.0
  0
LWPOLYLINE
  5
2F5
330
1E
100
AcDbEntity
  8
LABEL
100
AcDbPolyline
 90
        2
 70
     1
 43
0.005
 10
33.235
 20
8.877500000000003
 42
1.0
 10
33.235
 20
8.872500000000004
 42
1.0
  0
LWPOLYLINE
  5
2F9
330
1E
100
AcDbEntity
  8
LABEL
100
AcDbPolyline
 90
        2
 70
     1
 43
0.005
 10
33.235
 20
8.672500000000002
 42
1.0
 10
33.235
 20
8.667500000000003
 42
1.0
  0
LWPOLYLINE
  5
2FD
330
1E
100
AcDbEntity
  8
LABEL
100
AcDbPolyline
 90
        2
 70
     1
 43
0.005
 10
33.235
 20
8.672500000000002
 42
1.0
 10
33.235
 20
8.667500000000003
 42
1.0
  0
LWPOLYLINE
  5
309
330
1E
100
AcDbEntity
  8
LABEL
100
AcDbPolyline
 90
        2
 70
     1
 43
0.0005
 10
33.96399999999999
 20
9.082200000000003
 42
1.0
 10
33.96399999999999
 20
9.081800000000002
 42
1.0
  0
LWPOLYLINE
  5
30D
330
1E
100
AcDbEntity
  8
LABEL
100
AcDbPolyline
 90
        2
 70
     1
 43
0.0005
 10
34.024
 20
9.082200000000003
 42
1.0
 10
34.024
 20
9.081800000000002
 42
1.0
  0
LWPOLYLINE
  5
311
330
1E
100
AcDbEntity
  8
LABEL
100
AcDbPolyline
 90
        2
 70
     1
 43
0.0005
 10
33.96399999999999
 20
9.082200000000003
 42
1.0
 10
33.96399999999999
 20
9.081800000000002
 42
1.0
  0
LWPOLYLINE
  5
326
330
1E
100
AcDbEntity
  8
LABEL
100
AcDbPolyline
 90
        2
 70
     1
 43
0.005
 10
34.548
 20
8.746500000000004
 42
1.0
 10
34.548
 20
8.741500000000003
 42
1.0
  0
LWPOLYLINE
  5
32A
330
1E
100
AcDbEntity
  8
LABEL
100
AcDbPolyline
 90
        2
 70
     1
 43
0.005
 10
34.548
 20
8.746500000000004
 42
1.0
 10
34.548
 20
8.741500000000003
 42
1.0
  0
LWPOLYLINE
  5
332
330
1E
100
AcDbEntity
  8
LABEL
100
AcDbPolyline
 90
        2
 70
     1
 43
0.005
 10
34.75799999999999
 20
8.746500000000004
 42
1.0
 10
34.75799999999999
 20
8.741500000000003
 42
1.0
  0
LWPOLYLINE
  5
336
330
1E
100
AcDbEntity
  8
LABEL
100
AcDbPolyline
 90
        2
 70
     1
 43
0.005
 10
34.75799999999999
 20
8.746500000000004
 42
1.0
 10
34.75799999999999
 20
8.741500000000003
 42
1.0
  0
LWPOLYLINE
  5
360
330
1E
100
AcDbEntity
  8
LABEL
100
AcDbPolyline
 90
        6
 70
     1
 43
0.01
 10
31.439
 20
6.387000000000004
 10
31.439
 20
6.342000000000004
 10
31.539
 20
6.342000000000004
 10
31.539
 20
6.732000000000003
 10
31.439
 20
6.732000000000003
 10
31.439
 20
6.387000000000004
  0
LWPOLYLINE
  5
370
330
1E
100
AcDbEntity
  8
LABEL
100
AcDbPolyline
 90
        6
 70
     1
 43
0.01
 10
31.439
 20
7.587000000000003
 10
31.439
 20
7.542000000000003
 10
31.539
 20
7.542000000000003
 10
31.539
 20
7.932000000000003
 10
31.439
 20
7.932000000000003
 10
31.439
 20
7.587000000000003
  0
LWPOLYLINE
  5
378
330
1E
100
AcDbEntity
  8
LABEL
100
AcDbPolyline
 90
        6
 70
     1
 43
0.01
 10
31.439
 20
7.987000000000003
 10
31.439
 20
7.942000000000003
 10
31.539
 20
7.942000000000003
 10
31.539
 20
8.332000000000004
 10
31.439
 20
8.332000000000004
 10
31.439
 20
7.987000000000003
  0
LWPOLYLINE
  5
389
330
1E
100
AcDbEntity
  8
LABEL
100
AcDbPolyline
 90
        2
 70
     1
 43
0.005
 10
31.539
 20
8.334500000000003
 42
1.0
 10
31.539
 20
8.329500000000003
 42
1.0
  0
LWPOLYLINE
  5
38D
330
1E
100
AcDbEntity
  8
LABEL
100
AcDbPolyline
 90
        2
 70
     1
 43
0.005
 10
31.439
 20
8.334500000000003
 42
1.0
 10
31.439
 20
8.329500000000003
 42
1.0
  0
LWPOLYLINE
  5
391
330
1E
100
AcDbEntity
  8
LABEL
100
AcDbPolyline
 90
        2
 70
     1
 43
0.005
 10
31.897
 20
8.592500000000002
 42
1.0
 10
31.897
 20
8.587500000000003
 42
1.0
  0
LWPOLYLINE
  5
39D
330
1E
100
AcDbEntity
  8
LABEL
100
AcDbPolyline
 90
        2
 70
     1
 43
0.005
 10
31.439
 20
7.989500000000003
 42
1.0
 10
31.439
 20
7.984500000000004
 42
1.0
  0
LWPOLYLINE
  5
3A1
330
1E
100
AcDbEntity
  8
LABEL
100
AcDbPolyline
 90
        2
 70
     1
 43
0.005
 10
31.439
 20
7.989500000000003
 42
1.0
 10
31.439
 20
7.984500000000004
 42
1.0
  0
LWPOLYLINE
  5
3A5
330
1E
100
AcDbEntity
  8
LABEL
100
AcDbPolyline
 90
        2
 70
     1
 43
0.005
 10
31.539
 20
7.934500000000003
 42
1.0
 10
31.539
 20
7.929500000000003
 42
1.0
  0
LWPOLYLINE
  5
3A9
330
1E
100
AcDbEntity
  8
LABEL
100
AcDbPolyline
 90
        2
 70
     1
 43
0.005
 10
31.439
 20
7.934500000000003
 42
1.0
 10
31.439
 20
7.929500000000003
 42
1.0
  0
LWPOLYLINE
  5
3AD
330
1E
100
AcDbEntity
  8
LABEL
100
AcDbPolyline
 90
        2
 70
     1
 43
0.005
 10
31.439
 20
7.944500000000003
 42
1.0
 10
31.439
 20
7.939500000000004
 42
1.0
  0
LWPOLYLINE
  5
3B1
330
1E
100
AcDbEntity
  8
LABEL
100
AcDbPolyline
 90
        2
 70
     1
 43
0.005
 10
31.539
 20
7.944500000000003
 42
1.0
 10
31.539
 20
7.939500000000004
 42
1.0
  0
LWPOLYLINE
  5
3B9
330
1E
100
AcDbEntity
  8
LABEL
100
AcDbPolyline
 90
        2
 70
     1
 43
0.005
 10
31.439
 20
7.589500000000003
 42
1.0
 10
31.439
 20
7.584500000000003
 42
1.0
  0
LWPOLYLINE
  5
3BD
330
1E
100
AcDbEntity
  8
LABEL
100
AcDbPolyline
 90
        2
 70
     1
 43
0.005
 10
31.439
 20
7.589500000000003
 42
1.0
 10
31.439
 20
7.584500000000003
 42
1.0
  0
LWPOLYLINE
  5
3C5
330
1E
100
AcDbEntity
  8
LABEL
100
AcDbPolyline
 90
        6
 70
     1
 43
0.01
 10
31.439
 20
6.787000000000003
 10
31.439
 20
6.742000000000003
 10
31.539
 20
6.742000000000003
 10
31.539
 20
7.132000000000003
 10
31.439
 20
7.132000000000003
 10
31.439
 20
6.787000000000003
  0
LWPOLYLINE
  5
3CD
330
1E
100
AcDbEntity
  8
LABEL
100
AcDbPolyline
 90
        6
 70
     1
 43
0.01
 10
31.439
 20
7.187000000000003
 10
31.439
 20
7.142000000000003
 10
31.539
 20
7.142000000000003
 10
31.539
 20
7.532000000000003
 10
31.439
 20
7.532000000000003
 10
31.439
 20
7.187000000000003
  0
LWPOLYLINE
  5
3D9
330
1E
100
AcDbEntity
  8
LABEL
100
AcDbPolyline
 90
        2
 70
     1
 43
0.005
 10
31.539
 20
7.534500000000003
 42
1.0
 10
31.539
 20
7.529500000000004
 42
1.0
  0
LWPOLYLINE
  5
3DD
330
1E
100
AcDbEntity
  8
LABEL
100
AcDbPolyline
 90
        2
 70
     1
 43
0.005
 10
31.439
 20
7.534500000000003
 42
1.0
 10
31.439
 20
7.529500000000004
 42
1.0
  0
LWPOLYLINE
  5
3E1
330
1E
100
AcDbEntity
  8
LABEL
100
AcDbPolyline
 90
        2
 70
     1
 43
0.005
 10
31.439
 20
7.544500000000003
 42
1.0
 10
31.439
 20
7.539500000000003
 42
1.0
  0
LWPOLYLINE
  5
3E5
330
1E
100
AcDbEntity
  8
LABEL
100
AcDbPolyline
 90
        2
 70
     1
 43
0.005
 10
31.539
 20
7.544500000000003
 42
1.0
 10
31.539
 20
7.539500000000003
 42
1.0
  0
LWPOLYLINE
  5
3ED
330
1E
100
AcDbEntity
  8
LABEL
100
AcDbPolyline
 90
        2
 70
     1
 43
0.005
 10
31.439
 20
7.189500000000004
 42
1.0
 10
31.439
 20
7.184500000000003
 42
1.0
  0
LWPOLYLINE
  5
3F1
330
1E
100
AcDbEntity
  8
LABEL
100
AcDbPolyline
 90
        2
 70
     1
 43
0.005
 10
31.439
 20
7.189500000000004
 42
1.0
 10
31.439
 20
7.184500000000003
 42
1.0
  0
LWPOLYLINE
  5
3F5
330
1E
100
AcDbEntity
  8
LABEL
100
AcDbPolyline
 90
        2
 70
     1
 43
0.005
 10
31.539
 20
7.134500000000003
 42
1.0
 10
31.539
 20
7.129500000000003
 42
1.0
  0
LWPOLYLINE
  5
3F9
330
1E
100
AcDbEntity
  8
LABEL
100
AcDbPolyline
 90
        2
 70
     1
 43
0.005
 10
31.439
 20
7.134500000000003
 42
1.0
 10
31.439
 20
7.129500000000003
 42
1.0
  0
LWPOLYLINE
  5
3FD
330
1E
100
AcDbEntity
  8
LABEL
100
AcDbPolyline
 90
        2
 70
     1
 43
0.005
 10
31.439
 20
7.144500000000003
 42
1.0
 10
31.439
 20
7.139500000000003
 42
1.0
  0
LWPOLYLINE
  5
401
330
1E
100
AcDbEntity
  8
LABEL
100
AcDbPolyline
 90
        2
 70
     1
 43
0.005
 10
31.539
 20
7.144500000000003
 42
1.0
 10
31.539
 20
7.139500000000003
 42
1.0
  0
LWPOLYLINE
  5
405
330
1E
100
AcDbEntity
  8
LABEL
100
AcDbPolyline
 90
        2
 70
     1
 43
0.005
 10
31.439
 20
6.789500000000003
 42
1.0
 10
31.439
 20
6.784500000000003
 42
1.0
  0
LWPOLYLINE
  5
409
330
1E
100
AcDbEntity
  8
LABEL
100
AcDbPolyline
 90
        2
 70
     1
 43
0.005
 10
31.439
 20
6.789500000000003
 42
1.0
 10
31.439
 20
6.784500000000003
 42
1.0
  0
LWPOLYLINE
  5
415
330
1E
100
AcDbEntity
  8
LABEL
100
AcDbPolyline
 90
        2
 70
     1
 43
0.005
 10
31.539
 20
6.734500000000004
 42
1.0
 10
31.539
 20
6.729500000000003
 42
1.0
  0
LWPOLYLINE
  5
419
330
1E
100
AcDbEntity
  8
LABEL
100
AcDbPolyline
 90
        2
 70
     1
 43
0.005
 10
31.439
 20
6.734500000000004
 42
1.0
 10
31.439
 20
6.729500000000003
 42
1.0
  0
LWPOLYLINE
  5
41D
330
1E
100
AcDbEntity
  8
LABEL
100
AcDbPolyline
 90
        2
 70
     1
 43
0.005
 10
31.439
 20
6.744500000000003
 42
1.0
 10
31.439
 20
6.739500000000003
 42
1.0
  0
LWPOLYLINE
  5
421
330
1E
100
AcDbEntity
  8
LABEL
100
AcDbPolyline
 90
        2
 70
     1
 43
0.005
 10
31.539
 20
6.744500000000003
 42
1.0
 10
31.539
 20
6.739500000000003
 42
1.0
  0
LWPOLYLINE
  5
439
330
1E
100
AcDbEntity
  8
LABEL
100
AcDbPolyline
 90
        6
 70
     1
 43
0.01
 10
31.439
 20
5.187000000000003
 10
31.439
 20
5.142000000000003
 10
31.539
 20
5.142000000000003
 10
31.539
 20
5.532000000000003
 10
31.439
 20
5.532000000000003
 10
31.439
 20
5.187000000000003
  0
LWPOLYLINE
  5
445
330
1E
100
AcDbEntity
  8
LABEL
100
AcDbPolyline
 90
        6
 70
     1
 43
0.01
 10
31.439
 20
5.987000000000003
 10
31.439
 20
5.942000000000003
 10
31.539
 20
5.942000000000003
 10
31.539
 20
6.332000000000003
 10
31.439
 20
6.332000000000003
 10
31.439
 20
5.987000000000003
  0
LWPOLYLINE
  5
455
330
1E
100
AcDbEntity
  8
LABEL
100
AcDbPolyline
 90
        2
 70
     1
 43
0.005
 10
31.539
 20
6.334500000000003
 42
1.0
 10
31.539
 20
6.329500000000003
 42
1.0
  0
LWPOLYLINE
  5
459
330
1E
100
AcDbEntity
  8
LABEL
100
AcDbPolyline
 90
        2
 70
     1
 43
0.005
 10
31.439
 20
6.334500000000003
 42
1.0
 10
31.439
 20
6.329500000000003
 42
1.0
  0
LWPOLYLINE
  5
45D
330
1E
100
AcDbEntity
  8
LABEL
100
AcDbPolyline
 90
        2
 70
     1
 43
0.005
 10
31.439
 20
6.389500000000003
 42
1.0
 10
31.439
 20
6.384500000000003
 42
1.0
  0
LWPOLYLINE
  5
461
330
1E
100
AcDbEntity
  8
LABEL
100
AcDbPolyline
 90
        2
 70
     1
 43
0.005
 10
31.439
 20
6.344500000000003
 42
1.0
 10
31.439
 20
6.339500000000003
 42
1.0
  0
LWPOLYLINE
  5
465
330
1E
100
AcDbEntity
  8
LABEL
100
AcDbPolyline
 90
        2
 70
     1
 43
0.005
 10
31.539
 20
6.344500000000003
 42
1.0
 10
31.539
 20
6.339500000000003
 42
1.0
  0
LWPOLYLINE
  5
469
330
1E
100
AcDbEntity
  8
LABEL
100
AcDbPolyline
 90
        2
 70
     1
 43
0.005
 10
31.439
 20
6.389500000000003
 42
1.0
 10
31.439
 20
6.384500000000003
 42
1.0
  0
LWPOLYLINE
  5
46D
330
1E
100
AcDbEntity
  8
LABEL
100
AcDbPolyline
 90
        6
 70
     1
 43
0.01
 10
31.439
 20
5.587000000000003
 10
31.439
 20
5.542000000000003
 10
31.539
 20
5.542000000000003
 10
31.539
 20
5.932000000000003
 10
31.439
 20
5.932000000000003
 10
31.439
 20
5.587000000000003
  0
LWPOLYLINE
  5
479
330
1E
100
AcDbEntity
  8
LABEL
100
AcDbPolyline
 90
        2
 70
     1
 43
0.005
 10
31.539
 20
5.934500000000003
 42
1.0
 10
31.539
 20
5.929500000000003
 42
1.0
  0
LWPOLYLINE
  5
47D
330
1E
100
AcDbEntity
  8
LABEL
100
AcDbPolyline
 90
        2
 70
     1
 43
0.005
 10
31.439
 20
5.934500000000003
 42
1.0
 10
31.439
 20
5.929500000000003
 42
1.0
  0
LWPOLYLINE
  5
481
330
1E
100
AcDbEntity
  8
LABEL
100
AcDbPolyline
 90
        2
 70
     1
 43
0.005
 10
31.439
 20
5.989500000000003
 42
1.0
 10
31.439
 20
5.984500000000004
 42
1.0
  0
LWPOLYLINE
  5
485
330
1E
100
AcDbEntity
  8
LABEL
100
AcDbPolyline
 90
        2
 70
     1
 43
0.005
 10
31.439
 20
5.944500000000003
 42
1.0
 10
31.439
 20
5.939500000000003
 42
1.0
  0
LWPOLYLINE
  5
489
330
1E
100
AcDbEntity
  8
LABEL
100
AcDbPolyline
 90
        2
 70
     1
 43
0.005
 10
31.539
 20
5.944500000000003
 42
1.0
 10
31.539
 20
5.939500000000003
 42
1.0
  0
LWPOLYLINE
  5
48D
330
1E
100
AcDbEntity
  8
LABEL
100
AcDbPolyline
 90
        2
 70
     1
 43
0.005
 10
31.439
 20
5.989500000000003
 42
1.0
 10
31.439
 20
5.984500000000004
 42
1.0
  0
LWPOLYLINE
  5
495
330
1E
100
AcDbEntity
  8
LABEL
100
AcDbPolyline
 90
        2
 70
     1
 43
0.005
 10
31.539
 20
5.534500000000003
 42
1.0
 10
31.539
 20
5.529500000000003
 42
1.0
  0
LWPOLYLINE
  5
499
330
1E
100
AcDbEntity
  8
LABEL
100
AcDbPolyline
 90
        2
 70
     1
 43
0.005
 10
31.439
 20
5.534500000000003
 42
1.0
 10
31.439
 20
5.529500000000003
 42
1.0
  0
LWPOLYLINE
  5
49D
330
1E
100
AcDbEntity
  8
LABEL
100
AcDbPolyline
 90
        2
 70
     1
 43
0.005
 10
31.439
 20
5.589500000000003
 42
1.0
 10
31.439
 20
5.584500000000003
 42
1.0
  0
LWPOLYLINE
  5
4A1
330
1E
100
AcDbEntity
  8
LABEL
100
AcDbPolyline
 90
        2
 70
     1
 43
0.005
 10
31.439
 20
5.544500000000003
 42
1.0
 10
31.439
 20
5.539500000000003
 42
1.0
  0
LWPOLYLINE
  5
4A5
330
1E
100
AcDbEntity
  8
LABEL
100
AcDbPolyline
 90
        2
 70
     1
 43
0.005
 10
31.539
 20
5.544500000000003
 42
1.0
 10
31.539
 20
5.539500000000003
 42
1.0
  0
LWPOLYLINE
  5
4A9
330
1E
100
AcDbEntity
  8
LABEL
100
AcDbPolyline
 90
        2
 70
     1
 43
0.005
 10
31.439
 20
5.589500000000003
 42
1.0
 10
31.439
 20
5.584500000000003
 42
1.0
  0
LWPOLYLINE
  5
4B5
330
1E
100
AcDbEntity
  8
LABEL
100
AcDbPolyline
 90
        2
 70
     1
 43
0.005
 10
31.439
 20
5.189500000000003
 42
1.0
 10
31.439
 20
5.184500000000003
 42
1.0
  0
LWPOLYLINE
  5
4B9
330
1E
100
AcDbEntity
  8
LABEL
100
AcDbPolyline
 90
        2
 70
     1
 43
0.005
 10
31.439
 20
5.144500000000003
 42
1.0
 10
31.439
 20
5.139500000000003
 42
1.0
  0
LWPOLYLINE
  5
4BD
330
1E
100
AcDbEntity
  8
LABEL
100
AcDbPolyline
 90
        2
 70
     1
 43
0.005
 10
31.539
 20
5.144500000000003
 42
1.0
 10
31.539
 20
5.139500000000003
 42
1.0
  0
LWPOLYLINE
  5
4C1
330
1E
100
AcDbEntity
  8
LABEL
100
AcDbPolyline
 90
        2
 70
     1
 43
0.005
 10
31.439
 20
5.189500000000003
 42
1.0
 10
31.439
 20
5.184500000000003
 42
1.0
  0
LWPOLYLINE
  5
4D6
330
1E
100
AcDbEntity
  8
LABEL
100
AcDbPolyline
 90
        2
 70
     1
 43
0.005
 10
33.11099999999999
 20
8.592500000000002
 42
1.0
 10
33.11099999999999
 20
8.587500000000003
 42
1.0
  0
LWPOLYLINE
  5
4DA
330
1E
100
AcDbEntity
  8
LABEL
100
AcDbPolyline
 90
        2
 70
     1
 43
0.0005
 10
33.384
 20
8.372300000000002
 42
1.0
 10
33.384
 20
8.371700000000004
 42
1.0
  0
LWPOLYLINE
  5
4DE
330
1E
100
AcDbEntity
  8
LABEL
100
AcDbPolyline
 90
        2
 70
     1
 43
0.0005
 10
34.024
 20
8.372300000000002
 42
1.0
 10
34.024
 20
8.371700000000004
 42
1.0
  0
LWPOLYLINE
  5
4E2
330
1E
100
AcDbEntity
  8
LABEL
100
AcDbPolyline
 90
        2
 70
     1
 43
0.005
 10
34.548
 20
8.582500000000003
 42
1.0
 10
34.548
 20
8.577500000000004
 42
1.0
  0
LWPOLYLINE
  5
4E6
330
1E
100
AcDbEntity
  8
LABEL
100
AcDbPolyline
 90
        2
 70
     1
 43
0.005
 10
34.548
 20
8.582500000000003
 42
1.0
 10
34.548
 20
8.577500000000004
 42
1.0
  0
LWPOLYLINE
  5
4EA
330
1E
100
AcDbEntity
  8
LABEL
100
AcDbPolyline
 90
        2
 70
     1
 43
0.005
 10
34.75799999999999
 20
8.582500000000003
 42
1.0
 10
34.75799999999999
 20
8.577500000000004
 42
1.0
  0
LWPOLYLINE
  5
4EE
330
1E
100
AcDbEntity
  8
LABEL
100
AcDbPolyline
 90
        2
 70
     1
 43
0.005
 10
34.75799999999999
 20
8.582500000000003
 42
1.0
 10
34.75799999999999
 20
8.577500000000004
 42
1.0
  0
LWPOLYLINE
  5
4FD
330
1E
100
AcDbEntity
  8
LABEL
100
AcDbPolyline
 90
        2
 70
     0
 43
0.01
 10
31.209
 20
2.749000000000003
 42
1.0
 10
31.209
 20
2.913000000000003
  0
LWPOLYLINE
  5
501
330
1E
100
AcDbEntity
  8
LABEL
100
AcDbPolyline
 90
        2
 70
     1
 43
0.005
 10
31.209
 20
2.751500000000003
 42
1.0
 10
31.209
 20
2.746500000000003
 42
1.0
  0
LWPOLYLINE
  5
505
330
1E
100
AcDbEntity
  8
LABEL
100
AcDbPolyline
 90
        2
 70
     1
 43
0.005
 10
31.209
 20
2.915500000000003
 42
1.0
 10
31.209
 20
2.910500000000003
 42
1.0
  0
LWPOLYLINE
  5
509
330
1E
100
AcDbEntity
  8
LABEL
100
AcDbPolyline
 90
        2
 70
     1
 43
0.005
 10
31.209
 20
2.915500000000003
 42
1.0
 10
31.209
 20
2.910500000000003
 42
1.0
  0
LWPOLYLINE
  5
50D
330
1E
100
AcDbEntity
  8
LABEL
100
AcDbPolyline
 90
        2
 70
     1
 43
0.005
 10
31.209
 20
2.751500000000003
 42
1.0
 10
31.209
 20
2.746500000000003
 42
1.0
  0
LWPOLYLINE
  5
511
330
1E
100
AcDbEntity
  8
LABEL
100
AcDbPolyline
 90
        5
 70
     1
 43
0.01
 10
31.139
 20
3.047000000000003
 10
31.139
 20
3.197000000000003
 10
31.379
 20
3.197000000000003
 10
31.379
 20
3.047000000000003
 10
31.139
 20
3.047000000000003
  0
LWPOLYLINE
  5
518
330
1E
100
AcDbEntity
  8
LABEL
100
AcDbPolyline
 90
        2
 70
     0
 43
0.01
 10
31.209
 20
2.913000000000003
 42
1.0
 10
31.209
 20
2.749000000000003
  0
LWPOLYLINE
  5
524
330
1E
100
AcDbEntity
  8
LABEL
100
AcDbPolyline
 90
        2
 70
     1
 43
0.005
 10
31.139
 20
3.199500000000004
 42
1.0
 10
31.139
 20
3.194500000000003
 42
1.0
  0
LWPOLYLINE
  5
528
330
1E
100
AcDbEntity
  8
LABEL
100
AcDbPolyline
 90
        2
 70
     1
 43
0.005
 10
31.139
 20
3.049500000000003
 42
1.0
 10
31.139
 20
3.044500000000003
 42
1.0
  0
LWPOLYLINE
  5
52C
330
1E
100
AcDbEntity
  8
LABEL
100
AcDbPolyline
 90
        2
 70
     1
 43
0.005
 10
31.139
 20
3.049500000000003
 42
1.0
 10
31.139
 20
3.044500000000003
 42
1.0
  0
LWPOLYLINE
  5
54C
330
1E
100
AcDbEntity
  8
LABEL
100
AcDbPolyline
 90
        2
 70
     0
 43
0.01
 10
31.394
 20
2.749000000000003
 42
1.0
 10
31.394
 20
2.913000000000003
  0
LWPOLYLINE
  5
550
330
1E
100
AcDbEntity
  8
LABEL
100
AcDbPolyline
 90
        2
 70
     0
 43
0.01
 10
31.394
 20
2.913000000000003
 42
1.0
 10
31.394
 20
2.749000000000003
  0
LWPOLYLINE
  5
554
330
1E
100
AcDbEntity
  8
LABEL
100
AcDbPolyline
 90
        2
 70
     0
 43
0.001
 10
31.279
 20
3.097000000000003
 42
1.0
 10
31.279
 20
3.147000000000003
  0
LWPOLYLINE
  5
558
330
1E
100
AcDbEntity
  8
LABEL
100
AcDbPolyline
 90
        2
 70
     1
 43
0.0005
 10
31.279
 20
3.097200000000003
 42
1.0
 10
31.279
 20
3.096700000000003
 42
1.0
  0
LWPOLYLINE
  5
55C
330
1E
100
AcDbEntity
  8
LABEL
100
AcDbPolyline
 90
        2
 70
     1
 43
0.0005
 10
31.279
 20
3.147300000000003
 42
1.0
 10
31.279
 20
3.146700000000003
 42
1.0
  0
LWPOLYLINE
  5
560
330
1E
100
AcDbEntity
  8
LABEL
100
AcDbPolyline
 90
        2
 70
     0
 43
0.001
 10
31.279
 20
3.147000000000003
 42
1.0
 10
31.279
 20
3.097000000000003
  0
LWPOLYLINE
  5
564
330
1E
100
AcDbEntity
  8
LABEL
100
AcDbPolyline
 90
        2
 70
     1
 43
0.0005
 10
31.279
 20
3.147300000000003
 42
1.0
 10
31.279
 20
3.146700000000003
 42
1.0
  0
LWPOLYLINE
  5
568
330
1E
100
AcDbEntity
  8
LABEL
100
AcDbPolyline
 90
        2
 70
     1
 43
0.0005
 10
31.279
 20
3.097200000000003
 42
1.0
 10
31.279
 20
3.096700000000003
 42
1.0
  0
LWPOLYLINE
  5
56C
330
1E
100
AcDbEntity
  8
LABEL
100
AcDbPolyline
 90
        2
 70
     1
 43
0.005
 10
31.379
 20
3.199500000000004
 42
1.0
 10
31.379
 20
3.194500000000003
 42
1.0
  0
LWPOLYLINE
  5
574
330
1E
100
AcDbEntity
  8
LABEL
100
AcDbPolyline
 90
        2
 70
     1
 43
0.005
 10
31.379
 20
3.049500000000003
 42
1.0
 10
31.379
 20
3.044500000000003
 42
1.0
  0
LWPOLYLINE
  5
578
330
1E
100
AcDbEntity
  8
LABEL
100
AcDbPolyline
 90
        2
 70
     1
 43
0.005
 10
31.394
 20
2.915500000000003
 42
1.0
 10
31.394
 20
2.910500000000003
 42
1.0
  0
LWPOLYLINE
  5
57C
330
1E
100
AcDbEntity
  8
LABEL
100
AcDbPolyline
 90
        2
 70
     1
 43
0.005
 10
31.394
 20
2.915500000000003
 42
1.0
 10
31.394
 20
2.910500000000003
 42
1.0
  0
LWPOLYLINE
  5
580
330
1E
100
AcDbEntity
  8
LABEL
100
AcDbPolyline
 90
        2
 70
     1
 43
0.005
 10
31.394
 20
2.751500000000003
 42
1.0
 10
31.394
 20
2.746500000000003
 42
1.0
  0
LWPOLYLINE
  5
584
330
1E
100
AcDbEntity
  8
LABEL
100
AcDbPolyline
 90
        2
 70
     1
 43
0.005
 10
31.394
 20
2.751500000000003
 42
1.0
 10
31.394
 20
2.746500000000003
 42
1.0
  0
LWPOLYLINE
  5
5A5
330
1E
100
AcDbEntity
  8
LABEL
100
AcDbPolyline
 90
        6
 70
     1
 43
0.01
 10
34.27899999999999
 20
1.652000000000003
 10
34.27899999999999
 20
2.027000000000003
 10
35.179
 20
2.027000000000003
 10
35.179
 20
1.627000000000003
 10
34.27899999999999
 20
1.627000000000003
 10
34.27899999999999
 20
1.652000000000003
  0
LWPOLYLINE
  5
5AD
330
1E
100
AcDbEntity
  8
LABEL
100
AcDbPolyline
 90
        2
 70
     1
 43
0.005
 10
34.27899999999999
 20
2.029500000000003
 42
1.0
 10
34.27899999999999
 20
2.024500000000003
 42
1.0
  0
LWPOLYLINE
  5
5B1
330
1E
100
AcDbEntity
  8
LABEL
100
AcDbPolyline
 90
        2
 70
     1
 43
0.005
 10
34.27899999999999
 20
1.654500000000003
 42
1.0
 10
34.27899999999999
 20
1.649500000000004
 42
1.0
  0
LWPOLYLINE
  5
5B5
330
1E
100
AcDbEntity
  8
LABEL
100
AcDbPolyline
 90
        2
 70
     1
 43
0.005
 10
34.27899999999999
 20
1.654500000000003
 42
1.0
 10
34.27899999999999
 20
1.649500000000004
 42
1.0
  0
LWPOLYLINE
  5
5B9
330
1E
100
AcDbEntity
  8
LABEL
100
AcDbPolyline
 90
        2
 70
     1
 43
0.005
 10
34.27899999999999
 20
1.629500000000002
 42
1.0
 10
34.27899999999999
 20
1.624500000000003
 42
1.0
  0
LWPOLYLINE
  5
5BD
330
1E
100
AcDbEntity
  8
LABEL
100
AcDbPolyline
 90
        2
 70
     1
 43
0.005
 10
35.179
 20
2.029500000000003
 42
1.0
 10
35.179
 20
2.024500000000003
 42
1.0
  0
LWPOLYLINE
  5
5C1
330
1E
100
AcDbEntity
  8
LABEL
100
AcDbPolyline
 90
        2
 70
     1
 43
0.005
 10
35.179
 20
1.629500000000002
 42
1.0
 10
35.179
 20
1.624500000000003
 42
1.0
  0
LINE
  5
691
330
1E
100
AcDbEntity
  8
LABEL
100
AcDbLine
 10
34.34699999999999
 20
1.891
 30
0.0
 11
34.34699999999999
 21
1.753
 31
0.0
  0
LINE
  5
692
330
1E
100
AcDbEntity
  8
LABEL
100
AcDbLine
 10
34.34699999999999
 20
1.753
 30
0.0
 11
34.41099999999999
 21
1.753
 31
0.0
  0
LINE
  5
693
330
1E
100
AcDbEntity
  8
LABEL
100
AcDbLine
 10
34.41099999999999
 20
1.753
 30
0.0
 11
34.41099999999999
 21
1.891
 31
0.0
  0
LINE
  5
694
330
1E
100
AcDbEntity
  8
LABEL
100
AcDbLine
 10
34.41099999999999
 20
1.891
 30
0.0
 11
34.34699999999999
 21
1.891
 31
0.0
  0
LINE
  5
695
330
1E
100
AcDbEntity
  8
LABEL
100
AcDbLine
 10
34.36299999999999
 20
1.858999999999999
 30
0.0
 11
34.39599999999999
 21
1.858999999999999
 31
0.0
  0
LINE
  5
696
330
1E
100
AcDbEntity
  8
LABEL
100
AcDbLine
 10
34.39599999999999
 20
1.858999999999999
 30
0.0
 11
34.39599999999999
 21
1.787999999999999
 31
0.0
  0
LINE
  5
697
330
1E
100
AcDbEntity
  8
LABEL
100
AcDbLine
 10
34.39599999999999
 20
1.787999999999999
 30
0.0
 11
34.36299999999999
 21
1.787999999999999
 31
0.0
  0
LINE
  5
698
330
1E
100
AcDbEntity
  8
LABEL
100
AcDbLine
 10
34.36299999999999
 20
1.787999999999999
 30
0.0
 11
34.36299999999999
 21
1.858999999999999
 31
0.0
  0
LINE
  5
699
330
1E
100
AcDbEntity
  8
LABEL
100
AcDbLine
 10
34.36299999999999
 20
1.814
 30
0.0
 11
34.39599999999999
 21
1.814
 31
0.0
  0
LINE
  5
69A
330
1E
100
AcDbEntity
  8
LABEL
100
AcDbLine
 10
34.36299999999999
 20
1.81
 30
0.0
 11
34.39599999999999
 21
1.81
 31
0.0
  0
LINE
  5
69B
330
1E
100
AcDbEntity
  8
LABEL
100
AcDbLine
 10
34.36299999999999
 20
1.806
 30
0.0
 11
34.39599999999999
 21
1.806
 31
0.0
  0
LINE
  5
69C
330
1E
100
AcDbEntity
  8
LABEL
100
AcDbLine
 10
34.36299999999999
 20
1.801999999999999
 30
0.0
 11
34.39599999999999
 21
1.801999999999999
 31
0.0
  0
LINE
  5
69D
330
1E
100
AcDbEntity
  8
LABEL
100
AcDbLine
 10
34.36299999999999
 20
1.798
 30
0.0
 11
34.39599999999999
 21
1.798
 31
0.0
  0
LINE
  5
69E
330
1E
100
AcDbEntity
  8
LABEL
100
AcDbLine
 10
34.36299999999999
 20
1.794
 30
0.0
 11
34.39599999999999
 21
1.794
 31
0.0
  0
LINE
  5
69F
330
1E
100
AcDbEntity
  8
LABEL
100
AcDbLine
 10
34.36299999999999
 20
1.790999999999999
 30
0.0
 11
34.39599999999999
 21
1.790999999999999
 31
0.0
  0
LINE
  5
6A0
330
1E
100
AcDbEntity
  8
LABEL
100
AcDbLine
 10
34.447
 20
1.891
 30
0.0
 11
34.447
 21
1.753
 31
0.0
  0
LINE
  5
6A1
330
1E
100
AcDbEntity
  8
LABEL
100
AcDbLine
 10
34.511
 20
1.753
 30
0.0
 11
34.511
 21
1.891
 31
0.0
  0
LINE
  5
6A2
330
1E
100
AcDbEntity
  8
LABEL
100
AcDbLine
 10
34.447
 20
1.753
 30
0.0
 11
34.511
 21
1.753
 31
0.0
  0
LINE
  5
6A3
330
1E
100
AcDbEntity
  8
LABEL
100
AcDbLine
 10
34.463
 20
1.790999999999999
 30
0.0
 11
34.496
 21
1.790999999999999
 31
0.0
  0
LINE
  5
6A4
330
1E
100
AcDbEntity
  8
LABEL
100
AcDbLine
 10
34.463
 20
1.794
 30
0.0
 11
34.496
 21
1.794
 31
0.0
  0
LINE
  5
6A5
330
1E
100
AcDbEntity
  8
LABEL
100
AcDbLine
 10
34.463
 20
1.798
 30
0.0
 11
34.496
 21
1.798
 31
0.0
  0
LINE
  5
6A6
330
1E
100
AcDbEntity
  8
LABEL
100
AcDbLine
 10
34.463
 20
1.801999999999999
 30
0.0
 11
34.496
 21
1.801999999999999
 31
0.0
  0
LINE
  5
6A7
330
1E
100
AcDbEntity
  8
LABEL
100
AcDbLine
 10
34.463
 20
1.806
 30
0.0
 11
34.496
 21
1.806
 31
0.0
  0
LINE
  5
6A8
330
1E
100
AcDbEntity
  8
LABEL
100
AcDbLine
 10
34.463
 20
1.81
 30
0.0
 11
34.496
 21
1.81
 31
0.0
  0
LINE
  5
6A9
330
1E
100
AcDbEntity
  8
LABEL
100
AcDbLine
 10
34.463
 20
1.814
 30
0.0
 11
34.496
 21
1.814
 31
0.0
  0
LINE
  5
6AA
330
1E
100
AcDbEntity
  8
LABEL
100
AcDbLine
 10
34.496
 20
1.787999999999999
 30
0.0
 11
34.463
 21
1.787999999999999
 31
0.0
  0
LINE
  5
6AB
330
1E
100
AcDbEntity
  8
LABEL
100
AcDbLine
 10
34.463
 20
1.858999999999999
 30
0.0
 11
34.496
 21
1.858999999999999
 31
0.0
  0
LINE
  5
6AC
330
1E
100
AcDbEntity
  8
LABEL
100
AcDbLine
 10
34.511
 20
1.891
 30
0.0
 11
34.447
 21
1.891
 31
0.0
  0
LINE
  5
6AD
330
1E
100
AcDbEntity
  8
LABEL
100
AcDbLine
 10
34.463
 20
1.787999999999999
 30
0.0
 11
34.463
 21
1.858999999999999
 31
0.0
  0
LINE
  5
6AE
330
1E
100
AcDbEntity
  8
LABEL
100
AcDbLine
 10
34.496
 20
1.858999999999999
 30
0.0
 11
34.496
 21
1.787999999999999
 31
0.0
  0
LINE
  5
6AF
330
1E
100
AcDbEntity
  8
LABEL
100
AcDbLine
 10
34.547
 20
1.891
 30
0.0
 11
34.547
 21
1.753
 31
0.0
  0
LINE
  5
6B0
330
1E
100
AcDbEntity
  8
LABEL
100
AcDbLine
 10
34.611
 20
1.753
 30
0.0
 11
34.611
 21
1.891
 31
0.0
  0
LINE
  5
6B1
330
1E
100
AcDbEntity
  8
LABEL
100
AcDbLine
 10
34.547
 20
1.753
 30
0.0
 11
34.611
 21
1.753
 31
0.0
  0
LINE
  5
6B2
330
1E
100
AcDbEntity
  8
LABEL
100
AcDbLine
 10
34.563
 20
1.790999999999999
 30
0.0
 11
34.596
 21
1.790999999999999
 31
0.0
  0
LINE
  5
6B3
330
1E
100
AcDbEntity
  8
LABEL
100
AcDbLine
 10
34.563
 20
1.794
 30
0.0
 11
34.596
 21
1.794
 31
0.0
  0
LINE
  5
6B4
330
1E
100
AcDbEntity
  8
LABEL
100
AcDbLine
 10
34.563
 20
1.798
 30
0.0
 11
34.596
 21
1.798
 31
0.0
  0
LINE
  5
6B5
330
1E
100
AcDbEntity
  8
LABEL
100
AcDbLine
 10
34.563
 20
1.801999999999999
 30
0.0
 11
34.596
 21
1.801999999999999
 31
0.0
  0
LINE
  5
6B6
330
1E
100
AcDbEntity
  8
LABEL
100
AcDbLine
 10
34.563
 20
1.806
 30
0.0
 11
34.596
 21
1.806
 31
0.0
  0
LINE
  5
6B7
330
1E
100
AcDbEntity
  8
LABEL
100
AcDbLine
 10
34.563
 20
1.81
 30
0.0
 11
34.596
 21
1.81
 31
0.0
  0
LINE
  5
6B8
330
1E
100
AcDbEntity
  8
LABEL
100
AcDbLine
 10
34.563
 20
1.814
 30
0.0
 11
34.596
 21
1.814
 31
0.0
  0
LINE
  5
6B9
330
1E
100
AcDbEntity
  8
LABEL
100
AcDbLine
 10
34.596
 20
1.787999999999999
 30
0.0
 11
34.563
 21
1.787999999999999
 31
0.0
  0
LINE
  5
6BA
330
1E
100
AcDbEntity
  8
LABEL
100
AcDbLine
 10
34.563
 20
1.858999999999999
 30
0.0
 11
34.596
 21
1.858999999999999
 31
0.0
  0
LINE
  5
6BB
330
1E
100
AcDbEntity
  8
LABEL
100
AcDbLine
 10
34.611
 20
1.891
 30
0.0
 11
34.547
 21
1.891
 31
0.0
  0
LINE
  5
6BC
330
1E
100
AcDbEntity
  8
LABEL
100
AcDbLine
 10
34.563
 20
1.787999999999999
 30
0.0
 11
34.563
 21
1.858999999999999
 31
0.0
  0
LINE
  5
6BD
330
1E
100
AcDbEntity
  8
LABEL
100
AcDbLine
 10
34.596
 20
1.858999999999999
 30
0.0
 11
34.596
 21
1.787999999999999
 31
0.0
  0
LINE
  5
6BE
330
1E
100
AcDbEntity
  8
LABEL
100
AcDbLine
 10
34.647
 20
1.891
 30
0.0
 11
34.647
 21
1.753
 31
0.0
  0
LINE
  5
6BF
330
1E
100
AcDbEntity
  8
LABEL
100
AcDbLine
 10
34.711
 20
1.753
 30
0.0
 11
34.711
 21
1.891
 31
0.0
  0
LINE
  5
6C0
330
1E
100
AcDbEntity
  8
LABEL
100
AcDbLine
 10
34.647
 20
1.753
 30
0.0
 11
34.711
 21
1.753
 31
0.0
  0
LINE
  5
6C1
330
1E
100
AcDbEntity
  8
LABEL
100
AcDbLine
 10
34.663
 20
1.790999999999999
 30
0.0
 11
34.696
 21
1.790999999999999
 31
0.0
  0
LINE
  5
6C2
330
1E
100
AcDbEntity
  8
LABEL
100
AcDbLine
 10
34.663
 20
1.794
 30
0.0
 11
34.696
 21
1.794
 31
0.0
  0
LINE
  5
6C3
330
1E
100
AcDbEntity
  8
LABEL
100
AcDbLine
 10
34.663
 20
1.798
 30
0.0
 11
34.696
 21
1.798
 31
0.0
  0
LINE
  5
6C4
330
1E
100
AcDbEntity
  8
LABEL
100
AcDbLine
 10
34.663
 20
1.801999999999999
 30
0.0
 11
34.696
 21
1.801999999999999
 31
0.0
  0
LINE
  5
6C5
330
1E
100
AcDbEntity
  8
LABEL
100
AcDbLine
 10
34.663
 20
1.806
 30
0.0
 11
34.696
 21
1.806
 31
0.0
  0
LINE
  5
6C6
330
1E
100
AcDbEntity
  8
LABEL
100
AcDbLine
 10
34.663
 20
1.81
 30
0.0
 11
34.696
 21
1.81
 31
0.0
  0
LINE
  5
6C7
330
1E
100
AcDbEntity
  8
LABEL
100
AcDbLine
 10
34.663
 20
1.814
 30
0.0
 11
34.696
 21
1.814
 31
0.0
  0
LINE
  5
6C8
330
1E
100
AcDbEntity
  8
LABEL
100
AcDbLine
 10
34.696
 20
1.787999999999999
 30
0.0
 11
34.663
 21
1.787999999999999
 31
0.0
  0
LINE
  5
6C9
330
1E
100
AcDbEntity
  8
LABEL
100
AcDbLine
 10
34.663
 20
1.858999999999999
 30
0.0
 11
34.696
 21
1.858999999999999
 31
0.0
  0
LINE
  5
6CA
330
1E
100
AcDbEntity
  8
LABEL
100
AcDbLine
 10
34.711
 20
1.891
 30
0.0
 11
34.647
 21
1.891
 31
0.0
  0
LINE
  5
6CB
330
1E
100
AcDbEntity
  8
LABEL
100
AcDbLine
 10
34.663
 20
1.787999999999999
 30
0.0
 11
34.663
 21
1.858999999999999
 31
0.0
  0
LINE
  5
6CC
330
1E
100
AcDbEntity
  8
LABEL
100
AcDbLine
 10
34.696
 20
1.858999999999999
 30
0.0
 11
34.696
 21
1.787999999999999
 31
0.0
  0
LINE
  5
6CD
330
1E
100
AcDbEntity
  8
LABEL
100
AcDbLine
 10
34.747
 20
1.891
 30
0.0
 11
34.747
 21
1.753
 31
0.0
  0
LINE
  5
6CE
330
1E
100
AcDbEntity
  8
LABEL
100
AcDbLine
 10
34.811
 20
1.753
 30
0.0
 11
34.811
 21
1.891
 31
0.0
  0
LINE
  5
6CF
330
1E
100
AcDbEntity
  8
LABEL
100
AcDbLine
 10
34.747
 20
1.753
 30
0.0
 11
34.811
 21
1.753
 31
0.0
  0
LINE
  5
6D0
330
1E
100
AcDbEntity
  8
LABEL
100
AcDbLine
 10
34.763
 20
1.790999999999999
 30
0.0
 11
34.796
 21
1.790999999999999
 31
0.0
  0
LINE
  5
6D1
330
1E
100
AcDbEntity
  8
LABEL
100
AcDbLine
 10
34.763
 20
1.794
 30
0.0
 11
34.796
 21
1.794
 31
0.0
  0
LINE
  5
6D2
330
1E
100
AcDbEntity
  8
LABEL
100
AcDbLine
 10
34.763
 20
1.798
 30
0.0
 11
34.796
 21
1.798
 31
0.0
  0
LINE
  5
6D3
330
1E
100
AcDbEntity
  8
LABEL
100
AcDbLine
 10
34.763
 20
1.801999999999999
 30
0.0
 11
34.796
 21
1.801999999999999
 31
0.0
  0
LINE
  5
6D4
330
1E
100
AcDbEntity
  8
LABEL
100
AcDbLine
 10
34.763
 20
1.806
 30
0.0
 11
34.796
 21
1.806
 31
0.0
  0
LINE
  5
6D5
330
1E
100
AcDbEntity
  8
LABEL
100
AcDbLine
 10
34.763
 20
1.81
 30
0.0
 11
34.796
 21
1.81
 31
0.0
  0
LINE
  5
6D6
330
1E
100
AcDbEntity
  8
LABEL
100
AcDbLine
 10
34.763
 20
1.814
 30
0.0
 11
34.796
 21
1.814
 31
0.0
  0
LINE
  5
6D7
330
1E
100
AcDbEntity
  8
LABEL
100
AcDbLine
 10
34.796
 20
1.787999999999999
 30
0.0
 11
34.763
 21
1.787999999999999
 31
0.0
  0
LINE
  5
6D8
330
1E
100
AcDbEntity
  8
LABEL
100
AcDbLine
 10
34.763
 20
1.858999999999999
 30
0.0
 11
34.796
 21
1.858999999999999
 31
0.0
  0
LINE
  5
6D9
330
1E
100
AcDbEntity
  8
LABEL
100
AcDbLine
 10
34.811
 20
1.891
 30
0.0
 11
34.747
 21
1.891
 31
0.0
  0
LINE
  5
6DA
330
1E
100
AcDbEntity
  8
LABEL
100
AcDbLine
 10
34.763
 20
1.787999999999999
 30
0.0
 11
34.763
 21
1.858999999999999
 31
0.0
  0
LINE
  5
6DB
330
1E
100
AcDbEntity
  8
LABEL
100
AcDbLine
 10
34.796
 20
1.858999999999999
 30
0.0
 11
34.796
 21
1.787999999999999
 31
0.0
  0
LINE
  5
6DC
330
1E
100
AcDbEntity
  8
LABEL
100
AcDbLine
 10
34.847
 20
1.891
 30
0.0
 11
34.847
 21
1.753
 31
0.0
  0
LINE
  5
6DD
330
1E
100
AcDbEntity
  8
LABEL
100
AcDbLine
 10
34.911
 20
1.753
 30
0.0
 11
34.911
 21
1.891
 31
0.0
  0
LINE
  5
6DE
330
1E
100
AcDbEntity
  8
LABEL
100
AcDbLine
 10
34.847
 20
1.753
 30
0.0
 11
34.911
 21
1.753
 31
0.0
  0
LINE
  5
6DF
330
1E
100
AcDbEntity
  8
LABEL
100
AcDbLine
 10
34.86299999999999
 20
1.790999999999999
 30
0.0
 11
34.896
 21
1.790999999999999
 31
0.0
  0
LINE
  5
6E0
330
1E
100
AcDbEntity
  8
LABEL
100
AcDbLine
 10
34.86299999999999
 20
1.794
 30
0.0
 11
34.896
 21
1.794
 31
0.0
  0
LINE
  5
6E1
330
1E
100
AcDbEntity
  8
LABEL
100
AcDbLine
 10
34.86299999999999
 20
1.798
 30
0.0
 11
34.896
 21
1.798
 31
0.0
  0
LINE
  5
6E2
330
1E
100
AcDbEntity
  8
LABEL
100
AcDbLine
 10
34.86299999999999
 20
1.801999999999999
 30
0.0
 11
34.896
 21
1.801999999999999
 31
0.0
  0
LINE
  5
6E3
330
1E
100
AcDbEntity
  8
LABEL
100
AcDbLine
 10
34.86299999999999
 20
1.806
 30
0.0
 11
34.896
 21
1.806
 31
0.0
  0
LINE
  5
6E4
330
1E
100
AcDbEntity
  8
LABEL
100
AcDbLine
 10
34.86299999999999
 20
1.81
 30
0.0
 11
34.896
 21
1.81
 31
0.0
  0
LINE
  5
6E5
330
1E
100
AcDbEntity
  8
LABEL
100
AcDbLine
 10
34.86299999999999
 20
1.814
 30
0.0
 11
34.896
 21
1.814
 31
0.0
  0
LINE
  5
6E6
330
1E
100
AcDbEntity
  8
LABEL
100
AcDbLine
 10
34.896
 20
1.787999999999999
 30
0.0
 11
34.86299999999999
 21
1.787999999999999
 31
0.0
  0
LINE
  5
6E7
330
1E
100
AcDbEntity
  8
LABEL
100
AcDbLine
 10
34.86299999999999
 20
1.858999999999999
 30
0.0
 11
34.896
 21
1.858999999999999
 31
0.0
  0
LINE
  5
6E8
330
1E
100
AcDbEntity
  8
LABEL
100
AcDbLine
 10
34.911
 20
1.891
 30
0.0
 11
34.847
 21
1.891
 31
0.0
  0
LINE
  5
6E9
330
1E
100
AcDbEntity
  8
LABEL
100
AcDbLine
 10
34.86299999999999
 20
1.787999999999999
 30
0.0
 11
34.86299999999999
 21
1.858999999999999
 31
0.0
  0
LINE
  5
6EA
330
1E
100
AcDbEntity
  8
LABEL
100
AcDbLine
 10
34.896
 20
1.858999999999999
 30
0.0
 11
34.896
 21
1.787999999999999
 31
0.0
  0
LINE
  5
6EB
330
1E
100
AcDbEntity
  8
LABEL
100
AcDbLine
 10
34.947
 20
1.891
 30
0.0
 11
34.947
 21
1.753
 31
0.0
  0
LINE
  5
6EC
330
1E
100
AcDbEntity
  8
LABEL
100
AcDbLine
 10
35.011
 20
1.753
 30
0.0
 11
35.011
 21
1.891
 31
0.0
  0
LINE
  5
6ED
330
1E
100
AcDbEntity
  8
LABEL
100
AcDbLine
 10
34.947
 20
1.753
 30
0.0
 11
35.011
 21
1.753
 31
0.0
  0
LINE
  5
6EE
330
1E
100
AcDbEntity
  8
LABEL
100
AcDbLine
 10
34.963
 20
1.790999999999999
 30
0.0
 11
34.996
 21
1.790999999999999
 31
0.0
  0
LINE
  5
6EF
330
1E
100
AcDbEntity
  8
LABEL
100
AcDbLine
 10
34.963
 20
1.794
 30
0.0
 11
34.996
 21
1.794
 31
0.0
  0
LINE
  5
6F0
330
1E
100
AcDbEntity
  8
LABEL
100
AcDbLine
 10
34.963
 20
1.798
 30
0.0
 11
34.996
 21
1.798
 31
0.0
  0
LINE
  5
6F1
330
1E
100
AcDbEntity
  8
LABEL
100
AcDbLine
 10
34.963
 20
1.801999999999999
 30
0.0
 11
34.996
 21
1.801999999999999
 31
0.0
  0
LINE
  5
6F2
330
1E
100
AcDbEntity
  8
LABEL
100
AcDbLine
 10
34.963
 20
1.806
 30
0.0
 11
34.996
 21
1.806
 31
0.0
  0
LINE
  5
6F3
330
1E
100
AcDbEntity
  8
LABEL
100
AcDbLine
 10
34.963
 20
1.81
 30
0.0
 11
34.996
 21
1.81
 31
0.0
  0
LINE
  5
6F4
330
1E
100
AcDbEntity
  8
LABEL
100
AcDbLine
 10
34.963
 20
1.814
 30
0.0
 11
34.996
 21
1.814
 31
0.0
  0
LINE
  5
6F5
330
1E
100
AcDbEntity
  8
LABEL
100
AcDbLine
 10
34.996
 20
1.787999999999999
 30
0.0
 11
34.963
 21
1.787999999999999
 31
0.0
  0
LINE
  5
6F6
330
1E
100
AcDbEntity
  8
LABEL
100
AcDbLine
 10
34.963
 20
1.858999999999999
 30
0.0
 11
34.996
 21
1.858999999999999
 31
0.0
  0
LINE
  5
6F7
330
1E
100
AcDbEntity
  8
LABEL
100
AcDbLine
 10
35.011
 20
1.891
 30
0.0
 11
34.947
 21
1.891
 31
0.0
  0
LINE
  5
6F8
330
1E
100
AcDbEntity
  8
LABEL
100
AcDbLine
 10
34.963
 20
1.787999999999999
 30
0.0
 11
34.963
 21
1.858999999999999
 31
0.0
  0
LINE
  5
6F9
330
1E
100
AcDbEntity
  8
LABEL
100
AcDbLine
 10
34.996
 20
1.858999999999999
 30
0.0
 11
34.996
 21
1.787999999999999
 31
0.0
  0
LINE
  5
6FA
330
1E
100
AcDbEntity
  8
LABEL
100
AcDbLine
 10
35.04699999999999
 20
1.891
 30
0.0
 11
35.04699999999999
 21
1.753
 31
0.0
  0
LINE
  5
6FB
330
1E
100
AcDbEntity
  8
LABEL
100
AcDbLine
 10
35.11099999999999
 20
1.753
 30
0.0
 11
35.11099999999999
 21
1.891
 31
0.0
  0
LINE
  5
6FC
330
1E
100
AcDbEntity
  8
LABEL
100
AcDbLine
 10
35.04699999999999
 20
1.753
 30
0.0
 11
35.11099999999999
 21
1.753
 31
0.0
  0
LINE
  5
6FD
330
1E
100
AcDbEntity
  8
LABEL
100
AcDbLine
 10
35.06299999999999
 20
1.790999999999999
 30
0.0
 11
35.09599999999999
 21
1.790999999999999
 31
0.0
  0
LINE
  5
6FE
330
1E
100
AcDbEntity
  8
LABEL
100
AcDbLine
 10
35.06299999999999
 20
1.794
 30
0.0
 11
35.09599999999999
 21
1.794
 31
0.0
  0
LINE
  5
6FF
330
1E
100
AcDbEntity
  8
LABEL
100
AcDbLine
 10
35.06299999999999
 20
1.798
 30
0.0
 11
35.09599999999999
 21
1.798
 31
0.0
  0
LINE
  5
700
330
1E
100
AcDbEntity
  8
LABEL
100
AcDbLine
 10
35.06299999999999
 20
1.801999999999999
 30
0.0
 11
35.09599999999999
 21
1.801999999999999
 31
0.0
  0
LINE
  5
701
330
1E
100
AcDbEntity
  8
LABEL
100
AcDbLine
 10
35.06299999999999
 20
1.806
 30
0.0
 11
35.09599999999999
 21
1.806
 31
0.0
  0
LINE
  5
702
330
1E
100
AcDbEntity
  8
LABEL
100
AcDbLine
 10
35.06299999999999
 20
1.81
 30
0.0
 11
35.09599999999999
 21
1.81
 31
0.0
  0
LINE
  5
703
330
1E
100
AcDbEntity
  8
LABEL
100
AcDbLine
 10
35.06299999999999
 20
1.814
 30
0.0
 11
35.09599999999999
 21
1.814
 31
0.0
  0
LINE
  5
704
330
1E
100
AcDbEntity
  8
LABEL
100
AcDbLine
 10
35.09599999999999
 20
1.787999999999999
 30
0.0
 11
35.06299999999999
 21
1.787999999999999
 31
0.0
  0
LINE
  5
705
330
1E
100
AcDbEntity
  8
LABEL
100
AcDbLine
 10
35.06299999999999
 20
1.858999999999999
 30
0.0
 11
35.09599999999999
 21
1.858999999999999
 31
0.0
  0
LINE
  5
706
330
1E
100
AcDbEntity
  8
LABEL
100
AcDbLine
 10
35.11099999999999
 20
1.891
 30
0.0
 11
35.04699999999999
 21
1.891
 31
0.0
  0
LINE
  5
707
330
1E
100
AcDbEntity
  8
LABEL
100
AcDbLine
 10
35.06299999999999
 20
1.787999999999999
 30
0.0
 11
35.06299999999999
 21
1.858999999999999
 31
0.0
  0
LINE
  5
708
330
1E
100
AcDbEntity
  8
LABEL
100
AcDbLine
 10
35.09599999999999
 20
1.858999999999999
 30
0.0
 11
35.09599999999999
 21
1.787999999999999
 31
0.0
  0
LINE
  5
709
330
1E
100
AcDbEntity
  8
LABEL
100
AcDbLine
 10
33.624
 20
9.087000000000003
 30
0.0
 11
33.624
 21
8.950000000000002
 31
0.0
  0
LINE
  5
70A
330
1E
100
AcDbEntity
  8
LABEL
100
AcDbLine
 10
33.624
 20
8.950000000000002
 30
0.0
 11
33.584
 21
8.950000000000002
 31
0.0
  0
LINE
  5
70B
330
1E
100
AcDbEntity
  8
LABEL
100
AcDbLine
 10
33.584
 20
8.950000000000002
 30
0.0
 11
33.584
 21
8.912000000000002
 31
0.0
  0
LINE
  5
70C
330
1E
100
AcDbEntity
  8
LABEL
100
AcDbLine
 10
33.584
 20
8.912000000000002
 30
0.0
 11
33.444
 21
8.912000000000002
 31
0.0
  0
LINE
  5
70D
330
1E
100
AcDbEntity
  8
LABEL
100
AcDbLine
 10
33.444
 20
8.912000000000002
 30
0.0
 11
33.444
 21
8.569000000000002
 31
0.0
  0
LINE
  5
70E
330
1E
100
AcDbEntity
  8
LABEL
100
AcDbLine
 10
33.444
 20
8.569000000000002
 30
0.0
 11
33.55199999999999
 21
8.569000000000002
 31
0.0
  0
LINE
  5
70F
330
1E
100
AcDbEntity
  8
LABEL
100
AcDbLine
 10
33.55199999999999
 20
8.569000000000002
 30
0.0
 11
33.55199999999999
 21
8.443000000000003
 31
0.0
  0
LINE
  5
710
330
1E
100
AcDbEntity
  8
LABEL
100
AcDbLine
 10
33.55199999999999
 20
8.443000000000003
 30
0.0
 11
33.856
 21
8.443000000000003
 31
0.0
  0
LINE
  5
711
330
1E
100
AcDbEntity
  8
LABEL
100
AcDbLine
 10
33.856
 20
8.443000000000003
 30
0.0
 11
33.856
 21
8.569000000000002
 31
0.0
  0
LINE
  5
712
330
1E
100
AcDbEntity
  8
LABEL
100
AcDbLine
 10
33.856
 20
8.569000000000002
 30
0.0
 11
33.96399999999999
 21
8.569000000000002
 31
0.0
  0
LINE
  5
713
330
1E
100
AcDbEntity
  8
LABEL
100
AcDbLine
 10
33.96399999999999
 20
8.569000000000002
 30
0.0
 11
33.96399999999999
 21
8.912000000000002
 31
0.0
  0
LINE
  5
714
330
1E
100
AcDbEntity
  8
LABEL
100
AcDbLine
 10
33.96399999999999
 20
8.912000000000002
 30
0.0
 11
33.824
 21
8.912000000000002
 31
0.0
  0
LINE
  5
715
330
1E
100
AcDbEntity
  8
LABEL
100
AcDbLine
 10
33.824
 20
8.912000000000002
 30
0.0
 11
33.824
 21
8.950000000000002
 31
0.0
  0
LINE
  5
716
330
1E
100
AcDbEntity
  8
LABEL
100
AcDbLine
 10
33.824
 20
8.950000000000002
 30
0.0
 11
33.784
 21
8.950000000000002
 31
0.0
  0
LINE
  5
717
330
1E
100
AcDbEntity
  8
LABEL
100
AcDbLine
 10
33.784
 20
8.950000000000002
 30
0.0
 11
33.784
 21
9.087000000000003
 31
0.0
  0
LINE
  5
718
330
1E
100
AcDbEntity
  8
LABEL
100
AcDbLine
 10
32.25099999999999
 20
8.701000000000004
 30
0.0
 11
32.757
 21
8.701000000000004
 31
0.0
  0
LINE
  5
719
330
1E
100
AcDbEntity
  8
LABEL
100
AcDbLine
 10
32.195
 20
8.969000000000002
 30
0.0
 11
32.81299999999999
 21
8.969000000000002
 31
0.0
  0
LINE
  5
71A
330
1E
100
AcDbEntity
  8
LABEL
100
AcDbLine
 10
32.81299999999999
 20
8.969000000000002
 30
0.0
 11
32.757
 21
8.701000000000004
 31
0.0
  0
LINE
  5
71B
330
1E
100
AcDbEntity
  8
LABEL
100
AcDbLine
 10
32.195
 20
8.969000000000002
 30
0.0
 11
32.25099999999999
 21
8.701000000000004
 31
0.0
  0
LINE
  5
7F8
330
1E
100
AcDbEntity
  8
LABEL
100
AcDbLine
 10
31.52000000000001
 20
8.070000000000007
 30
0.0
 11
31.52000000000001
 21
8.208000000000005
 31
0.0
  0
LINE
  5
7F9
330
1E
100
AcDbEntity
  8
LABEL
100
AcDbLine
 10
31.456
 20
8.208000000000005
 30
0.0
 11
31.456
 21
8.070000000000007
 31
0.0
  0
LINE
  5
7FA
330
1E
100
AcDbEntity
  8
LABEL
100
AcDbLine
 10
31.52000000000001
 20
8.208000000000005
 30
0.0
 11
31.456
 21
8.208000000000005
 31
0.0
  0
LINE
  5
7FB
330
1E
100
AcDbEntity
  8
LABEL
100
AcDbLine
 10
31.50400000000001
 20
8.170000000000005
 30
0.0
 11
31.471
 21
8.170000000000005
 31
0.0
  0
LINE
  5
7FC
330
1E
100
AcDbEntity
  8
LABEL
100
AcDbLine
 10
31.50400000000001
 20
8.167000000000005
 30
0.0
 11
31.471
 21
8.167000000000005
 31
0.0
  0
LINE
  5
7FD
330
1E
100
AcDbEntity
  8
LABEL
100
AcDbLine
 10
31.50400000000001
 20
8.163000000000007
 30
0.0
 11
31.471
 21
8.163000000000007
 31
0.0
  0
LINE
  5
7FE
330
1E
100
AcDbEntity
  8
LABEL
100
AcDbLine
 10
31.50400000000001
 20
8.159000000000006
 30
0.0
 11
31.471
 21
8.159000000000006
 31
0.0
  0
LINE
  5
7FF
330
1E
100
AcDbEntity
  8
LABEL
100
AcDbLine
 10
31.50400000000001
 20
8.155000000000006
 30
0.0
 11
31.471
 21
8.155000000000006
 31
0.0
  0
LINE
  5
800
330
1E
100
AcDbEntity
  8
LABEL
100
AcDbLine
 10
31.50400000000001
 20
8.151000000000006
 30
0.0
 11
31.471
 21
8.151000000000006
 31
0.0
  0
LINE
  5
801
330
1E
100
AcDbEntity
  8
LABEL
100
AcDbLine
 10
31.50400000000001
 20
8.147000000000005
 30
0.0
 11
31.471
 21
8.147000000000005
 31
0.0
  0
LINE
  5
802
330
1E
100
AcDbEntity
  8
LABEL
100
AcDbLine
 10
31.471
 20
8.173000000000005
 30
0.0
 11
31.50400000000001
 21
8.173000000000005
 31
0.0
  0
LINE
  5
803
330
1E
100
AcDbEntity
  8
LABEL
100
AcDbLine
 10
31.50400000000001
 20
8.102000000000007
 30
0.0
 11
31.471
 21
8.102000000000007
 31
0.0
  0
LINE
  5
804
330
1E
100
AcDbEntity
  8
LABEL
100
AcDbLine
 10
31.456
 20
8.070000000000007
 30
0.0
 11
31.52000000000001
 21
8.070000000000007
 31
0.0
  0
LINE
  5
805
330
1E
100
AcDbEntity
  8
LABEL
100
AcDbLine
 10
31.50400000000001
 20
8.173000000000005
 30
0.0
 11
31.50400000000001
 21
8.102000000000007
 31
0.0
  0
LINE
  5
806
330
1E
100
AcDbEntity
  8
LABEL
100
AcDbLine
 10
31.471
 20
8.102000000000007
 30
0.0
 11
31.471
 21
8.173000000000005
 31
0.0
  0
LINE
  5
807
330
1E
100
AcDbEntity
  8
LABEL
100
AcDbLine
 10
31.456
 20
7.806000000000006
 30
0.0
 11
31.456
 21
7.668000000000008
 31
0.0
  0
LINE
  5
808
330
1E
100
AcDbEntity
  8
LABEL
100
AcDbLine
 10
31.52000000000001
 20
7.668000000000008
 30
0.0
 11
31.52000000000001
 21
7.806000000000006
 31
0.0
  0
LINE
  5
809
330
1E
100
AcDbEntity
  8
LABEL
100
AcDbLine
 10
31.456
 20
7.668000000000008
 30
0.0
 11
31.52000000000001
 21
7.668000000000008
 31
0.0
  0
LINE
  5
80A
330
1E
100
AcDbEntity
  8
LABEL
100
AcDbLine
 10
31.471
 20
7.700000000000008
 30
0.0
 11
31.471
 21
7.771000000000006
 31
0.0
  0
LINE
  5
80B
330
1E
100
AcDbEntity
  8
LABEL
100
AcDbLine
 10
31.50400000000001
 20
7.771000000000006
 30
0.0
 11
31.50400000000001
 21
7.700000000000008
 31
0.0
  0
LINE
  5
80C
330
1E
100
AcDbEntity
  8
LABEL
100
AcDbLine
 10
31.50400000000001
 20
7.700000000000008
 30
0.0
 11
31.471
 21
7.700000000000008
 31
0.0
  0
LINE
  5
80D
330
1E
100
AcDbEntity
  8
LABEL
100
AcDbLine
 10
31.471
 20
7.771000000000006
 30
0.0
 11
31.50400000000001
 21
7.771000000000006
 31
0.0
  0
LINE
  5
80E
330
1E
100
AcDbEntity
  8
LABEL
100
AcDbLine
 10
31.50400000000001
 20
7.745000000000006
 30
0.0
 11
31.471
 21
7.745000000000006
 31
0.0
  0
LINE
  5
80F
330
1E
100
AcDbEntity
  8
LABEL
100
AcDbLine
 10
31.50400000000001
 20
7.749000000000007
 30
0.0
 11
31.471
 21
7.749000000000007
 31
0.0
  0
LINE
  5
810
330
1E
100
AcDbEntity
  8
LABEL
100
AcDbLine
 10
31.50400000000001
 20
7.753000000000007
 30
0.0
 11
31.471
 21
7.753000000000007
 31
0.0
  0
LINE
  5
811
330
1E
100
AcDbEntity
  8
LABEL
100
AcDbLine
 10
31.50400000000001
 20
7.757000000000006
 30
0.0
 11
31.471
 21
7.757000000000006
 31
0.0
  0
LINE
  5
812
330
1E
100
AcDbEntity
  8
LABEL
100
AcDbLine
 10
31.50400000000001
 20
7.761000000000008
 30
0.0
 11
31.471
 21
7.761000000000008
 31
0.0
  0
LINE
  5
813
330
1E
100
AcDbEntity
  8
LABEL
100
AcDbLine
 10
31.50400000000001
 20
7.765000000000005
 30
0.0
 11
31.471
 21
7.765000000000005
 31
0.0
  0
LINE
  5
814
330
1E
100
AcDbEntity
  8
LABEL
100
AcDbLine
 10
31.50400000000001
 20
7.768000000000006
 30
0.0
 11
31.471
 21
7.768000000000006
 31
0.0
  0
LINE
  5
815
330
1E
100
AcDbEntity
  8
LABEL
100
AcDbLine
 10
31.52000000000001
 20
7.806000000000006
 30
0.0
 11
31.456
 21
7.806000000000006
 31
0.0
  0
LINE
  5
816
330
1E
100
AcDbEntity
  8
LABEL
100
AcDbLine
 10
31.521
 20
7.268000000000007
 30
0.0
 11
31.521
 21
7.406000000000005
 31
0.0
  0
LINE
  5
817
330
1E
100
AcDbEntity
  8
LABEL
100
AcDbLine
 10
31.457
 20
7.406000000000005
 30
0.0
 11
31.457
 21
7.268000000000007
 31
0.0
  0
LINE
  5
818
330
1E
100
AcDbEntity
  8
LABEL
100
AcDbLine
 10
31.457
 20
7.268000000000007
 30
0.0
 11
31.521
 21
7.268000000000007
 31
0.0
  0
LINE
  5
819
330
1E
100
AcDbEntity
  8
LABEL
100
AcDbLine
 10
31.505
 20
7.371000000000005
 30
0.0
 11
31.505
 21
7.300000000000007
 31
0.0
  0
LINE
  5
81A
330
1E
100
AcDbEntity
  8
LABEL
100
AcDbLine
 10
31.472
 20
7.300000000000007
 30
0.0
 11
31.472
 21
7.371000000000005
 31
0.0
  0
LINE
  5
81B
330
1E
100
AcDbEntity
  8
LABEL
100
AcDbLine
 10
31.505
 20
7.300000000000007
 30
0.0
 11
31.472
 21
7.300000000000007
 31
0.0
  0
LINE
  5
81C
330
1E
100
AcDbEntity
  8
LABEL
100
AcDbLine
 10
31.472
 20
7.371000000000005
 30
0.0
 11
31.505
 21
7.371000000000005
 31
0.0
  0
LINE
  5
81D
330
1E
100
AcDbEntity
  8
LABEL
100
AcDbLine
 10
31.505
 20
7.345000000000005
 30
0.0
 11
31.472
 21
7.345000000000005
 31
0.0
  0
LINE
  5
81E
330
1E
100
AcDbEntity
  8
LABEL
100
AcDbLine
 10
31.505
 20
7.349000000000007
 30
0.0
 11
31.472
 21
7.349000000000007
 31
0.0
  0
LINE
  5
81F
330
1E
100
AcDbEntity
  8
LABEL
100
AcDbLine
 10
31.505
 20
7.353000000000006
 30
0.0
 11
31.472
 21
7.353000000000006
 31
0.0
  0
LINE
  5
820
330
1E
100
AcDbEntity
  8
LABEL
100
AcDbLine
 10
31.505
 20
7.357000000000006
 30
0.0
 11
31.472
 21
7.357000000000006
 31
0.0
  0
LINE
  5
821
330
1E
100
AcDbEntity
  8
LABEL
100
AcDbLine
 10
31.505
 20
7.361000000000007
 30
0.0
 11
31.472
 21
7.361000000000007
 31
0.0
  0
LINE
  5
822
330
1E
100
AcDbEntity
  8
LABEL
100
AcDbLine
 10
31.505
 20
7.365000000000005
 30
0.0
 11
31.472
 21
7.365000000000005
 31
0.0
  0
LINE
  5
823
330
1E
100
AcDbEntity
  8
LABEL
100
AcDbLine
 10
31.505
 20
7.368000000000005
 30
0.0
 11
31.472
 21
7.368000000000005
 31
0.0
  0
LINE
  5
824
330
1E
100
AcDbEntity
  8
LABEL
100
AcDbLine
 10
31.521
 20
7.406000000000005
 30
0.0
 11
31.457
 21
7.406000000000005
 31
0.0
  0
LINE
  5
825
330
1E
100
AcDbEntity
  8
LABEL
100
AcDbLine
 10
31.521
 20
6.868000000000008
 30
0.0
 11
31.521
 21
7.006000000000006
 31
0.0
  0
LINE
  5
826
330
1E
100
AcDbEntity
  8
LABEL
100
AcDbLine
 10
31.457
 20
7.006000000000006
 30
0.0
 11
31.457
 21
6.868000000000008
 31
0.0
  0
LINE
  5
827
330
1E
100
AcDbEntity
  8
LABEL
100
AcDbLine
 10
31.457
 20
6.868000000000008
 30
0.0
 11
31.521
 21
6.868000000000008
 31
0.0
  0
LINE
  5
828
330
1E
100
AcDbEntity
  8
LABEL
100
AcDbLine
 10
31.505
 20
6.971000000000006
 30
0.0
 11
31.505
 21
6.900000000000008
 31
0.0
  0
LINE
  5
829
330
1E
100
AcDbEntity
  8
LABEL
100
AcDbLine
 10
31.472
 20
6.900000000000008
 30
0.0
 11
31.472
 21
6.971000000000006
 31
0.0
  0
LINE
  5
82A
330
1E
100
AcDbEntity
  8
LABEL
100
AcDbLine
 10
31.505
 20
6.900000000000008
 30
0.0
 11
31.472
 21
6.900000000000008
 31
0.0
  0
LINE
  5
82B
330
1E
100
AcDbEntity
  8
LABEL
100
AcDbLine
 10
31.472
 20
6.971000000000006
 30
0.0
 11
31.505
 21
6.971000000000006
 31
0.0
  0
LINE
  5
82C
330
1E
100
AcDbEntity
  8
LABEL
100
AcDbLine
 10
31.505
 20
6.945000000000006
 30
0.0
 11
31.472
 21
6.945000000000006
 31
0.0
  0
LINE
  5
82D
330
1E
100
AcDbEntity
  8
LABEL
100
AcDbLine
 10
31.505
 20
6.949000000000007
 30
0.0
 11
31.472
 21
6.949000000000007
 31
0.0
  0
LINE
  5
82E
330
1E
100
AcDbEntity
  8
LABEL
100
AcDbLine
 10
31.505
 20
6.953000000000007
 30
0.0
 11
31.472
 21
6.953000000000007
 31
0.0
  0
LINE
  5
82F
330
1E
100
AcDbEntity
  8
LABEL
100
AcDbLine
 10
31.505
 20
6.957000000000006
 30
0.0
 11
31.472
 21
6.957000000000006
 31
0.0
  0
LINE
  5
830
330
1E
100
AcDbEntity
  8
LABEL
100
AcDbLine
 10
31.505
 20
6.961000000000008
 30
0.0
 11
31.472
 21
6.961000000000008
 31
0.0
  0
LINE
  5
831
330
1E
100
AcDbEntity
  8
LABEL
100
AcDbLine
 10
31.505
 20
6.965000000000006
 30
0.0
 11
31.472
 21
6.965000000000006
 31
0.0
  0
LINE
  5
832
330
1E
100
AcDbEntity
  8
LABEL
100
AcDbLine
 10
31.505
 20
6.968000000000006
 30
0.0
 11
31.472
 21
6.968000000000006
 31
0.0
  0
LINE
  5
833
330
1E
100
AcDbEntity
  8
LABEL
100
AcDbLine
 10
31.521
 20
7.006000000000006
 30
0.0
 11
31.457
 21
7.006000000000006
 31
0.0
  0
LINE
  5
834
330
1E
100
AcDbEntity
  8
LABEL
100
AcDbLine
 10
31.522
 20
6.468000000000008
 30
0.0
 11
31.522
 21
6.606000000000006
 31
0.0
  0
LINE
  5
835
330
1E
100
AcDbEntity
  8
LABEL
100
AcDbLine
 10
31.458
 20
6.606000000000006
 30
0.0
 11
31.458
 21
6.468000000000008
 31
0.0
  0
LINE
  5
836
330
1E
100
AcDbEntity
  8
LABEL
100
AcDbLine
 10
31.458
 20
6.468000000000008
 30
0.0
 11
31.522
 21
6.468000000000008
 31
0.0
  0
LINE
  5
837
330
1E
100
AcDbEntity
  8
LABEL
100
AcDbLine
 10
31.506
 20
6.571000000000006
 30
0.0
 11
31.506
 21
6.500000000000008
 31
0.0
  0
LINE
  5
838
330
1E
100
AcDbEntity
  8
LABEL
100
AcDbLine
 10
31.473
 20
6.500000000000008
 30
0.0
 11
31.473
 21
6.571000000000006
 31
0.0
  0
LINE
  5
839
330
1E
100
AcDbEntity
  8
LABEL
100
AcDbLine
 10
31.506
 20
6.500000000000008
 30
0.0
 11
31.473
 21
6.500000000000008
 31
0.0
  0
LINE
  5
83A
330
1E
100
AcDbEntity
  8
LABEL
100
AcDbLine
 10
31.473
 20
6.571000000000006
 30
0.0
 11
31.506
 21
6.571000000000006
 31
0.0
  0
LINE
  5
83B
330
1E
100
AcDbEntity
  8
LABEL
100
AcDbLine
 10
31.506
 20
6.545000000000007
 30
0.0
 11
31.473
 21
6.545000000000007
 31
0.0
  0
LINE
  5
83C
330
1E
100
AcDbEntity
  8
LABEL
100
AcDbLine
 10
31.506
 20
6.549000000000008
 30
0.0
 11
31.473
 21
6.549000000000008
 31
0.0
  0
LINE
  5
83D
330
1E
100
AcDbEntity
  8
LABEL
100
AcDbLine
 10
31.506
 20
6.553000000000007
 30
0.0
 11
31.473
 21
6.553000000000007
 31
0.0
  0
LINE
  5
83E
330
1E
100
AcDbEntity
  8
LABEL
100
AcDbLine
 10
31.506
 20
6.557000000000007
 30
0.0
 11
31.473
 21
6.557000000000007
 31
0.0
  0
LINE
  5
83F
330
1E
100
AcDbEntity
  8
LABEL
100
AcDbLine
 10
31.506
 20
6.561000000000008
 30
0.0
 11
31.473
 21
6.561000000000008
 31
0.0
  0
LINE
  5
840
330
1E
100
AcDbEntity
  8
LABEL
100
AcDbLine
 10
31.506
 20
6.565000000000006
 30
0.0
 11
31.473
 21
6.565000000000006
 31
0.0
  0
LINE
  5
841
330
1E
100
AcDbEntity
  8
LABEL
100
AcDbLine
 10
31.506
 20
6.568000000000006
 30
0.0
 11
31.473
 21
6.568000000000006
 31
0.0
  0
LINE
  5
842
330
1E
100
AcDbEntity
  8
LABEL
100
AcDbLine
 10
31.522
 20
6.606000000000006
 30
0.0
 11
31.458
 21
6.606000000000006
 31
0.0
  0
LINE
  5
843
330
1E
100
AcDbEntity
  8
LABEL
100
AcDbLine
 10
31.505
 20
6.171000000000007
 30
0.0
 11
31.505
 21
6.100000000000009
 31
0.0
  0
LINE
  5
844
330
1E
100
AcDbEntity
  8
LABEL
100
AcDbLine
 10
31.521
 20
6.068000000000009
 30
0.0
 11
31.521
 21
6.206000000000007
 31
0.0
  0
LINE
  5
845
330
1E
100
AcDbEntity
  8
LABEL
100
AcDbLine
 10
31.47200000000001
 20
6.100000000000009
 30
0.0
 11
31.47200000000001
 21
6.171000000000007
 31
0.0
  0
LINE
  5
846
330
1E
100
AcDbEntity
  8
LABEL
100
AcDbLine
 10
31.45700000000001
 20
6.206000000000007
 30
0.0
 11
31.45700000000001
 21
6.068000000000009
 31
0.0
  0
LINE
  5
847
330
1E
100
AcDbEntity
  8
LABEL
100
AcDbLine
 10
31.45700000000001
 20
6.068000000000009
 30
0.0
 11
31.521
 21
6.068000000000009
 31
0.0
  0
LINE
  5
848
330
1E
100
AcDbEntity
  8
LABEL
100
AcDbLine
 10
31.505
 20
6.100000000000009
 30
0.0
 11
31.47200000000001
 21
6.100000000000009
 31
0.0
  0
LINE
  5
849
330
1E
100
AcDbEntity
  8
LABEL
100
AcDbLine
 10
31.47200000000001
 20
6.171000000000007
 30
0.0
 11
31.505
 21
6.171000000000007
 31
0.0
  0
LINE
  5
84A
330
1E
100
AcDbEntity
  8
LABEL
100
AcDbLine
 10
31.505
 20
6.145000000000007
 30
0.0
 11
31.47200000000001
 21
6.145000000000007
 31
0.0
  0
LINE
  5
84B
330
1E
100
AcDbEntity
  8
LABEL
100
AcDbLine
 10
31.505
 20
6.149000000000008
 30
0.0
 11
31.47200000000001
 21
6.149000000000008
 31
0.0
  0
LINE
  5
84C
330
1E
100
AcDbEntity
  8
LABEL
100
AcDbLine
 10
31.505
 20
6.153000000000008
 30
0.0
 11
31.47200000000001
 21
6.153000000000008
 31
0.0
  0
LINE
  5
84D
330
1E
100
AcDbEntity
  8
LABEL
100
AcDbLine
 10
31.505
 20
6.157000000000008
 30
0.0
 11
31.47200000000001
 21
6.157000000000008
 31
0.0
  0
LINE
  5
84E
330
1E
100
AcDbEntity
  8
LABEL
100
AcDbLine
 10
31.505
 20
6.161000000000009
 30
0.0
 11
31.47200000000001
 21
6.161000000000009
 31
0.0
  0
LINE
  5
84F
330
1E
100
AcDbEntity
  8
LABEL
100
AcDbLine
 10
31.505
 20
6.165000000000007
 30
0.0
 11
31.47200000000001
 21
6.165000000000007
 31
0.0
  0
LINE
  5
850
330
1E
100
AcDbEntity
  8
LABEL
100
AcDbLine
 10
31.505
 20
6.168000000000007
 30
0.0
 11
31.47200000000001
 21
6.168000000000007
 31
0.0
  0
LINE
  5
851
330
1E
100
AcDbEntity
  8
LABEL
100
AcDbLine
 10
31.521
 20
6.206000000000007
 30
0.0
 11
31.45700000000001
 21
6.206000000000007
 31
0.0
  0
LINE
  5
852
330
1E
100
AcDbEntity
  8
LABEL
100
AcDbLine
 10
31.50400000000001
 20
5.771000000000007
 30
0.0
 11
31.50400000000001
 21
5.700000000000009
 31
0.0
  0
LINE
  5
853
330
1E
100
AcDbEntity
  8
LABEL
100
AcDbLine
 10
31.52000000000001
 20
5.668000000000009
 30
0.0
 11
31.52000000000001
 21
5.806000000000008
 31
0.0
  0
LINE
  5
854
330
1E
100
AcDbEntity
  8
LABEL
100
AcDbLine
 10
31.471
 20
5.700000000000009
 30
0.0
 11
31.471
 21
5.771000000000007
 31
0.0
  0
LINE
  5
855
330
1E
100
AcDbEntity
  8
LABEL
100
AcDbLine
 10
31.456
 20
5.806000000000008
 30
0.0
 11
31.456
 21
5.668000000000009
 31
0.0
  0
LINE
  5
856
330
1E
100
AcDbEntity
  8
LABEL
100
AcDbLine
 10
31.456
 20
5.668000000000009
 30
0.0
 11
31.52000000000001
 21
5.668000000000009
 31
0.0
  0
LINE
  5
857
330
1E
100
AcDbEntity
  8
LABEL
100
AcDbLine
 10
31.50400000000001
 20
5.700000000000009
 30
0.0
 11
31.471
 21
5.700000000000009
 31
0.0
  0
LINE
  5
858
330
1E
100
AcDbEntity
  8
LABEL
100
AcDbLine
 10
31.471
 20
5.771000000000007
 30
0.0
 11
31.50400000000001
 21
5.771000000000007
 31
0.0
  0
LINE
  5
859
330
1E
100
AcDbEntity
  8
LABEL
100
AcDbLine
 10
31.50400000000001
 20
5.745000000000008
 30
0.0
 11
31.471
 21
5.745000000000008
 31
0.0
  0
LINE
  5
85A
330
1E
100
AcDbEntity
  8
LABEL
100
AcDbLine
 10
31.50400000000001
 20
5.749000000000009
 30
0.0
 11
31.471
 21
5.749000000000009
 31
0.0
  0
LINE
  5
85B
330
1E
100
AcDbEntity
  8
LABEL
100
AcDbLine
 10
31.50400000000001
 20
5.753000000000008
 30
0.0
 11
31.471
 21
5.753000000000008
 31
0.0
  0
LINE
  5
85C
330
1E
100
AcDbEntity
  8
LABEL
100
AcDbLine
 10
31.50400000000001
 20
5.757000000000008
 30
0.0
 11
31.471
 21
5.757000000000008
 31
0.0
  0
LINE
  5
85D
330
1E
100
AcDbEntity
  8
LABEL
100
AcDbLine
 10
31.50400000000001
 20
5.761000000000009
 30
0.0
 11
31.471
 21
5.761000000000009
 31
0.0
  0
LINE
  5
85E
330
1E
100
AcDbEntity
  8
LABEL
100
AcDbLine
 10
31.50400000000001
 20
5.765000000000007
 30
0.0
 11
31.471
 21
5.765000000000007
 31
0.0
  0
LINE
  5
85F
330
1E
100
AcDbEntity
  8
LABEL
100
AcDbLine
 10
31.50400000000001
 20
5.768000000000007
 30
0.0
 11
31.471
 21
5.768000000000007
 31
0.0
  0
LINE
  5
860
330
1E
100
AcDbEntity
  8
LABEL
100
AcDbLine
 10
31.52000000000001
 20
5.806000000000008
 30
0.0
 11
31.456
 21
5.806000000000008
 31
0.0
  0
LINE
  5
861
330
1E
100
AcDbEntity
  8
LABEL
100
AcDbLine
 10
31.505
 20
5.371000000000007
 30
0.0
 11
31.505
 21
5.300000000000009
 31
0.0
  0
LINE
  5
862
330
1E
100
AcDbEntity
  8
LABEL
100
AcDbLine
 10
31.521
 20
5.268000000000009
 30
0.0
 11
31.521
 21
5.406000000000007
 31
0.0
  0
LINE
  5
863
330
1E
100
AcDbEntity
  8
LABEL
100
AcDbLine
 10
31.472
 20
5.300000000000009
 30
0.0
 11
31.472
 21
5.371000000000007
 31
0.0
  0
LINE
  5
864
330
1E
100
AcDbEntity
  8
LABEL
100
AcDbLine
 10
31.457
 20
5.406000000000007
 30
0.0
 11
31.457
 21
5.268000000000009
 31
0.0
  0
LINE
  5
865
330
1E
100
AcDbEntity
  8
LABEL
100
AcDbLine
 10
31.457
 20
5.268000000000009
 30
0.0
 11
31.521
 21
5.268000000000009
 31
0.0
  0
LINE
  5
866
330
1E
100
AcDbEntity
  8
LABEL
100
AcDbLine
 10
31.505
 20
5.300000000000009
 30
0.0
 11
31.472
 21
5.300000000000009
 31
0.0
  0
LINE
  5
867
330
1E
100
AcDbEntity
  8
LABEL
100
AcDbLine
 10
31.472
 20
5.371000000000007
 30
0.0
 11
31.505
 21
5.371000000000007
 31
0.0
  0
LINE
  5
868
330
1E
100
AcDbEntity
  8
LABEL
100
AcDbLine
 10
31.505
 20
5.345000000000007
 30
0.0
 11
31.472
 21
5.345000000000007
 31
0.0
  0
LINE
  5
869
330
1E
100
AcDbEntity
  8
LABEL
100
AcDbLine
 10
31.505
 20
5.349000000000009
 30
0.0
 11
31.472
 21
5.349000000000009
 31
0.0
  0
LINE
  5
86A
330
1E
100
AcDbEntity
  8
LABEL
100
AcDbLine
 10
31.505
 20
5.353000000000008
 30
0.0
 11
31.472
 21
5.353000000000008
 31
0.0
  0
LINE
  5
86B
330
1E
100
AcDbEntity
  8
LABEL
100
AcDbLine
 10
31.505
 20
5.357000000000008
 30
0.0
 11
31.472
 21
5.357000000000008
 31
0.0
  0
LINE
  5
86C
330
1E
100
AcDbEntity
  8
LABEL
100
AcDbLine
 10
31.505
 20
5.361000000000009
 30
0.0
 11
31.472
 21
5.361000000000009
 31
0.0
  0
LINE
  5
86D
330
1E
100
AcDbEntity
  8
LABEL
100
AcDbLine
 10
31.505
 20
5.365000000000007
 30
0.0
 11
31.472
 21
5.365000000000007
 31
0.0
  0
LINE
  5
86E
330
1E
100
AcDbEntity
  8
LABEL
100
AcDbLine
 10
31.505
 20
5.368000000000007
 30
0.0
 11
31.472
 21
5.368000000000007
 31
0.0
  0
LINE
  5
86F
330
1E
100
AcDbEntity
  8
LABEL
100
AcDbLine
 10
31.521
 20
5.406000000000007
 30
0.0
 11
31.457
 21
5.406000000000007
 31
0.0
  0
ARC
  5
87E
330
1E
100
AcDbEntity
  8
LABEL
100
AcDbCircle
 10
37.23899999999999
 20
8.836999999999999
 30
0.0
 40
0.1180000000000003
100
AcDbArc
 50
0.0
 51
180.0
  0
LINE
  5
87F
330
1E
100
AcDbEntity
  8
LABEL
100
AcDbLine
 10
37.357
 20
8.836999999999999
 30
0.0
 11
37.357
 21
8.541999999999999
 31
0.0
  0
LINE
  5
880
330
1E
100
AcDbEntity
  8
LABEL
100
AcDbLine
 10
37.12099999999999
 20
8.836999999999999
 30
0.0
 11
37.12099999999999
 21
8.541999999999999
 31
0.0
  0
ARC
  5
881
330
1E
100
AcDbEntity
  8
LABEL
100
AcDbCircle
 10
37.23899999999999
 20
8.386891428571429
 30
0.0
 40
0.1948914285714288
100
AcDbArc
 50
127.2623329576325
 51
52.73766704236838
  0
LINE
  5
882
330
1E
100
AcDbEntity
  8
LABEL
100
AcDbLine
 10
37.12099999999999
 20
8.836999999999999
 30
0.0
 11
37.12099999999999
 21
8.836999999999999
 31
0.0
  0
LINE
  5
883
330
1E
100
AcDbEntity
  8
LABEL
100
AcDbLine
 10
37.357
 20
8.836999999999999
 30
0.0
 11
37.357
 21
8.836999999999999
 31
0.0
  0
ARC
  5
884
330
1E
100
AcDbEntity
  8
LABEL
100
AcDbCircle
 10
37.23899999999999
 20
2.336999999999999
 30
0.0
 40
0.1180000000000003
100
AcDbArc
 50
0.0
 51
179.9999999999999
  0
LINE
  5
885
330
1E
100
AcDbEntity
  8
LABEL
100
AcDbLine
 10
37.357
 20
2.336999999999999
 30
0.0
 11
37.357
 21
2.041999999999999
 31
0.0
  0
LINE
  5
886
330
1E
100
AcDbEntity
  8
LABEL
100
AcDbLine
 10
37.12099999999999
 20
2.336999999999999
 30
0.0
 11
37.12099999999999
 21
2.041999999999999
 31
0.0
  0
ARC
  5
887
330
1E
100
AcDbEntity
  8
LABEL
100
AcDbCircle
 10
37.23899999999999
 20
1.886891428571429
 30
0.0
 40
0.1948914285714288
100
AcDbArc
 50
127.2623329576325
 51
52.73766704236837
  0
LINE
  5
888
330
1E
100
AcDbEntity
  8
LABEL
100
AcDbLine
 10
37.12099999999999
 20
2.336999999999999
 30
0.0
 11
37.12099999999999
 21
2.336999999999999
 31
0.0
  0
LINE
  5
889
330
1E
100
AcDbEntity
  8
LABEL
100
AcDbLine
 10
37.357
 20
2.336999999999999
 30
0.0
 11
37.357
 21
2.336999999999999
 31
0.0
  0
ARC
  5
88A
330
1E
100
AcDbEntity
  8
LABEL
100
AcDbCircle
 10
30.739
 20
2.336999999999999
 30
0.0
 40
0.1180000000000003
100
AcDbArc
 50
0.0
 51
179.9999999999999
  0
LINE
  5
88B
330
1E
100
AcDbEntity
  8
LABEL
100
AcDbLine
 10
30.857
 20
2.336999999999999
 30
0.0
 11
30.857
 21
2.041999999999999
 31
0.0
  0
LINE
  5
88C
330
1E
100
AcDbEntity
  8
LABEL
100
AcDbLine
 10
30.62099999999999
 20
2.336999999999999
 30
0.0
 11
30.62099999999999
 21
2.041999999999999
 31
0.0
  0
ARC
  5
88D
330
1E
100
AcDbEntity
  8
LABEL
100
AcDbCircle
 10
30.739
 20
1.886891428571429
 30
0.0
 40
0.1948914285714288
100
AcDbArc
 50
127.2623329576323
 51
52.73766704236837
  0
LINE
  5
88E
330
1E
100
AcDbEntity
  8
LABEL
100
AcDbLine
 10
30.62099999999999
 20
2.336999999999999
 30
0.0
 11
30.62099999999999
 21
2.336999999999999
 31
0.0
  0
LINE
  5
88F
330
1E
100
AcDbEntity
  8
LABEL
100
AcDbLine
 10
30.857
 20
2.336999999999999
 30
0.0
 11
30.857
 21
2.336999999999999
 31
0.0
  0
ARC
  5
890
330
1E
100
AcDbEntity
  8
LABEL
100
AcDbCircle
 10
30.739
 20
8.836999999999999
 30
0.0
 40
0.1180000000000003
100
AcDbArc
 50
0.0
 51
180.0
  0
LINE
  5
891
330
1E
100
AcDbEntity
  8
LABEL
100
AcDbLine
 10
30.857
 20
8.836999999999999
 30
0.0
 11
30.857
 21
8.541999999999999
 31
0.0
  0
LINE
  5
892
330
1E
100
AcDbEntity
  8
LABEL
100
AcDbLine
 10
30.62099999999999
 20
8.836999999999999
 30
0.0
 11
30.62099999999999
 21
8.541999999999999
 31
0.0
  0
ARC
  5
893
330
1E
100
AcDbEntity
  8
LABEL
100
AcDbCircle
 10
30.739
 20
8.386891428571429
 30
0.0
 40
0.1948914285714288
100
AcDbArc
 50
127.2623329576323
 51
52.73766704236838
  0
LINE
  5
894
330
1E
100
AcDbEntity
  8
LABEL
100
AcDbLine
 10
30.62099999999999
 20
8.836999999999999
 30
0.0
 11
30.62099999999999
 21
8.836999999999999
 31
0.0
  0
LINE
  5
895
330
1E
100
AcDbEntity
  8
LABEL
100
AcDbLine
 10
30.857
 20
8.836999999999999
 30
0.0
 11
30.857
 21
8.836999999999999
 31
0.0
  0
LINE
  5
8F9
330
1E
100
AcDbEntity
  8
LABEL
100
AcDbLine
 10
36.85899999999999
 20
4.751000000000002
 30
0.0
 11
36.85899999999999
 21
2.042000000000005
 31
0.0
  0
LINE
  5
8FA
330
1E
100
AcDbEntity
  8
LABEL
100
AcDbLine
 10
36.55899999999999
 20
2.042000000000005
 30
0.0
 11
36.55899999999999
 21
4.751000000000002
 31
0.0
  0
LINE
  5
8FB
330
1E
100
AcDbEntity
  8
LABEL
100
AcDbLine
 10
36.83399999999999
 20
4.751000000000002
 30
0.0
 11
36.83399999999999
 21
2.042000000000005
 31
0.0
  0
CIRCLE
  5
8FD
330
1E
100
AcDbEntity
  8
LABEL
100
AcDbCircle
 10
36.70899999999999
 20
2.592000000000006
 30
0.0
 40
0.0610000000000106
  0
CIRCLE
  5
8FE
330
1E
100
AcDbEntity
  8
LABEL
100
AcDbCircle
 10
36.70899999999999
 20
2.192000000000015
 30
0.0
 40
0.0610000000000106
  0
LINE
  5
8FF
330
1E
100
AcDbEntity
  8
LABEL
100
AcDbLine
 10
36.85899999999999
 20
2.042000000000005
 30
0.0
 11
36.55899999999999
 21
2.042000000000005
 31
0.0
  0
ARC
  5
900
330
1E
100
AcDbEntity
  8
LABEL
100
AcDbCircle
 10
36.85899999999999
 20
2.042000000000002
 30
0.0
 40
0.0025000000000013
100
AcDbArc
 50
270.0
 51
90.0
  0
ARC
  5
901
330
1E
100
AcDbEntity
  8
LABEL
100
AcDbCircle
 10
36.85899999999999
 20
2.042000000000002
 30
0.0
 40
0.0025000000000013
100
AcDbArc
 50
90.0
 51
270.0
  0
ARC
  5
902
330
1E
100
AcDbEntity
  8
LABEL
100
AcDbCircle
 10
36.83399999999999
 20
2.042000000000002
 30
0.0
 40
0.0025000000000013
100
AcDbArc
 50
270.0
 51
90.0
  0
ARC
  5
903
330
1E
100
AcDbEntity
  8
LABEL
100
AcDbCircle
 10
36.83399999999999
 20
2.042000000000002
 30
0.0
 40
0.0025000000000013
100
AcDbArc
 50
90.0
 51
270.0
  0
ARC
  5
904
330
1E
100
AcDbEntity
  8
LABEL
100
AcDbCircle
 10
36.55899999999999
 20
2.042000000000002
 30
0.0
 40
0.0025000000000013
100
AcDbArc
 50
270.0
 51
90.0
  0
ARC
  5
905
330
1E
100
AcDbEntity
  8
LABEL
100
AcDbCircle
 10
36.55899999999999
 20
2.042000000000002
 30
0.0
 40
0.0025000000000013
100
AcDbArc
 50
90.0
 51
270.0
  0
ARC
  5
906
330
1E
100
AcDbEntity
  8
LABEL
100
AcDbCircle
 10
36.55899999999999
 20
2.042000000000002
 30
0.0
 40
0.0025000000000013
100
AcDbArc
 50
270.0
 51
90.0
  0
ARC
  5
907
330
1E
100
AcDbEntity
  8
LABEL
100
AcDbCircle
 10
36.55899999999999
 20
2.042000000000002
 30
0.0
 40
0.0025000000000013
100
AcDbArc
 50
90.0
 51
270.0
  0
LINE
  5
908
330
1E
100
AcDbEntity
  8
LABEL
100
AcDbLine
 10
36.55899999999999
 20
2.042000000000005
 30
0.0
 11
36.55899999999999
 21
2.042000000000005
 31
0.0
  0
LINE
  5
909
330
1E
100
AcDbEntity
  8
LABEL
100
AcDbLine
 10
36.65
 20
2.38000000000002
 30
0.0
 11
36.76899999999999
 21
2.38000000000002
 31
0.0
  0
LINE
  5
90A
330
1E
100
AcDbEntity
  8
LABEL
100
AcDbLine
 10
36.65
 20
2.404000000000021
 30
0.0
 11
36.76899999999999
 21
2.404000000000021
 31
0.0
  0
CIRCLE
  5
90B
330
1E
100
AcDbEntity
  8
LABEL
100
AcDbCircle
 10
36.70899999999999
 20
2.392000000000003
 30
0.0
 40
0.0610000000000106
  0
LINE
  5
90C
330
1E
100
AcDbEntity
  8
LABEL
100
AcDbLine
 10
36.65
 20
2.180000000000024
 30
0.0
 11
36.76899999999999
 21
2.180000000000024
 31
0.0
  0
LINE
  5
90D
330
1E
100
AcDbEntity
  8
LABEL
100
AcDbLine
 10
36.65
 20
2.204000000000025
 30
0.0
 11
36.76899999999999
 21
2.204000000000025
 31
0.0
  0
CIRCLE
  5
90E
330
1E
100
AcDbEntity
  8
LABEL
100
AcDbCircle
 10
36.70899999999999
 20
2.991999999999998
 30
0.0
 40
0.0610000000000106
  0
LINE
  5
90F
330
1E
100
AcDbEntity
  8
LABEL
100
AcDbLine
 10
36.65
 20
2.780000000000018
 30
0.0
 11
36.76899999999999
 21
2.780000000000018
 31
0.0
  0
LINE
  5
910
330
1E
100
AcDbEntity
  8
LABEL
100
AcDbLine
 10
36.65
 20
2.804000000000019
 30
0.0
 11
36.76899999999999
 21
2.804000000000019
 31
0.0
  0
CIRCLE
  5
911
330
1E
100
AcDbEntity
  8
LABEL
100
AcDbCircle
 10
36.70899999999999
 20
2.792000000000009
 30
0.0
 40
0.0610000000000106
  0
LINE
  5
912
330
1E
100
AcDbEntity
  8
LABEL
100
AcDbLine
 10
36.65
 20
2.580000000000016
 30
0.0
 11
36.76899999999999
 21
2.580000000000016
 31
0.0
  0
LINE
  5
913
330
1E
100
AcDbEntity
  8
LABEL
100
AcDbLine
 10
36.65
 20
2.604000000000016
 30
0.0
 11
36.76899999999999
 21
2.604000000000016
 31
0.0
  0
LINE
  5
914
330
1E
100
AcDbEntity
  8
LABEL
100
AcDbLine
 10
36.65
 20
3.180000000000017
 30
0.0
 11
36.76899999999999
 21
3.180000000000017
 31
0.0
  0
LINE
  5
915
330
1E
100
AcDbEntity
  8
LABEL
100
AcDbLine
 10
36.65
 20
3.204000000000018
 30
0.0
 11
36.76899999999999
 21
3.204000000000018
 31
0.0
  0
CIRCLE
  5
916
330
1E
100
AcDbEntity
  8
LABEL
100
AcDbCircle
 10
36.70899999999999
 20
3.192000000000001
 30
0.0
 40
0.0610000000000106
  0
LINE
  5
917
330
1E
100
AcDbEntity
  8
LABEL
100
AcDbLine
 10
36.65
 20
2.980000000000014
 30
0.0
 11
36.76899999999999
 21
2.980000000000014
 31
0.0
  0
LINE
  5
918
330
1E
100
AcDbEntity
  8
LABEL
100
AcDbLine
 10
36.65
 20
3.004000000000015
 30
0.0
 11
36.76899999999999
 21
3.004000000000015
 31
0.0
  0
LINE
  5
91B
330
1E
100
AcDbEntity
  8
LABEL
100
AcDbLine
 10
36.65
 20
3.38000000000002
 30
0.0
 11
36.76899999999999
 21
3.38000000000002
 31
0.0
  0
LINE
  5
91C
330
1E
100
AcDbEntity
  8
LABEL
100
AcDbLine
 10
36.65
 20
3.404000000000021
 30
0.0
 11
36.76899999999999
 21
3.404000000000021
 31
0.0
  0
CIRCLE
  5
91D
330
1E
100
AcDbEntity
  8
LABEL
100
AcDbCircle
 10
36.70899999999999
 20
3.392000000000003
 30
0.0
 40
0.0610000000000106
  0
LINE
  5
91E
330
1E
100
AcDbEntity
  8
LABEL
100
AcDbLine
 10
36.65
 20
3.580000000000016
 30
0.0
 11
36.76899999999999
 21
3.580000000000016
 31
0.0
  0
LINE
  5
91F
330
1E
100
AcDbEntity
  8
LABEL
100
AcDbLine
 10
36.65
 20
3.604000000000016
 30
0.0
 11
36.76899999999999
 21
3.604000000000016
 31
0.0
  0
CIRCLE
  5
920
330
1E
100
AcDbEntity
  8
LABEL
100
AcDbCircle
 10
36.70899999999999
 20
3.592000000000006
 30
0.0
 40
0.0610000000000106
  0
LINE
  5
921
330
1E
100
AcDbEntity
  8
LABEL
100
AcDbLine
 10
36.65
 20
3.780000000000018
 30
0.0
 11
36.76899999999999
 21
3.780000000000018
 31
0.0
  0
LINE
  5
922
330
1E
100
AcDbEntity
  8
LABEL
100
AcDbLine
 10
36.65
 20
3.804000000000019
 30
0.0
 11
36.76899999999999
 21
3.804000000000019
 31
0.0
  0
CIRCLE
  5
923
330
1E
100
AcDbEntity
  8
LABEL
100
AcDbCircle
 10
36.70899999999999
 20
3.792000000000009
 30
0.0
 40
0.0610000000000106
  0
LINE
  5
924
330
1E
100
AcDbEntity
  8
LABEL
100
AcDbLine
 10
36.65
 20
3.980000000000014
 30
0.0
 11
36.76899999999999
 21
3.980000000000014
 31
0.0
  0
LINE
  5
925
330
1E
100
AcDbEntity
  8
LABEL
100
AcDbLine
 10
36.65
 20
4.004000000000015
 30
0.0
 11
36.76899999999999
 21
4.004000000000015
 31
0.0
  0
CIRCLE
  5
926
330
1E
100
AcDbEntity
  8
LABEL
100
AcDbCircle
 10
36.70899999999999
 20
3.991999999999998
 30
0.0
 40
0.0610000000000106
  0
CIRCLE
  5
927
330
1E
100
AcDbEntity
  8
LABEL
100
AcDbCircle
 10
36.70899999999999
 20
4.391999999999996
 30
0.0
 40
0.0610000000000106
  0
LINE
  5
928
330
1E
100
AcDbEntity
  8
LABEL
100
AcDbLine
 10
36.65
 20
4.180000000000017
 30
0.0
 11
36.76899999999999
 21
4.180000000000017
 31
0.0
  0
LINE
  5
929
330
1E
100
AcDbEntity
  8
LABEL
100
AcDbLine
 10
36.65
 20
4.204000000000018
 30
0.0
 11
36.76899999999999
 21
4.204000000000018
 31
0.0
  0
CIRCLE
  5
92A
330
1E
100
AcDbEntity
  8
LABEL
100
AcDbCircle
 10
36.70899999999999
 20
4.192000000000001
 30
0.0
 40
0.0610000000000106
  0
LINE
  5
92B
330
1E
100
AcDbEntity
  8
LABEL
100
AcDbLine
 10
36.65
 20
4.380000000000013
 30
0.0
 11
36.76899999999999
 21
4.380000000000013
 31
0.0
  0
LINE
  5
92C
330
1E
100
AcDbEntity
  8
LABEL
100
AcDbLine
 10
36.65
 20
4.404000000000014
 30
0.0
 11
36.76899999999999
 21
4.404000000000014
 31
0.0
  0
LINE
  5
92D
330
1E
100
AcDbEntity
  8
LABEL
100
AcDbLine
 10
36.65
 20
4.580000000000016
 30
0.0
 11
36.76899999999999
 21
4.580000000000016
 31
0.0
  0
LINE
  5
92E
330
1E
100
AcDbEntity
  8
LABEL
100
AcDbLine
 10
36.65
 20
4.604000000000016
 30
0.0
 11
36.76899999999999
 21
4.604000000000016
 31
0.0
  0
CIRCLE
  5
92F
330
1E
100
AcDbEntity
  8
LABEL
100
AcDbCircle
 10
36.70899999999999
 20
4.591999999999999
 30
0.0
 40
0.0610000000000106
  0
LINE
  5
944
330
1E
100
AcDbEntity
  8
LABEL
100
AcDbLine
 10
36.55899999999999
 20
4.751000000000002
 30
0.0
 11
36.85899999999999
 21
4.751000000000002
 31
0.0
  0
CIRCLE
  5
94F
330
1E
100
AcDbEntity
  8
LABEL
100
AcDbCircle
 10
36.70899999999999
 20
6.147000000000003
 30
0.0
 40
0.0610000000000106
  0
LINE
  5
950
330
1E
100
AcDbEntity
  8
LABEL
100
AcDbLine
 10
36.85899999999999
 20
8.109000000000003
 30
0.0
 11
36.85899999999999
 21
4.797000000000005
 31
0.0
  0
LINE
  5
951
330
1E
100
AcDbEntity
  8
LABEL
100
AcDbLine
 10
36.55899999999999
 20
4.797000000000005
 30
0.0
 11
36.55899999999999
 21
8.109000000000003
 31
0.0
  0
LINE
  5
952
330
1E
100
AcDbEntity
  8
LABEL
100
AcDbLine
 10
36.83399999999999
 20
8.109000000000003
 30
0.0
 11
36.83399999999999
 21
4.797000000000005
 31
0.0
  0
CIRCLE
  5
953
330
1E
100
AcDbEntity
  8
LABEL
100
AcDbCircle
 10
36.70899999999999
 20
5.347000000000006
 30
0.0
 40
0.0610000000000106
  0
CIRCLE
  5
954
330
1E
100
AcDbEntity
  8
LABEL
100
AcDbCircle
 10
36.70899999999999
 20
4.947000000000015
 30
0.0
 40
0.0610000000000106
  0
LINE
  5
955
330
1E
100
AcDbEntity
  8
LABEL
100
AcDbLine
 10
36.85899999999999
 20
4.797000000000005
 30
0.0
 11
36.55899999999999
 21
4.797000000000005
 31
0.0
  0
LINE
  5
956
330
1E
100
AcDbEntity
  8
LABEL
100
AcDbLine
 10
36.55899999999999
 20
4.797000000000005
 30
0.0
 11
36.55899999999999
 21
4.797000000000005
 31
0.0
  0
ARC
  5
957
330
1E
100
AcDbEntity
  8
LABEL
100
AcDbCircle
 10
36.55899999999999
 20
4.797000000000002
 30
0.0
 40
0.0025000000000013
100
AcDbArc
 50
270.0
 51
90.0
  0
ARC
  5
958
330
1E
100
AcDbEntity
  8
LABEL
100
AcDbCircle
 10
36.55899999999999
 20
4.797000000000002
 30
0.0
 40
0.0025000000000013
100
AcDbArc
 50
90.0
 51
270.0
  0
ARC
  5
959
330
1E
100
AcDbEntity
  8
LABEL
100
AcDbCircle
 10
36.55899999999999
 20
4.797000000000002
 30
0.0
 40
0.0025000000000013
100
AcDbArc
 50
270.0
 51
90.0
  0
ARC
  5
95A
330
1E
100
AcDbEntity
  8
LABEL
100
AcDbCircle
 10
36.55899999999999
 20
4.797000000000002
 30
0.0
 40
0.0025000000000013
100
AcDbArc
 50
90.0
 51
270.0
  0
ARC
  5
95B
330
1E
100
AcDbEntity
  8
LABEL
100
AcDbCircle
 10
36.85899999999999
 20
4.797000000000002
 30
0.0
 40
0.0025000000000013
100
AcDbArc
 50
270.0
 51
90.0
  0
ARC
  5
95C
330
1E
100
AcDbEntity
  8
LABEL
100
AcDbCircle
 10
36.85899999999999
 20
4.797000000000002
 30
0.0
 40
0.0025000000000013
100
AcDbArc
 50
90.0
 51
270.0
  0
ARC
  5
95D
330
1E
100
AcDbEntity
  8
LABEL
100
AcDbCircle
 10
36.83399999999999
 20
4.797000000000002
 30
0.0
 40
0.0025000000000013
100
AcDbArc
 50
270.0
 51
90.0
  0
ARC
  5
95E
330
1E
100
AcDbEntity
  8
LABEL
100
AcDbCircle
 10
36.83399999999999
 20
4.797000000000002
 30
0.0
 40
0.0025000000000013
100
AcDbArc
 50
90.0
 51
270.0
  0
CIRCLE
  5
95F
330
1E
100
AcDbEntity
  8
LABEL
100
AcDbCircle
 10
36.70899999999999
 20
5.147000000000003
 30
0.0
 40
0.0610000000000106
  0
LINE
  5
960
330
1E
100
AcDbEntity
  8
LABEL
100
AcDbLine
 10
36.65
 20
4.935000000000024
 30
0.0
 11
36.76899999999999
 21
4.935000000000024
 31
0.0
  0
LINE
  5
961
330
1E
100
AcDbEntity
  8
LABEL
100
AcDbLine
 10
36.65
 20
4.959000000000025
 30
0.0
 11
36.76899999999999
 21
4.959000000000025
 31
0.0
  0
LINE
  5
962
330
1E
100
AcDbEntity
  8
LABEL
100
AcDbLine
 10
36.65
 20
5.13500000000002
 30
0.0
 11
36.76899999999999
 21
5.13500000000002
 31
0.0
  0
LINE
  5
963
330
1E
100
AcDbEntity
  8
LABEL
100
AcDbLine
 10
36.65
 20
5.159000000000021
 30
0.0
 11
36.76899999999999
 21
5.159000000000021
 31
0.0
  0
CIRCLE
  5
964
330
1E
100
AcDbEntity
  8
LABEL
100
AcDbCircle
 10
36.70899999999999
 20
5.746999999999998
 30
0.0
 40
0.0610000000000106
  0
CIRCLE
  5
965
330
1E
100
AcDbEntity
  8
LABEL
100
AcDbCircle
 10
36.70899999999999
 20
5.547000000000009
 30
0.0
 40
0.0610000000000106
  0
LINE
  5
966
330
1E
100
AcDbEntity
  8
LABEL
100
AcDbLine
 10
36.65
 20
5.535000000000018
 30
0.0
 11
36.76899999999999
 21
5.535000000000018
 31
0.0
  0
LINE
  5
967
330
1E
100
AcDbEntity
  8
LABEL
100
AcDbLine
 10
36.65
 20
5.335000000000015
 30
0.0
 11
36.76899999999999
 21
5.335000000000015
 31
0.0
  0
LINE
  5
968
330
1E
100
AcDbEntity
  8
LABEL
100
AcDbLine
 10
36.65
 20
5.359000000000016
 30
0.0
 11
36.76899999999999
 21
5.359000000000016
 31
0.0
  0
LINE
  5
969
330
1E
100
AcDbEntity
  8
LABEL
100
AcDbLine
 10
36.65
 20
5.735000000000014
 30
0.0
 11
36.76899999999999
 21
5.735000000000014
 31
0.0
  0
LINE
  5
96A
330
1E
100
AcDbEntity
  8
LABEL
100
AcDbLine
 10
36.65
 20
5.559000000000019
 30
0.0
 11
36.76899999999999
 21
5.559000000000019
 31
0.0
  0
CIRCLE
  5
96B
330
1E
100
AcDbEntity
  8
LABEL
100
AcDbCircle
 10
36.70899999999999
 20
5.947
 30
0.0
 40
0.0610000000000106
  0
LINE
  5
96C
330
1E
100
AcDbEntity
  8
LABEL
100
AcDbLine
 10
36.65
 20
5.935000000000017
 30
0.0
 11
36.76899999999999
 21
5.935000000000017
 31
0.0
  0
LINE
  5
96D
330
1E
100
AcDbEntity
  8
LABEL
100
AcDbLine
 10
36.65
 20
5.759000000000015
 30
0.0
 11
36.76899999999999
 21
5.759000000000015
 31
0.0
  0
LINE
  5
96E
330
1E
100
AcDbEntity
  8
LABEL
100
AcDbLine
 10
36.65
 20
6.13500000000002
 30
0.0
 11
36.76899999999999
 21
6.13500000000002
 31
0.0
  0
LINE
  5
96F
330
1E
100
AcDbEntity
  8
LABEL
100
AcDbLine
 10
36.65
 20
5.959000000000018
 30
0.0
 11
36.76899999999999
 21
5.959000000000018
 31
0.0
  0
CIRCLE
  5
970
330
1E
100
AcDbEntity
  8
LABEL
100
AcDbCircle
 10
36.70899999999999
 20
7.747000000000005
 30
0.0
 40
0.0610000000000106
  0
CIRCLE
  5
971
330
1E
100
AcDbEntity
  8
LABEL
100
AcDbCircle
 10
36.70899999999999
 20
6.947
 30
0.0
 40
0.0610000000000106
  0
CIRCLE
  5
972
330
1E
100
AcDbEntity
  8
LABEL
100
AcDbCircle
 10
36.70899999999999
 20
6.547000000000009
 30
0.0
 40
0.0610000000000106
  0
CIRCLE
  5
973
330
1E
100
AcDbEntity
  8
LABEL
100
AcDbCircle
 10
36.70899999999999
 20
6.347000000000006
 30
0.0
 40
0.0610000000000106
  0
LINE
  5
974
330
1E
100
AcDbEntity
  8
LABEL
100
AcDbLine
 10
36.65
 20
6.335000000000015
 30
0.0
 11
36.76899999999999
 21
6.335000000000015
 31
0.0
  0
LINE
  5
975
330
1E
100
AcDbEntity
  8
LABEL
100
AcDbLine
 10
36.65
 20
6.159000000000021
 30
0.0
 11
36.76899999999999
 21
6.159000000000021
 31
0.0
  0
LINE
  5
976
330
1E
100
AcDbEntity
  8
LABEL
100
AcDbLine
 10
36.65
 20
6.535000000000018
 30
0.0
 11
36.76899999999999
 21
6.535000000000018
 31
0.0
  0
LINE
  5
977
330
1E
100
AcDbEntity
  8
LABEL
100
AcDbLine
 10
36.65
 20
6.359000000000016
 30
0.0
 11
36.76899999999999
 21
6.359000000000016
 31
0.0
  0
CIRCLE
  5
978
330
1E
100
AcDbEntity
  8
LABEL
100
AcDbCircle
 10
36.70899999999999
 20
6.746999999999998
 30
0.0
 40
0.0610000000000106
  0
LINE
  5
979
330
1E
100
AcDbEntity
  8
LABEL
100
AcDbLine
 10
36.65
 20
6.735000000000014
 30
0.0
 11
36.76899999999999
 21
6.735000000000014
 31
0.0
  0
LINE
  5
97A
330
1E
100
AcDbEntity
  8
LABEL
100
AcDbLine
 10
36.65
 20
6.759000000000015
 30
0.0
 11
36.76899999999999
 21
6.759000000000015
 31
0.0
  0
LINE
  5
97B
330
1E
100
AcDbEntity
  8
LABEL
100
AcDbLine
 10
36.65
 20
6.559000000000019
 30
0.0
 11
36.76899999999999
 21
6.559000000000019
 31
0.0
  0
LINE
  5
97C
330
1E
100
AcDbEntity
  8
LABEL
100
AcDbLine
 10
36.65
 20
6.935000000000017
 30
0.0
 11
36.76899999999999
 21
6.935000000000017
 31
0.0
  0
LINE
  5
97D
330
1E
100
AcDbEntity
  8
LABEL
100
AcDbLine
 10
36.65
 20
6.959000000000018
 30
0.0
 11
36.76899999999999
 21
6.959000000000018
 31
0.0
  0
CIRCLE
  5
97E
330
1E
100
AcDbEntity
  8
LABEL
100
AcDbCircle
 10
36.70899999999999
 20
7.346999999999999
 30
0.0
 40
0.0610000000000106
  0
CIRCLE
  5
97F
330
1E
100
AcDbEntity
  8
LABEL
100
AcDbCircle
 10
36.70899999999999
 20
7.146999999999996
 30
0.0
 40
0.0610000000000106
  0
LINE
  5
980
330
1E
100
AcDbEntity
  8
LABEL
100
AcDbLine
 10
36.65
 20
7.135000000000013
 30
0.0
 11
36.76899999999999
 21
7.135000000000013
 31
0.0
  0
LINE
  5
981
330
1E
100
AcDbEntity
  8
LABEL
100
AcDbLine
 10
36.65
 20
7.159000000000014
 30
0.0
 11
36.76899999999999
 21
7.159000000000014
 31
0.0
  0
LINE
  5
982
330
1E
100
AcDbEntity
  8
LABEL
100
AcDbLine
 10
36.65
 20
7.335000000000015
 30
0.0
 11
36.76899999999999
 21
7.335000000000015
 31
0.0
  0
LINE
  5
983
330
1E
100
AcDbEntity
  8
LABEL
100
AcDbLine
 10
36.65
 20
7.359000000000016
 30
0.0
 11
36.76899999999999
 21
7.359000000000016
 31
0.0
  0
CIRCLE
  5
984
330
1E
100
AcDbEntity
  8
LABEL
100
AcDbCircle
 10
36.70899999999999
 20
7.547000000000002
 30
0.0
 40
0.0610000000000106
  0
LINE
  5
985
330
1E
100
AcDbEntity
  8
LABEL
100
AcDbLine
 10
36.65
 20
7.535000000000011
 30
0.0
 11
36.76899999999999
 21
7.535000000000011
 31
0.0
  0
LINE
  5
986
330
1E
100
AcDbEntity
  8
LABEL
100
AcDbLine
 10
36.65
 20
7.559000000000012
 30
0.0
 11
36.76899999999999
 21
7.559000000000012
 31
0.0
  0
LINE
  5
987
330
1E
100
AcDbEntity
  8
LABEL
100
AcDbLine
 10
36.65
 20
7.735000000000014
 30
0.0
 11
36.76899999999999
 21
7.735000000000014
 31
0.0
  0
LINE
  5
988
330
1E
100
AcDbEntity
  8
LABEL
100
AcDbLine
 10
36.65
 20
7.759000000000015
 30
0.0
 11
36.76899999999999
 21
7.759000000000015
 31
0.0
  0
CIRCLE
  5
98B
330
1E
100
AcDbEntity
  8
LABEL
100
AcDbCircle
 10
36.70899999999999
 20
7.947000000000008
 30
0.0
 40
0.0610000000000106
  0
LINE
  5
98C
330
1E
100
AcDbEntity
  8
LABEL
100
AcDbLine
 10
36.65
 20
7.935000000000017
 30
0.0
 11
36.76899999999999
 21
7.935000000000017
 31
0.0
  0
LINE
  5
98D
330
1E
100
AcDbEntity
  8
LABEL
100
AcDbLine
 10
36.65
 20
7.959000000000018
 30
0.0
 11
36.76899999999999
 21
7.959000000000018
 31
0.0
  0
LINE
  5
998
330
1E
100
AcDbEntity
  8
LABEL
100
AcDbLine
 10
36.55899999999999
 20
8.109000000000003
 30
0.0
 11
36.85899999999999
 21
8.109000000000003
 31
0.0
  0
LINE
  5
9A3
330
1E
100
AcDbEntity
  8
LABEL
100
AcDbLine
 10
31.119
 20
4.686000000000003
 30
0.0
 11
31.119
 21
8.387
 31
0.0
  0
LINE
  5
9A4
330
1E
100
AcDbEntity
  8
LABEL
100
AcDbLine
 10
31.41899999999999
 20
8.387
 30
0.0
 11
31.41899999999999
 21
4.686000000000003
 31
0.0
  0
LINE
  5
9A5
330
1E
100
AcDbEntity
  8
LABEL
100
AcDbLine
 10
31.14399999999999
 20
4.686000000000003
 30
0.0
 11
31.14399999999999
 21
8.387
 31
0.0
  0
LINE
  5
9A6
330
1E
100
AcDbEntity
  8
LABEL
100
AcDbLine
 10
31.32799999999999
 20
8.248999999999981
 30
0.0
 11
31.20899999999999
 21
8.248999999999981
 31
0.0
  0
LINE
  5
9A7
330
1E
100
AcDbEntity
  8
LABEL
100
AcDbLine
 10
31.32799999999999
 20
8.22499999999998
 30
0.0
 11
31.20899999999999
 21
8.22499999999998
 31
0.0
  0
LINE
  5
9A8
330
1E
100
AcDbEntity
  8
LABEL
100
AcDbLine
 10
31.119
 20
8.387
 30
0.0
 11
31.41899999999999
 21
8.387
 31
0.0
  0
CIRCLE
  5
9A9
330
1E
100
AcDbEntity
  8
LABEL
100
AcDbCircle
 10
31.269
 20
8.236999999999991
 30
0.0
 40
0.0610000000000106
  0
LINE
  5
9AA
330
1E
100
AcDbEntity
  8
LABEL
100
AcDbLine
 10
31.41899999999999
 20
8.387
 30
0.0
 11
31.41899999999999
 21
8.387
 31
0.0
  0
LINE
  5
9B3
330
1E
100
AcDbEntity
  8
LABEL
100
AcDbLine
 10
31.32799999999999
 20
7.848999999999989
 30
0.0
 11
31.20899999999999
 21
7.848999999999989
 31
0.0
  0
LINE
  5
9B4
330
1E
100
AcDbEntity
  8
LABEL
100
AcDbLine
 10
31.32799999999999
 20
7.824999999999988
 30
0.0
 11
31.20899999999999
 21
7.824999999999988
 31
0.0
  0
LINE
  5
9B5
330
1E
100
AcDbEntity
  8
LABEL
100
AcDbLine
 10
31.32799999999999
 20
8.048999999999985
 30
0.0
 11
31.20899999999999
 21
8.048999999999985
 31
0.0
  0
LINE
  5
9B6
330
1E
100
AcDbEntity
  8
LABEL
100
AcDbLine
 10
31.32799999999999
 20
8.024999999999984
 30
0.0
 11
31.20899999999999
 21
8.024999999999984
 31
0.0
  0
CIRCLE
  5
9B7
330
1E
100
AcDbEntity
  8
LABEL
100
AcDbCircle
 10
31.269
 20
8.037000000000002
 30
0.0
 40
0.0610000000000106
  0
CIRCLE
  5
9B8
330
1E
100
AcDbEntity
  8
LABEL
100
AcDbCircle
 10
31.269
 20
7.836999999999999
 30
0.0
 40
0.0610000000000106
  0
LINE
  5
9B9
330
1E
100
AcDbEntity
  8
LABEL
100
AcDbLine
 10
31.32799999999999
 20
7.42499999999999
 30
0.0
 11
31.20899999999999
 21
7.42499999999999
 31
0.0
  0
LINE
  5
9BA
330
1E
100
AcDbEntity
  8
LABEL
100
AcDbLine
 10
31.32799999999999
 20
7.44899999999999
 30
0.0
 11
31.20899999999999
 21
7.44899999999999
 31
0.0
  0
LINE
  5
9BB
330
1E
100
AcDbEntity
  8
LABEL
100
AcDbLine
 10
31.32799999999999
 20
7.624999999999985
 30
0.0
 11
31.20899999999999
 21
7.624999999999985
 31
0.0
  0
LINE
  5
9BC
330
1E
100
AcDbEntity
  8
LABEL
100
AcDbLine
 10
31.32799999999999
 20
7.648999999999986
 30
0.0
 11
31.20899999999999
 21
7.648999999999986
 31
0.0
  0
CIRCLE
  5
9BD
330
1E
100
AcDbEntity
  8
LABEL
100
AcDbCircle
 10
31.269
 20
7.636999999999996
 30
0.0
 40
0.0610000000000106
  0
CIRCLE
  5
9BE
330
1E
100
AcDbEntity
  8
LABEL
100
AcDbCircle
 10
31.269
 20
7.437000000000008
 30
0.0
 40
0.0610000000000106
  0
LINE
  5
9BF
330
1E
100
AcDbEntity
  8
LABEL
100
AcDbLine
 10
31.32799999999999
 20
7.024999999999985
 30
0.0
 11
31.20899999999999
 21
7.024999999999985
 31
0.0
  0
LINE
  5
9C0
330
1E
100
AcDbEntity
  8
LABEL
100
AcDbLine
 10
31.32799999999999
 20
7.048999999999986
 30
0.0
 11
31.20899999999999
 21
7.048999999999986
 31
0.0
  0
LINE
  5
9C1
330
1E
100
AcDbEntity
  8
LABEL
100
AcDbLine
 10
31.32799999999999
 20
7.224999999999987
 30
0.0
 11
31.20899999999999
 21
7.224999999999987
 31
0.0
  0
LINE
  5
9C2
330
1E
100
AcDbEntity
  8
LABEL
100
AcDbLine
 10
31.32799999999999
 20
7.248999999999988
 30
0.0
 11
31.20899999999999
 21
7.248999999999988
 31
0.0
  0
CIRCLE
  5
9C3
330
1E
100
AcDbEntity
  8
LABEL
100
AcDbCircle
 10
31.269
 20
7.237000000000005
 30
0.0
 40
0.0610000000000106
  0
CIRCLE
  5
9C4
330
1E
100
AcDbEntity
  8
LABEL
100
AcDbCircle
 10
31.269
 20
7.037000000000002
 30
0.0
 40
0.0610000000000106
  0
LINE
  5
9C5
330
1E
100
AcDbEntity
  8
LABEL
100
AcDbLine
 10
31.32799999999999
 20
6.624999999999986
 30
0.0
 11
31.20899999999999
 21
6.624999999999986
 31
0.0
  0
LINE
  5
9C6
330
1E
100
AcDbEntity
  8
LABEL
100
AcDbLine
 10
31.32799999999999
 20
6.648999999999987
 30
0.0
 11
31.20899999999999
 21
6.648999999999987
 31
0.0
  0
LINE
  5
9C7
330
1E
100
AcDbEntity
  8
LABEL
100
AcDbLine
 10
31.32799999999999
 20
6.824999999999989
 30
0.0
 11
31.20899999999999
 21
6.824999999999989
 31
0.0
  0
LINE
  5
9C8
330
1E
100
AcDbEntity
  8
LABEL
100
AcDbLine
 10
31.32799999999999
 20
6.84899999999999
 30
0.0
 11
31.20899999999999
 21
6.84899999999999
 31
0.0
  0
CIRCLE
  5
9C9
330
1E
100
AcDbEntity
  8
LABEL
100
AcDbCircle
 10
31.269
 20
6.836999999999999
 30
0.0
 40
0.0610000000000106
  0
CIRCLE
  5
9CA
330
1E
100
AcDbEntity
  8
LABEL
100
AcDbCircle
 10
31.269
 20
6.636999999999996
 30
0.0
 40
0.0610000000000106
  0
CIRCLE
  5
9CB
330
1E
100
AcDbEntity
  8
LABEL
100
AcDbCircle
 10
31.269
 20
4.837000000000006
 30
0.0
 40
0.0610000000000106
  0
LINE
  5
9CC
330
1E
100
AcDbEntity
  8
LABEL
100
AcDbLine
 10
31.32799999999999
 20
6.248999999999989
 30
0.0
 11
31.20899999999999
 21
6.248999999999989
 31
0.0
  0
LINE
  5
9CD
330
1E
100
AcDbEntity
  8
LABEL
100
AcDbLine
 10
31.32799999999999
 20
6.224999999999988
 30
0.0
 11
31.20899999999999
 21
6.224999999999988
 31
0.0
  0
LINE
  5
9CE
330
1E
100
AcDbEntity
  8
LABEL
100
AcDbLine
 10
31.32799999999999
 20
6.448999999999991
 30
0.0
 11
31.20899999999999
 21
6.448999999999991
 31
0.0
  0
LINE
  5
9CF
330
1E
100
AcDbEntity
  8
LABEL
100
AcDbLine
 10
31.32799999999999
 20
6.42499999999999
 30
0.0
 11
31.20899999999999
 21
6.42499999999999
 31
0.0
  0
CIRCLE
  5
9D0
330
1E
100
AcDbEntity
  8
LABEL
100
AcDbCircle
 10
31.269
 20
6.437000000000008
 30
0.0
 40
0.0610000000000106
  0
CIRCLE
  5
9D1
330
1E
100
AcDbEntity
  8
LABEL
100
AcDbCircle
 10
31.269
 20
6.237000000000005
 30
0.0
 40
0.0610000000000106
  0
LINE
  5
9D2
330
1E
100
AcDbEntity
  8
LABEL
100
AcDbLine
 10
31.32799999999999
 20
5.84899999999999
 30
0.0
 11
31.20899999999999
 21
5.84899999999999
 31
0.0
  0
LINE
  5
9D3
330
1E
100
AcDbEntity
  8
LABEL
100
AcDbLine
 10
31.32799999999999
 20
5.824999999999989
 30
0.0
 11
31.20899999999999
 21
5.824999999999989
 31
0.0
  0
LINE
  5
9D4
330
1E
100
AcDbEntity
  8
LABEL
100
AcDbLine
 10
31.32799999999999
 20
6.048999999999993
 30
0.0
 11
31.20899999999999
 21
6.048999999999993
 31
0.0
  0
LINE
  5
9D5
330
1E
100
AcDbEntity
  8
LABEL
100
AcDbLine
 10
31.32799999999999
 20
6.024999999999992
 30
0.0
 11
31.20899999999999
 21
6.024999999999992
 31
0.0
  0
CIRCLE
  5
9D6
330
1E
100
AcDbEntity
  8
LABEL
100
AcDbCircle
 10
31.269
 20
6.037000000000009
 30
0.0
 40
0.0610000000000106
  0
CIRCLE
  5
9D7
330
1E
100
AcDbEntity
  8
LABEL
100
AcDbCircle
 10
31.269
 20
5.837000000000006
 30
0.0
 40
0.0610000000000106
  0
LINE
  5
9D8
330
1E
100
AcDbEntity
  8
LABEL
100
AcDbLine
 10
31.32799999999999
 20
5.448999999999991
 30
0.0
 11
31.20899999999999
 21
5.448999999999991
 31
0.0
  0
LINE
  5
9D9
330
1E
100
AcDbEntity
  8
LABEL
100
AcDbLine
 10
31.32799999999999
 20
5.42499999999999
 30
0.0
 11
31.20899999999999
 21
5.42499999999999
 31
0.0
  0
LINE
  5
9DA
330
1E
100
AcDbEntity
  8
LABEL
100
AcDbLine
 10
31.32799999999999
 20
5.648999999999994
 30
0.0
 11
31.20899999999999
 21
5.648999999999994
 31
0.0
  0
LINE
  5
9DB
330
1E
100
AcDbEntity
  8
LABEL
100
AcDbLine
 10
31.32799999999999
 20
5.624999999999993
 30
0.0
 11
31.20899999999999
 21
5.624999999999993
 31
0.0
  0
CIRCLE
  5
9DC
330
1E
100
AcDbEntity
  8
LABEL
100
AcDbCircle
 10
31.269
 20
5.637000000000004
 30
0.0
 40
0.0610000000000106
  0
CIRCLE
  5
9DD
330
1E
100
AcDbEntity
  8
LABEL
100
AcDbCircle
 10
31.269
 20
5.437000000000001
 30
0.0
 40
0.0610000000000106
  0
LINE
  5
9DE
330
1E
100
AcDbEntity
  8
LABEL
100
AcDbLine
 10
31.32799999999999
 20
5.048999999999994
 30
0.0
 11
31.20899999999999
 21
5.048999999999994
 31
0.0
  0
LINE
  5
9DF
330
1E
100
AcDbEntity
  8
LABEL
100
AcDbLine
 10
31.32799999999999
 20
5.024999999999993
 30
0.0
 11
31.20899999999999
 21
5.024999999999993
 31
0.0
  0
LINE
  5
9E0
330
1E
100
AcDbEntity
  8
LABEL
100
AcDbLine
 10
31.32799999999999
 20
5.248999999999989
 30
0.0
 11
31.20899999999999
 21
5.248999999999989
 31
0.0
  0
LINE
  5
9E1
330
1E
100
AcDbEntity
  8
LABEL
100
AcDbLine
 10
31.32799999999999
 20
5.224999999999988
 30
0.0
 11
31.20899999999999
 21
5.224999999999988
 31
0.0
  0
CIRCLE
  5
9E2
330
1E
100
AcDbEntity
  8
LABEL
100
AcDbCircle
 10
31.269
 20
5.236999999999998
 30
0.0
 40
0.0610000000000106
  0
CIRCLE
  5
9E3
330
1E
100
AcDbEntity
  8
LABEL
100
AcDbCircle
 10
31.269
 20
5.037000000000009
 30
0.0
 40
0.0610000000000106
  0
LINE
  5
9E7
330
1E
100
AcDbEntity
  8
LABEL
100
AcDbLine
 10
31.32799999999999
 20
4.848999999999991
 30
0.0
 11
31.20899999999999
 21
4.848999999999991
 31
0.0
  0
LINE
  5
9E8
330
1E
100
AcDbEntity
  8
LABEL
100
AcDbLine
 10
31.32799999999999
 20
4.82499999999999
 30
0.0
 11
31.20899999999999
 21
4.82499999999999
 31
0.0
  0
LINE
  5
9EA
330
1E
100
AcDbEntity
  8
LABEL
100
AcDbLine
 10
31.41899999999999
 20
4.686000000000003
 30
0.0
 11
31.119
 21
4.686000000000003
 31
0.0
  0
LINE
  5
9F7
330
1E
100
AcDbEntity
  8
LABEL
100
AcDbLine
 10
31.14399999999999
 20
3.329000000000003
 30
0.0
 11
31.14399999999999
 21
4.637000000000001
 31
0.0
  0
LINE
  5
9F8
330
1E
100
AcDbEntity
  8
LABEL
100
AcDbLine
 10
31.41899999999999
 20
4.637000000000001
 30
0.0
 11
31.41899999999999
 21
3.329000000000003
 31
0.0
  0
LINE
  5
9F9
330
1E
100
AcDbEntity
  8
LABEL
100
AcDbLine
 10
31.119
 20
3.329000000000003
 30
0.0
 11
31.119
 21
4.637000000000001
 31
0.0
  0
LINE
  5
9FB
330
1E
100
AcDbEntity
  8
LABEL
100
AcDbLine
 10
31.41899999999999
 20
3.329000000000003
 30
0.0
 11
31.119
 21
3.329000000000003
 31
0.0
  0
CIRCLE
  5
A24
330
1E
100
AcDbEntity
  8
LABEL
100
AcDbCircle
 10
31.269
 20
4.486999999999992
 30
0.0
 40
0.0610000000000106
  0
CIRCLE
  5
A25
330
1E
100
AcDbEntity
  8
LABEL
100
AcDbCircle
 10
31.269
 20
3.687000000000009
 30
0.0
 40
0.0610000000000106
  0
CIRCLE
  5
A2C
330
1E
100
AcDbEntity
  8
LABEL
100
AcDbCircle
 10
31.269
 20
3.487000000000006
 30
0.0
 40
0.0610000000000106
  0
LINE
  5
A2D
330
1E
100
AcDbEntity
  8
LABEL
100
AcDbLine
 10
31.32799999999999
 20
3.498999999999989
 30
0.0
 11
31.20899999999999
 21
3.498999999999989
 31
0.0
  0
LINE
  5
A2E
330
1E
100
AcDbEntity
  8
LABEL
100
AcDbLine
 10
31.32799999999999
 20
3.474999999999988
 30
0.0
 11
31.20899999999999
 21
3.474999999999988
 31
0.0
  0
LINE
  5
A2F
330
1E
100
AcDbEntity
  8
LABEL
100
AcDbLine
 10
31.32799999999999
 20
3.698999999999991
 30
0.0
 11
31.20899999999999
 21
3.698999999999991
 31
0.0
  0
LINE
  5
A30
330
1E
100
AcDbEntity
  8
LABEL
100
AcDbLine
 10
31.32799999999999
 20
3.67499999999999
 30
0.0
 11
31.20899999999999
 21
3.67499999999999
 31
0.0
  0
CIRCLE
  5
A31
330
1E
100
AcDbEntity
  8
LABEL
100
AcDbCircle
 10
31.269
 20
4.087
 30
0.0
 40
0.0610000000000106
  0
CIRCLE
  5
A32
330
1E
100
AcDbEntity
  8
LABEL
100
AcDbCircle
 10
31.269
 20
3.886999999999997
 30
0.0
 40
0.0610000000000106
  0
LINE
  5
A33
330
1E
100
AcDbEntity
  8
LABEL
100
AcDbLine
 10
31.32799999999999
 20
3.898999999999987
 30
0.0
 11
31.20899999999999
 21
3.898999999999987
 31
0.0
  0
LINE
  5
A34
330
1E
100
AcDbEntity
  8
LABEL
100
AcDbLine
 10
31.32799999999999
 20
3.874999999999986
 30
0.0
 11
31.20899999999999
 21
3.874999999999986
 31
0.0
  0
LINE
  5
A35
330
1E
100
AcDbEntity
  8
LABEL
100
AcDbLine
 10
31.32799999999999
 20
4.074999999999989
 30
0.0
 11
31.20899999999999
 21
4.074999999999989
 31
0.0
  0
LINE
  5
A36
330
1E
100
AcDbEntity
  8
LABEL
100
AcDbLine
 10
31.32799999999999
 20
4.09899999999999
 30
0.0
 11
31.20899999999999
 21
4.09899999999999
 31
0.0
  0
CIRCLE
  5
A37
330
1E
100
AcDbEntity
  8
LABEL
100
AcDbCircle
 10
31.269
 20
4.287000000000003
 30
0.0
 40
0.0610000000000106
  0
LINE
  5
A38
330
1E
100
AcDbEntity
  8
LABEL
100
AcDbLine
 10
31.32799999999999
 20
4.274999999999985
 30
0.0
 11
31.20899999999999
 21
4.274999999999985
 31
0.0
  0
LINE
  5
A39
330
1E
100
AcDbEntity
  8
LABEL
100
AcDbLine
 10
31.32799999999999
 20
4.298999999999986
 30
0.0
 11
31.20899999999999
 21
4.298999999999986
 31
0.0
  0
LINE
  5
A3A
330
1E
100
AcDbEntity
  8
LABEL
100
AcDbLine
 10
31.32799999999999
 20
4.47499999999998
 30
0.0
 11
31.20899999999999
 21
4.47499999999998
 31
0.0
  0
LINE
  5
A3B
330
1E
100
AcDbEntity
  8
LABEL
100
AcDbLine
 10
31.32799999999999
 20
4.498999999999981
 30
0.0
 11
31.20899999999999
 21
4.498999999999981
 31
0.0
  0
LINE
  5
A3C
330
1E
100
AcDbEntity
  8
LABEL
100
AcDbLine
 10
31.119
 20
4.637000000000001
 30
0.0
 11
31.41899999999999
 21
4.637000000000001
 31
0.0
  0
ARC
  5
A40
330
1E
100
AcDbEntity
  8
LABEL
100
AcDbCircle
 10
31.119
 20
4.637000000000004
 30
0.0
 40
0.0025000000000013
100
AcDbArc
 50
90.0
 51
270.0
  0
LINE
  5
A45
330
1E
100
AcDbEntity
  8
LABEL
100
AcDbLine
 10
31.41899999999999
 20
4.637000000000001
 30
0.0
 11
31.41899999999999
 21
4.637000000000001
 31
0.0
  0
LINE
  5
A9A
330
1E
100
AcDbEntity
  8
LABEL
100
AcDbLine
 10
31.14399999999999
 20
2.095000000000003
 30
0.0
 11
31.14399999999999
 21
2.607000000000001
 31
0.0
  0
LINE
  5
A9B
330
1E
100
AcDbEntity
  8
LABEL
100
AcDbLine
 10
31.119
 20
2.095000000000003
 30
0.0
 11
31.119
 21
2.607000000000001
 31
0.0
  0
LINE
  5
A9C
330
1E
100
AcDbEntity
  8
LABEL
100
AcDbLine
 10
31.41899999999999
 20
2.607000000000001
 30
0.0
 11
31.41899999999999
 21
2.095000000000003
 31
0.0
  0
LINE
  5
A9D
330
1E
100
AcDbEntity
  8
LABEL
100
AcDbLine
 10
31.41899999999999
 20
2.095000000000003
 30
0.0
 11
31.119
 21
2.095000000000003
 31
0.0
  0
LINE
  5
AAA
330
1E
100
AcDbEntity
  8
LABEL
100
AcDbLine
 10
31.32799999999999
 20
2.244999999999985
 30
0.0
 11
31.20899999999999
 21
2.244999999999985
 31
0.0
  0
LINE
  5
AAB
330
1E
100
AcDbEntity
  8
LABEL
100
AcDbLine
 10
31.32799999999999
 20
2.268999999999985
 30
0.0
 11
31.20899999999999
 21
2.268999999999985
 31
0.0
  0
CIRCLE
  5
AAC
330
1E
100
AcDbEntity
  8
LABEL
100
AcDbCircle
 10
31.269
 20
2.257000000000003
 30
0.0
 40
0.0610000000000106
  0
LINE
  5
AAD
330
1E
100
AcDbEntity
  8
LABEL
100
AcDbLine
 10
31.32799999999999
 20
2.44499999999998
 30
0.0
 11
31.20899999999999
 21
2.44499999999998
 31
0.0
  0
LINE
  5
AAE
330
1E
100
AcDbEntity
  8
LABEL
100
AcDbLine
 10
31.32799999999999
 20
2.468999999999981
 30
0.0
 11
31.20899999999999
 21
2.468999999999981
 31
0.0
  0
CIRCLE
  5
AAF
330
1E
100
AcDbEntity
  8
LABEL
100
AcDbCircle
 10
31.269
 20
2.456999999999991
 30
0.0
 40
0.0610000000000106
  0
LINE
  5
AB0
330
1E
100
AcDbEntity
  8
LABEL
100
AcDbLine
 10
31.119
 20
2.607000000000001
 30
0.0
 11
31.41899999999999
 21
2.607000000000001
 31
0.0
  0
LINE
  5
AB9
330
1E
100
AcDbEntity
  8
LABEL
100
AcDbLine
 10
31.41899999999999
 20
2.607000000000001
 30
0.0
 11
31.41899999999999
 21
2.607000000000001
 31
0.0
  0
LINE
  5
B14
330
1E
100
AcDbEntity
  8
LABEL
100
AcDbLine
 10
34.068
 20
9.082000000000004
 30
0.0
 11
35.16899999999999
 21
9.082000000000004
 31
0.0
  0
LINE
  5
B15
330
1E
100
AcDbEntity
  8
LABEL
100
AcDbLine
 10
35.16899999999999
 20
8.782000000000003
 30
0.0
 11
34.068
 21
8.782000000000003
 31
0.0
  0
LINE
  5
B16
330
1E
100
AcDbEntity
  8
LABEL
100
AcDbLine
 10
34.068
 20
9.057000000000002
 30
0.0
 11
35.16899999999999
 21
9.057000000000002
 31
0.0
  0
CIRCLE
  5
B18
330
1E
100
AcDbEntity
  8
LABEL
100
AcDbCircle
 10
34.61899999999999
 20
8.932000000000002
 30
0.0
 40
0.0610000000000106
  0
CIRCLE
  5
B19
330
1E
100
AcDbEntity
  8
LABEL
100
AcDbCircle
 10
35.01899999999998
 20
8.932000000000002
 30
0.0
 40
0.0610000000000106
  0
LINE
  5
B1A
330
1E
100
AcDbEntity
  8
LABEL
100
AcDbLine
 10
35.16899999999999
 20
9.082000000000004
 30
0.0
 11
35.16899999999999
 21
8.782000000000003
 31
0.0
  0
LINE
  5
B23
330
1E
100
AcDbEntity
  8
LABEL
100
AcDbLine
 10
35.16899999999999
 20
8.782000000000003
 30
0.0
 11
35.16899999999999
 21
8.782000000000003
 31
0.0
  0
LINE
  5
B24
330
1E
100
AcDbEntity
  8
LABEL
100
AcDbLine
 10
34.83099999999998
 20
8.873000000000006
 30
0.0
 11
34.83099999999998
 21
8.992000000000007
 31
0.0
  0
LINE
  5
B25
330
1E
100
AcDbEntity
  8
LABEL
100
AcDbLine
 10
34.80699999999998
 20
8.873000000000006
 30
0.0
 11
34.80699999999998
 21
8.992000000000007
 31
0.0
  0
CIRCLE
  5
B26
330
1E
100
AcDbEntity
  8
LABEL
100
AcDbCircle
 10
34.81899999999999
 20
8.932000000000002
 30
0.0
 40
0.0610000000000106
  0
LINE
  5
B27
330
1E
100
AcDbEntity
  8
LABEL
100
AcDbLine
 10
35.03099999999998
 20
8.873000000000006
 30
0.0
 11
35.03099999999998
 21
8.992000000000007
 31
0.0
  0
LINE
  5
B28
330
1E
100
AcDbEntity
  8
LABEL
100
AcDbLine
 10
35.00699999999997
 20
8.873000000000006
 30
0.0
 11
35.00699999999997
 21
8.992000000000007
 31
0.0
  0
CIRCLE
  5
B29
330
1E
100
AcDbEntity
  8
LABEL
100
AcDbCircle
 10
34.219
 20
8.932000000000002
 30
0.0
 40
0.0610000000000106
  0
LINE
  5
B2A
330
1E
100
AcDbEntity
  8
LABEL
100
AcDbLine
 10
34.43099999999998
 20
8.873000000000006
 30
0.0
 11
34.43099999999998
 21
8.992000000000007
 31
0.0
  0
LINE
  5
B2B
330
1E
100
AcDbEntity
  8
LABEL
100
AcDbLine
 10
34.40699999999998
 20
8.873000000000006
 30
0.0
 11
34.40699999999998
 21
8.992000000000007
 31
0.0
  0
CIRCLE
  5
B2C
330
1E
100
AcDbEntity
  8
LABEL
100
AcDbCircle
 10
34.41899999999999
 20
8.932000000000002
 30
0.0
 40
0.0610000000000106
  0
LINE
  5
B2D
330
1E
100
AcDbEntity
  8
LABEL
100
AcDbLine
 10
34.63099999999998
 20
8.873000000000006
 30
0.0
 11
34.63099999999998
 21
8.992000000000007
 31
0.0
  0
LINE
  5
B2E
330
1E
100
AcDbEntity
  8
LABEL
100
AcDbLine
 10
34.60699999999998
 20
8.873000000000006
 30
0.0
 11
34.60699999999998
 21
8.992000000000007
 31
0.0
  0
LINE
  5
B32
330
1E
100
AcDbEntity
  8
LABEL
100
AcDbLine
 10
34.23099999999998
 20
8.873000000000006
 30
0.0
 11
34.23099999999998
 21
8.992000000000007
 31
0.0
  0
LINE
  5
B33
330
1E
100
AcDbEntity
  8
LABEL
100
AcDbLine
 10
34.20699999999998
 20
8.873000000000006
 30
0.0
 11
34.20699999999998
 21
8.992000000000007
 31
0.0
  0
LINE
  5
B5F
330
1E
100
AcDbEntity
  8
LABEL
100
AcDbLine
 10
34.068
 20
8.782000000000003
 30
0.0
 11
34.068
 21
9.082000000000004
 31
0.0
  0
LINE
  5
B83
330
1E
100
AcDbEntity
  8
SMT
100
AcDbLine
 10
36.38896176990759
 20
8.461999999999999
 30
0.0
 11
34.05699999999999
 21
8.461999999999999
 31
0.0
  0
LINE
  5
B84
330
1E
100
AcDbEntity
  8
SMT
100
AcDbLine
 10
34.05699999999999
 20
8.461999999999999
 30
0.0
 11
34.05699999999999
 21
8.339000000000003
 31
0.0
  0
LINE
  5
B85
330
1E
100
AcDbEntity
  8
SMT
100
AcDbLine
 10
34.05699999999999
 20
8.339000000000003
 30
0.0
 11
33.35399999999999
 21
8.339000000000003
 31
0.0
  0
LINE
  5
B86
330
1E
100
AcDbEntity
  8
SMT
100
AcDbLine
 10
33.35399999999999
 20
8.339000000000003
 30
0.0
 11
33.35399999999999
 21
8.461999999999999
 31
0.0
  0
ENDSEC
  0
SECTION
  2
OBJECTS
  0
DICTIONARY
  5
C
330
0
100
AcDbDictionary
281
     1
  3
ACAD_GROUP
350
D
  3
ACAD_LAYOUT
350
19
  3
ACAD_MLINESTYLE
350
16
  3
ACAD_PLOTSETTINGS
350
18
  3
ACAD_PLOTSTYLENAME
350
E
  3
DWGPROPS
350
89C
  0
DICTIONARY
  5
D
102
{ACAD_REACTORS
330
C
102
}
330
C
100
AcDbDictionary
281
     1
  0
DICTIONARY
  5
19
102
{ACAD_REACTORS
330
C
102
}
330
C
100
AcDbDictionary
281
     1
  3
Layout1
350
1D
  3
Model
350
21
  0
DICTIONARY
  5
16
102
{ACAD_REACTORS
330
C
102
}
330
C
100
AcDbDictionary
281
     1
  3
Standard
350
17
  0
DICTIONARY
  5
18
102
{ACAD_REACTORS
330
C
102
}
330
C
100
AcDbDictionary
281
     1
  0
ACDBDICTIONARYWDFLT
  5
E
102
{ACAD_REACTORS
330
C
102
}
330
C
100
AcDbDictionary
281
     1
  3
Normal
350
F
100
AcDbDictionaryWithDefault
340
F
  0
XRECORD
  5
89C
102
{ACAD_REACTORS
330
C
102
}
330
C
100
AcDbXrecord
280
     1
  1
DWGPROPS COOKIE
  2

  3

  4

  6

  7

  8
tphillipsmain
  9

300
=
301
=
302
=
303
=
304
=
305
=
306
=
307
=
308
=
309
=
 40
1.307342569444444
 41
2452286.583729514
 42
2453578.652965278
  1

 90
        0
  0
LAYOUT
  5
1D
102
{ACAD_REACTORS
330
19
102
}
330
19
100
AcDbPlotSettings
  1

  2
\\ENGPRINTSERV\QMS 2425 Eng Printer
  4

  6

 40
0.0
 41
0.0
 42
0.0
 43
0.0
 44
0.0
 45
0.0
 46
0.0
 47
0.0
 48
0.0
 49
0.0
140
0.0
141
0.0
142
1.0
143
1.0
 70
   688
 72
     0
 73
     0
 74
     5
  7

 75
    16
147
1.0
148
0.0
149
0.0
100
AcDbLayout
  1
Layout1
 70
     0
 71
     1
 10
0.0
 20
0.0
 11
12.0
 21
9.0
 12
0.0
 22
0.0
 32
0.0
 14
1.000000000000000E+20
 24
1.000000000000000E+20
 34
1.000000000000000E+20
 15
-1.000000000000000E+20
 25
-1.000000000000000E+20
 35
-1.000000000000000E+20
146
0.0
 13
0.0
 23
0.0
 33
0.0
 16
1.0
 26
0.0
 36
0.0
 17
0.0
 27
1.0
 37
0.0
 76
     0
330
1A
  0
LAYOUT
  5
21
102
{ACAD_REACTORS
330
19
102
}
330
19
100
AcDbPlotSettings
  1

  2
none_device
  4
Letter_(8.50_x_11.00_Inches)
  6

 40
6.349999904632568
 41
6.349999904632568
 42
6.350006103515625
 43
6.350006103515625
 44
215.8999938964843
 45
279.3999938964843
 46
0.0
 47
0.0
 48
0.0
 49
0.0
140
0.0
141
0.0
142
1.0
143
1.0
 70
 11952
 72
     0
 73
     1
 74
     0
  7

 75
     0
147
1.0
148
-704.0064842963271
149
-11.20240341099005
100
AcDbLayout
  1
Model
 70
     1
 71
     0
 10
0.0
 20
0.0
 11
12.0
 21
9.0
 12
0.0
 22
0.0
 32
0.0
 14
0.0
 24
0.0
 34
0.0
 15
0.0
 25
0.0
 35
0.0
146
0.0
 13
0.0
 23
0.0
 33
0.0
 16
1.0
 26
0.0
 36
0.0
 17
0.0
 27
1.0
 37
0.0
 76
     0
330
1E
  0
MLINESTYLE
  5
17
102
{ACAD_REACTORS
330
16
102
}
330
16
100
AcDbMlineStyle
  2
STANDARD
 70
     0
  3

 62
   256
 51
90.0
 52
90.0
 71
     2
 49
0.5
 62
   256
  6
BYLAYER
 49
-0.5
 62
   256
  6
BYLAYER
  0
ACDBPLACEHOLDER
  5
F
102
{ACAD_REACTORS
330
E
102
}
330
E
  0
ENDSEC
  0
EOF
