  0
SECTION
  2
HEADER
  9
$ACADVER
  1
AC1015
  9
$ACADMAINTVER
 70
    10
  9
$DWGCODEPAGE
  3
ANSI_1252
  9
$INSBASE
 10
0.0
 20
0.0
 30
0.0
  9
$EXTMIN
 10
16.0555
 20
3.125999999999999
 30
0.0
  9
$EXTMAX
 10
22.2365
 20
7.172999999999993
 30
0.0
  9
$LIMMIN
 10
5.185000000000001
 20
4.510000000000001
  9
$LIMMAX
 10
15.715
 20
12.53
  9
$ORTHOMODE
 70
     1
  9
$REGENMODE
 70
     1
  9
$FILLMODE
 70
     1
  9
$QTEXTMODE
 70
     0
  9
$MIRRTEXT
 70
     1
  9
$LTSCALE
 40
1.0
  9
$ATTMODE
 70
     1
  9
$TEXTSIZE
 40
0.2
  9
$TRACEWID
 40
0.05
  9
$TEXTSTYLE
  7
STANDARD
  9
$CLAYER
  8
DIMS
  9
$CELTYPE
  6
ByLayer
  9
$CECOLOR
 62
   256
  9
$CELTSCALE
 40
1.0
  9
$DISPSILH
 70
     0
  9
$DIMSCALE
 40
1.0
  9
$DIMASZ
 40
0.18
  9
$DIMEXO
 40
0.0625
  9
$DIMDLI
 40
0.38
  9
$DIMRND
 40
0.0
  9
$DIMDLE
 40
0.0
  9
$DIMEXE
 40
0.18
  9
$DIMTP
 40
0.0
  9
$DIMTM
 40
0.0
  9
$DIMTXT
 40
0.12
  9
$DIMCEN
 40
0.09
  9
$DIMTSZ
 40
0.0
  9
$DIMTOL
 70
     0
  9
$DIMLIM
 70
     0
  9
$DIMTIH
 70
     1
  9
$DIMTOH
 70
     1
  9
$DIMSE1
 70
     0
  9
$DIMSE2
 70
     0
  9
$DIMTAD
 70
     0
  9
$DIMZIN
 70
     0
  9
$DIMBLK
  1

  9
$DIMASO
 70
     1
  9
$DIMSHO
 70
     1
  9
$DIMPOST
  1

  9
$DIMAPOST
  1

  9
$DIMALT
 70
     0
  9
$DIMALTD
 70
     2
  9
$DIMALTF
 40
25.4
  9
$DIMLFAC
 40
1.0
  9
$DIMTOFL
 70
     0
  9
$DIMTVP
 40
0.0
  9
$DIMTIX
 70
     0
  9
$DIMSOXD
 70
     0
  9
$DIMSAH
 70
     0
  9
$DIMBLK1
  1

  9
$DIMBLK2
  1

  9
$DIMSTYLE
  2
Standard
  9
$DIMCLRD
 70
     0
  9
$DIMCLRE
 70
     0
  9
$DIMCLRT
 70
     0
  9
$DIMTFAC
 40
1.5
  9
$DIMGAP
 40
0.09
  9
$DIMJUST
 70
     0
  9
$DIMSD1
 70
     0
  9
$DIMSD2
 70
     0
  9
$DIMTOLJ
 70
     1
  9
$DIMTZIN
 70
     0
  9
$DIMALTZ
 70
     0
  9
$DIMALTTZ
 70
     0
  9
$DIMUPT
 70
     0
  9
$DIMDEC
 70
     4
  9
$DIMTDEC
 70
     4
  9
$DIMALTU
 70
     2
  9
$DIMALTTD
 70
     2
  9
$DIMTXSTY
  7
STANDARD
  9
$DIMAUNIT
 70
     0
  9
$DIMADEC
 70
     0
  9
$DIMALTRND
 40
0.0
  9
$DIMAZIN
 70
     0
  9
$DIMDSEP
 70
    46
  9
$DIMATFIT
 70
     3
  9
$DIMFRAC
 70
     0
  9
$DIMLDRBLK
  1

  9
$DIMLUNIT
 70
     2
  9
$DIMLWD
 70
    -2
  9
$DIMLWE
 70
    -2
  9
$DIMTMOVE
 70
     2
  9
$LUNITS
 70
     2
  9
$LUPREC
 70
     4
  9
$SKETCHINC
 40
0.1
  9
$FILLETRAD
 40
0.5
  9
$AUNITS
 70
     0
  9
$AUPREC
 70
     0
  9
$MENU
  1
acad
  9
$ELEVATION
 40
0.0
  9
$PELEVATION
 40
0.0
  9
$THICKNESS
 40
0.0
  9
$LIMCHECK
 70
     0
  9
$CHAMFERA
 40
0.5
  9
$CHAMFERB
 40
0.5
  9
$CHAMFERC
 40
0.0
  9
$CHAMFERD
 40
0.0
  9
$SKPOLY
 70
     0
  9
$TDCREATE
 40
2452472.651303588
  9
$TDUCREATE
 40
2452472.984636921
  9
$TDUPDATE
 40
2453692.459479444
  9
$TDUUPDATE
 40
2453692.792812777
  9
$TDINDWG
 40
0.3940151389
  9
$TDUSRTIMER
 40
0.3940151389
  9
$USRTIMER
 70
     1
  9
$ANGBASE
 50
0.0
  9
$ANGDIR
 70
     0
  9
$PDMODE
 70
     0
  9
$PDSIZE
 40
0.0
  9
$PLINEWID
 40
0.0
  9
$SPLFRAME
 70
     0
  9
$SPLINETYPE
 70
     6
  9
$SPLINESEGS
 70
     8
  9
$HANDSEED
  5
1EA6
  9
$SURFTAB1
 70
     6
  9
$SURFTAB2
 70
     6
  9
$SURFTYPE
 70
     6
  9
$SURFU
 70
     6
  9
$SURFV
 70
     6
  9
$UCSBASE
  2

  9
$UCSNAME
  2

  9
$UCSORG
 10
22.21547944343821
 20
6.820848100017354
 30
0.0
  9
$UCSXDIR
 10
1.0
 20
0.0
 30
0.0
  9
$UCSYDIR
 10
0.0
 20
1.0
 30
0.0
  9
$UCSORTHOREF
  2

  9
$UCSORTHOVIEW
 70
     0
  9
$UCSORGTOP
 10
0.0
 20
0.0
 30
0.0
  9
$UCSORGBOTTOM
 10
0.0
 20
0.0
 30
0.0
  9
$UCSORGLEFT
 10
0.0
 20
0.0
 30
0.0
  9
$UCSORGRIGHT
 10
0.0
 20
0.0
 30
0.0
  9
$UCSORGFRONT
 10
0.0
 20
0.0
 30
0.0
  9
$UCSORGBACK
 10
0.0
 20
0.0
 30
0.0
  9
$PUCSBASE
  2

  9
$PUCSNAME
  2

  9
$PUCSORG
 10
0.0
 20
0.0
 30
0.0
  9
$PUCSXDIR
 10
1.0
 20
0.0
 30
0.0
  9
$PUCSYDIR
 10
0.0
 20
1.0
 30
0.0
  9
$PUCSORTHOREF
  2

  9
$PUCSORTHOVIEW
 70
     0
  9
$PUCSORGTOP
 10
0.0
 20
0.0
 30
0.0
  9
$PUCSORGBOTTOM
 10
0.0
 20
0.0
 30
0.0
  9
$PUCSORGLEFT
 10
0.0
 20
0.0
 30
0.0
  9
$PUCSORGRIGHT
 10
0.0
 20
0.0
 30
0.0
  9
$PUCSORGFRONT
 10
0.0
 20
0.0
 30
0.0
  9
$PUCSORGBACK
 10
0.0
 20
0.0
 30
0.0
  9
$USERI1
 70
     0
  9
$USERI2
 70
     0
  9
$USERI3
 70
     0
  9
$USERI4
 70
     0
  9
$USERI5
 70
     0
  9
$USERR1
 40
0.0
  9
$USERR2
 40
0.0
  9
$USERR3
 40
0.0
  9
$USERR4
 40
0.0
  9
$USERR5
 40
0.0
  9
$WORLDVIEW
 70
     1
  9
$SHADEDGE
 70
     3
  9
$SHADEDIF
 70
    70
  9
$TILEMODE
 70
     1
  9
$MAXACTVP
 70
    16
  9
$PINSBASE
 10
0.0
 20
0.0
 30
0.0
  9
$PLIMCHECK
 70
     0
  9
$PEXTMIN
 10
1.000000000000000E+20
 20
1.000000000000000E+20
 30
1.000000000000000E+20
  9
$PEXTMAX
 10
-1.000000000000000E+20
 20
-1.000000000000000E+20
 30
-1.000000000000000E+20
  9
$PLIMMIN
 10
0.0
 20
0.0
  9
$PLIMMAX
 10
12.0
 20
9.0
  9
$UNITMODE
 70
     0
  9
$VISRETAIN
 70
     0
  9
$PLINEGEN
 70
     0
  9
$PSLTSCALE
 70
     0
  9
$TREEDEPTH
 70
  3020
  9
$CMLSTYLE
  2
Standard
  9
$CMLJUST
 70
     0
  9
$CMLSCALE
 40
1.0
  9
$PROXYGRAPHICS
 70
     1
  9
$MEASUREMENT
 70
     0
  9
$CELWEIGHT
370
    -1
  9
$ENDCAPS
280
     0
  9
$JOINSTYLE
280
     0
  9
$LWDISPLAY
290
     0
  9
$INSUNITS
 70
     0
  9
$HYPERLINKBASE
  1

  9
$STYLESHEET
  1

  9
$XEDIT
290
     1
  9
$CEPSNTYPE
380
     0
  9
$PSTYLEMODE
290
     1
  9
$FINGERPRINTGUID
  2
{65A2EF40-6E70-45E6-9FCD-8EA1D572A183}
  9
$VERSIONGUID
  2
{6585CF11-8980-41A0-8811-C1C51253D3B2}
  9
$EXTNAMES
290
     1
  9
$PSVPSCALE
 40
0.0
  9
$OLESTARTUP
290
     0
  0
ENDSEC
  0
SECTION
  2
CLASSES
  0
CLASS
  1
ACDBDICTIONARYWDFLT
  2
AcDbDictionaryWithDefault
  3
AutoCAD 2000
 90
        0
280
     0
281
     0
  0
CLASS
  1
ACDBPLACEHOLDER
  2
AcDbPlaceHolder
  3
AutoCAD 2000
 90
        0
280
     0
281
     0
  0
CLASS
  1
LAYOUT
  2
AcDbLayout
  3
AutoCAD 2000
 90
        0
280
     0
281
     0
  0
ENDSEC
  0
SECTION
  2
TABLES
  0
TABLE
  2
VPORT
  5
8
330
0
100
AcDbSymbolTable
 70
     2
  0
VPORT
  5
1EA5
330
8
100
AcDbSymbolTableRecord
100
AcDbViewportTableRecord
  2
*Active
 70
     0
 10
0.0
 20
0.0
 11
1.0
 21
1.0
 12
19.48989785151802
 22
1.84197598333765
 13
0.0
 23
0.0
 14
0.001
 24
0.001
 15
0.001
 25
0.001
 16
0.0
 26
0.0
 36
1.0
 17
0.0
 27
0.0
 37
0.0
 40
11.43607458093607
 41
1.767754318618042
 42
50.0
 43
0.0
 44
0.0
 50
0.0
 51
0.0
 71
     0
 72
   100
 73
     1
 74
     0
 75
     1
 76
     1
 77
     0
 78
     0
281
     0
 65
     1
110
22.21547944343821
120
6.820848100017354
130
0.0
111
1.0
121
0.0
131
0.0
112
0.0
122
1.0
132
0.0
 79
     0
146
0.0
  0
ENDTAB
  0
TABLE
  2
LTYPE
  5
5
330
0
100
AcDbSymbolTable
 70
     1
  0
LTYPE
  5
13
330
5
100
AcDbSymbolTableRecord
100
AcDbLinetypeTableRecord
  2
ByBlock
 70
     0
  3

 72
    65
 73
     0
 40
0.0
  0
LTYPE
  5
14
330
5
100
AcDbSymbolTableRecord
100
AcDbLinetypeTableRecord
  2
ByLayer
 70
     0
  3

 72
    65
 73
     0
 40
0.0
  0
LTYPE
  5
15
330
5
100
AcDbSymbolTableRecord
100
AcDbLinetypeTableRecord
  2
CONTINUOUS
 70
     0
  3
Solid line
 72
    65
 73
     0
 40
0.0
  0
ENDTAB
  0
TABLE
  2
LAYER
  5
2
330
0
100
AcDbSymbolTable
 70
     3
  0
LAYER
  5
10
330
2
100
AcDbSymbolTableRecord
100
AcDbLayerTableRecord
  2
0
 70
     0
 62
     7
  6
CONTINUOUS
370
    -3
390
F
  0
LAYER
  5
29
330
2
100
AcDbSymbolTableRecord
100
AcDbLayerTableRecord
  2
DEFPOINTS
 70
     0
 62
     7
  6
CONTINUOUS
290
     0
370
    -3
390
F
  0
LAYER
  5
2A
330
2
100
AcDbSymbolTableRecord
100
AcDbLayerTableRecord
  2
DIMS
 70
     0
 62
     7
  6
CONTINUOUS
370
    -3
390
F
  0
ENDTAB
  0
TABLE
  2
STYLE
  5
3
330
0
100
AcDbSymbolTable
 70
     1
  0
STYLE
  5
11
330
3
100
AcDbSymbolTableRecord
100
AcDbTextStyleTableRecord
  2
STANDARD
 70
     0
 40
0.0
 41
1.0
 50
0.0
 71
     0
 42
0.2
  3
txt
  4

  0
ENDTAB
  0
TABLE
  2
VIEW
  5
6
330
0
100
AcDbSymbolTable
 70
     0
  0
ENDTAB
  0
TABLE
  2
UCS
  5
7
330
0
100
AcDbSymbolTable
 70
     0
  0
ENDTAB
  0
TABLE
  2
APPID
  5
9
330
0
100
AcDbSymbolTable
 70
     1
  0
APPID
  5
12
330
9
100
AcDbSymbolTableRecord
100
AcDbRegAppTableRecord
  2
ACAD
 70
     0
  0
ENDTAB
  0
TABLE
  2
DIMSTYLE
  5
A
330
0
100
AcDbSymbolTable
 70
     1
100
AcDbDimStyleTable
 71
     1
340
166
  0
DIMSTYLE
105
166
330
A
100
AcDbSymbolTableRecord
100
AcDbDimStyleTableRecord
  2
Standard
 70
     0
340
11
  0
ENDTAB
  0
TABLE
  2
BLOCK_RECORD
  5
1
330
0
100
AcDbSymbolTable
 70
     0
  0
BLOCK_RECORD
  5
1E
330
1
100
AcDbSymbolTableRecord
100
AcDbBlockTableRecord
  2
*Model_Space
340
21
  0
BLOCK_RECORD
  5
1A
330
1
100
AcDbSymbolTableRecord
100
AcDbBlockTableRecord
  2
*Paper_Space
340
1D
  0
ENDTAB
  0
ENDSEC
  0
SECTION
  2
BLOCKS
  0
BLOCK
  5
2E
330
1E
100
AcDbEntity
  8
0
100
AcDbBlockBegin
  2
*Model_Space
 70
     0
 10
0.0
 20
0.0
 30
0.0
  3
*Model_Space
  1

  0
ENDBLK
  5
2F
330
1E
100
AcDbEntity
  8
0
100
AcDbBlockEnd
  0
BLOCK
  5
2C
330
1A
100
AcDbEntity
 67
     1
  8
0
100
AcDbBlockBegin
  2
*Paper_Space
 70
     0
 10
0.0
 20
0.0
 30
0.0
  3
*Paper_Space
  1

  0
ENDBLK
  5
2D
330
1A
100
AcDbEntity
 67
     1
  8
0
100
AcDbBlockEnd
  0
ENDSEC
  0
SECTION
  2
ENTITIES
  0
LINE
  5
61
330
1E
100
AcDbEntity
  8
0
100
AcDbLine
 10
22.157
 20
4.321499999999998
 30
0.0
 11
22.157
 21
5.9815
 31
0.0
  0
LINE
  5
62
330
1E
100
AcDbEntity
  8
0
100
AcDbLine
 10
22.2365
 20
4.232499999999999
 30
0.0
 11
22.2365
 21
6.0655
 31
0.0
  0
LINE
  5
63
330
1E
100
AcDbEntity
  8
0
100
AcDbLine
 10
16.13499999999999
 20
5.9815
 30
0.0
 11
16.13499999999999
 21
4.321499999999998
 31
0.0
  0
LINE
  5
64
330
1E
100
AcDbEntity
  8
0
100
AcDbLine
 10
16.0555
 20
6.0655
 30
0.0
 11
16.0555
 21
4.232499999999999
 31
0.0
  0
LINE
  5
65
330
1E
100
AcDbEntity
  8
0
100
AcDbLine
 10
16.13499999999999
 20
4.321499999999998
 30
0.0
 11
22.157
 21
4.321499999999998
 31
0.0
  0
LINE
  5
66
330
1E
100
AcDbEntity
  8
0
100
AcDbLine
 10
16.0555
 20
4.232499999999999
 30
0.0
 11
22.2365
 21
4.232499999999999
 31
0.0
  0
LINE
  5
67
330
1E
100
AcDbEntity
  8
0
100
AcDbLine
 10
22.2365
 20
3.9565
 30
0.0
 11
16.0555
 21
3.9565
 31
0.0
  0
LINE
  5
68
330
1E
100
AcDbEntity
  8
0
100
AcDbLine
 10
22.2365
 20
3.456999999999999
 30
0.0
 11
16.0555
 21
3.456999999999999
 31
0.0
  0
LINE
  5
69
330
1E
100
AcDbEntity
  8
0
100
AcDbLine
 10
16.0555
 20
3.456999999999999
 30
0.0
 11
16.0555
 21
4.232499999999999
 31
0.0
  0
LINE
  5
6A
330
1E
100
AcDbEntity
  8
0
100
AcDbLine
 10
22.2365
 20
4.232499999999999
 30
0.0
 11
22.2365
 21
3.456999999999999
 31
0.0
  0
LINE
  5
6B
330
1E
100
AcDbEntity
  8
0
100
AcDbLine
 10
22.157
 20
5.9815
 30
0.0
 11
16.13499999999999
 21
5.9815
 31
0.0
  0
LINE
  5
6C
330
1E
100
AcDbEntity
  8
0
100
AcDbLine
 10
22.2365
 20
6.0655
 30
0.0
 11
16.0555
 21
6.0655
 31
0.0
  0
LINE
  5
6D
330
1E
100
AcDbEntity
  8
0
100
AcDbLine
 10
16.0555
 20
6.3405
 30
0.0
 11
22.2365
 21
6.3405
 31
0.0
  0
LINE
  5
6E
330
1E
100
AcDbEntity
  8
0
100
AcDbLine
 10
16.0555
 20
6.0655
 30
0.0
 11
16.0555
 21
6.841
 31
0.0
  0
LINE
  5
6F
330
1E
100
AcDbEntity
  8
0
100
AcDbLine
 10
16.0555
 20
6.841
 30
0.0
 11
22.2365
 21
6.841
 31
0.0
  0
LINE
  5
70
330
1E
100
AcDbEntity
  8
0
100
AcDbLine
 10
22.2365
 20
6.841
 30
0.0
 11
22.2365
 21
6.0655
 31
0.0
  0
LINE
  5
A5
330
1E
100
AcDbEntity
  8
0
100
AcDbLine
 10
16.15099999999999
 20
5.964
 30
0.0
 11
22.14099999999999
 21
5.964
 31
0.0
  0
LINE
  5
A6
330
1E
100
AcDbEntity
  8
0
100
AcDbLine
 10
16.15099999999999
 20
4.333999999999999
 30
0.0
 11
22.14099999999999
 21
4.333999999999999
 31
0.0
  0
TEXT
  5
A7
330
1E
100
AcDbEntity
  8
0
100
AcDbText
 10
16.86133333333332
 20
4.708999999999997
 30
0.0
 40
0.05
  1
COM5
 72
     1
 11
16.95299999999998
 21
4.708999999999997
 31
0.0
100
AcDbText
  0
LINE
  5
A8
330
1E
100
AcDbEntity
  8
0
100
AcDbLine
 10
16.31799999999999
 20
4.885999999999999
 30
0.0
 11
16.31799999999999
 21
4.582
 31
0.0
  0
LINE
  5
A9
330
1E
100
AcDbEntity
  8
0
100
AcDbLine
 10
16.82199999999999
 20
4.885999999999999
 30
0.0
 11
16.82199999999999
 21
4.582
 31
0.0
  0
LINE
  5
AA
330
1E
100
AcDbEntity
  8
0
100
AcDbLine
 10
16.15099999999999
 20
4.333999999999999
 30
0.0
 11
16.15099999999999
 21
5.964
 31
0.0
  0
LINE
  5
AB
330
1E
100
AcDbEntity
  8
0
100
AcDbLine
 10
16.775
 20
4.538
 30
0.0
 11
16.775
 21
4.572
 31
0.0
  0
TEXT
  5
AC
330
1E
100
AcDbEntity
  8
0
100
AcDbText
 10
16.34933333333333
 20
4.508999999999998
 30
0.0
 40
0.05
  1
+
 72
     1
 11
16.366
 21
4.508999999999998
 31
0.0
100
AcDbText
  0
LINE
  5
AD
330
1E
100
AcDbEntity
  8
0
100
AcDbLine
 10
16.77499999999999
 20
4.477999999999999
 30
0.0
 11
16.81099999999999
 21
4.538
 31
0.0
  0
LINE
  5
AE
330
1E
100
AcDbEntity
  8
0
100
AcDbLine
 10
16.81099999999999
 20
4.538
 30
0.0
 11
16.73899999999999
 21
4.538
 31
0.0
  0
LINE
  5
AF
330
1E
100
AcDbEntity
  8
0
100
AcDbLine
 10
16.73899999999999
 20
4.538
 30
0.0
 11
16.775
 21
4.477999999999999
 31
0.0
  0
TEXT
  5
B0
330
1E
100
AcDbEntity
  8
0
100
AcDbText
 10
16.55433333333332
 20
4.508999999999998
 30
0.0
 40
0.05
  1
-
 72
     1
 11
16.57099999999999
 21
4.508999999999998
 31
0.0
100
AcDbText
  0
TEXT
  5
B1
330
1E
100
AcDbEntity
  8
0
100
AcDbText
 10
17.35099999999999
 20
4.361
 30
0.0
 40
0.05
  1
RCV
 72
     1
 11
17.42599999999998
 21
4.361
 31
0.0
100
AcDbText
  0
TEXT
  5
B2
330
1E
100
AcDbEntity
  8
0
100
AcDbText
 10
17.12666666666665
 20
4.358999999999999
 30
0.0
 40
0.05
  1
XMIT
 72
     1
 11
17.20999999999998
 21
4.358999999999999
 31
0.0
100
AcDbText
  0
TEXT
  5
B3
330
1E
100
AcDbEntity
  8
0
100
AcDbText
 10
16.38066666666665
 20
4.358999999999999
 30
0.0
 40
0.05
  1
XMIT
 72
     1
 11
16.46399999999998
 21
4.358999999999999
 31
0.0
100
AcDbText
  0
TEXT
  5
B4
330
1E
100
AcDbEntity
  8
0
100
AcDbText
 10
16.60499999999998
 20
4.361
 30
0.0
 40
0.05
  1
RCV
 72
     1
 11
16.67999999999998
 21
4.361
 31
0.0
100
AcDbText
  0
CIRCLE
  5
B5
330
1E
100
AcDbEntity
  8
0
100
AcDbCircle
 10
17.42099999999999
 20
4.480000000000002
 30
0.0
 40
0.0499999999999981
  0
CIRCLE
  5
B6
330
1E
100
AcDbEntity
  8
0
100
AcDbCircle
 10
17.216
 20
4.480000000000002
 30
0.0
 40
0.0499999999999981
  0
CIRCLE
  5
B7
330
1E
100
AcDbEntity
  8
0
100
AcDbCircle
 10
16.67099999999999
 20
4.480000000000002
 30
0.0
 40
0.0500000000000016
  0
CIRCLE
  5
B8
330
1E
100
AcDbEntity
  8
0
100
AcDbCircle
 10
16.47099999999999
 20
4.480000000000002
 30
0.0
 40
0.0500000000000016
  0
LINE
  5
B9
330
1E
100
AcDbEntity
  8
0
100
AcDbLine
 10
16.31799999999999
 20
4.582
 30
0.0
 11
16.82199999999999
 21
4.582
 31
0.0
  0
LINE
  5
BA
330
1E
100
AcDbEntity
  8
0
100
AcDbLine
 10
16.23599999999998
 20
5.201999999999999
 30
0.0
 11
16.23599999999998
 21
5.782999999999999
 31
0.0
  0
LINE
  5
BB
330
1E
100
AcDbEntity
  8
0
100
AcDbLine
 10
16.90599999999999
 20
5.201999999999999
 30
0.0
 11
16.90599999999999
 21
5.782999999999999
 31
0.0
  0
TEXT
  5
C6
330
1E
100
AcDbEntity
  8
0
100
AcDbText
 10
16.38766666666665
 20
5.107000000000001
 30
0.0
 40
0.05
  1
LINK
 72
     1
 11
16.47099999999999
 21
5.107000000000001
 31
0.0
100
AcDbText
  0
TEXT
  5
C7
330
1E
100
AcDbEntity
  8
0
100
AcDbText
 10
16.60333333333332
 20
5.108999999999999
 30
0.0
 40
0.05
  1
LAN
 72
     1
 11
16.66999999999998
 21
5.108999999999999
 31
0.0
100
AcDbText
  0
LINE
  5
C8
330
1E
100
AcDbEntity
  8
0
100
AcDbLine
 10
16.31799999999999
 20
4.885999999999999
 30
0.0
 11
16.82199999999999
 21
4.885999999999999
 31
0.0
  0
CIRCLE
  5
CD
330
1E
100
AcDbEntity
  8
0
100
AcDbCircle
 10
16.47099999999999
 20
5.030000000000001
 30
0.0
 40
0.0500000000000016
  0
CIRCLE
  5
CE
330
1E
100
AcDbEntity
  8
0
100
AcDbCircle
 10
16.67099999999999
 20
5.030000000000001
 30
0.0
 40
0.0500000000000016
  0
LINE
  5
CF
330
1E
100
AcDbEntity
  8
0
100
AcDbLine
 10
16.23599999999998
 20
5.201999999999999
 30
0.0
 11
16.90599999999999
 21
5.201999999999999
 31
0.0
  0
TEXT
  5
D0
330
1E
100
AcDbEntity
  8
0
100
AcDbText
 10
17.23966666666665
 20
5.842999999999999
 30
0.0
 40
0.05
  1
COM1
 72
     1
 11
17.32299999999998
 21
5.842999999999999
 31
0.0
100
AcDbText
  0
TEXT
  5
D1
330
1E
100
AcDbEntity
  8
0
100
AcDbText
 10
16.38233333333332
 20
5.842999999999999
 30
0.0
 40
0.05
  1
ETHERNET
 72
     1
 11
16.57399999999999
 21
5.842999999999999
 31
0.0
100
AcDbText
  0
LINE
  5
D2
330
1E
100
AcDbEntity
  8
0
100
AcDbLine
 10
16.23599999999998
 20
5.782999999999999
 30
0.0
 11
16.90599999999999
 21
5.782999999999999
 31
0.0
  0
LINE
  5
D3
330
1E
100
AcDbEntity
  8
0
100
AcDbLine
 10
22.14099999999999
 20
5.964
 30
0.0
 11
22.14099999999999
 21
4.333999999999999
 31
0.0
  0
TEXT
  5
D4
330
1E
100
AcDbEntity
  8
0
100
AcDbText
 10
18.84599999999998
 20
4.361
 30
0.0
 40
0.05
  1
RCV
 72
     1
 11
18.92099999999998
 21
4.361
 31
0.0
100
AcDbText
  0
TEXT
  5
D5
330
1E
100
AcDbEntity
  8
0
100
AcDbText
 10
18.62266666666665
 20
4.358999999999999
 30
0.0
 40
0.05
  1
XMIT
 72
     1
 11
18.70599999999998
 21
4.358999999999999
 31
0.0
100
AcDbText
  0
TEXT
  5
D6
330
1E
100
AcDbEntity
  8
0
100
AcDbText
 10
19.15133333333332
 20
4.360999999999998
 30
0.0
 40
0.05
  1
CPU
 72
     1
 11
19.21799999999999
 21
4.360999999999998
 31
0.0
100
AcDbText
  0
TEXT
  5
D7
330
1E
100
AcDbEntity
  8
0
100
AcDbText
 10
19.35666666666665
 20
4.360999999999998
 30
0.0
 40
0.05
  1
I/O
 72
     1
 11
19.41499999999998
 21
4.360999999999998
 31
0.0
100
AcDbText
  0
CIRCLE
  5
D8
330
1E
100
AcDbEntity
  8
0
100
AcDbCircle
 10
18.711
 20
4.480000000000002
 30
0.0
 40
0.0500000000000007
  0
CIRCLE
  5
D9
330
1E
100
AcDbEntity
  8
0
100
AcDbCircle
 10
18.91099999999999
 20
4.480000000000002
 30
0.0
 40
0.0500000000000007
  0
CIRCLE
  5
DA
330
1E
100
AcDbEntity
  8
0
100
AcDbCircle
 10
19.21699999999999
 20
4.480000000000002
 30
0.0
 40
0.0500000000000007
  0
CIRCLE
  5
DB
330
1E
100
AcDbEntity
  8
0
100
AcDbCircle
 10
19.41599999999999
 20
4.480000000000002
 30
0.0
 40
0.0500000000000007
  0
TEXT
  5
DC
330
1E
100
AcDbEntity
  8
0
100
AcDbText
 10
18.10099999999998
 20
4.361
 30
0.0
 40
0.05
  1
RCV
 72
     1
 11
18.17599999999998
 21
4.361
 31
0.0
100
AcDbText
  0
TEXT
  5
DD
330
1E
100
AcDbEntity
  8
0
100
AcDbText
 10
17.87766666666666
 20
4.358999999999999
 30
0.0
 40
0.05
  1
XMIT
 72
     1
 11
17.96099999999999
 21
4.358999999999999
 31
0.0
100
AcDbText
  0
CIRCLE
  5
DE
330
1E
100
AcDbEntity
  8
0
100
AcDbCircle
 10
17.966
 20
4.480000000000002
 30
0.0
 40
0.0499999999999981
  0
CIRCLE
  5
DF
330
1E
100
AcDbEntity
  8
0
100
AcDbCircle
 10
18.166
 20
4.480000000000002
 30
0.0
 40
0.0500000000000007
  0
TEXT
  5
E0
330
1E
100
AcDbEntity
  8
0
100
AcDbText
 10
20.76699999999999
 20
4.974
 30
0.0
 40
0.125
  1
Plus
 50
30.0
100
AcDbText
  0
TEXT
  5
E1
330
1E
100
AcDbEntity
  8
0
100
AcDbText
 10
20.30299999999999
 20
5.307999999999999
 30
0.0
 40
0.125
  1
ScadaFlex
100
AcDbText
  0
TEXT
  5
E2
330
1E
100
AcDbEntity
  8
0
100
AcDbText
 10
21.34433333333332
 20
5.4
 30
0.0
 40
0.05
  1
TM
 72
     1
 11
21.38599999999999
 21
5.4
 31
0.0
100
AcDbText
  0
TEXT
  5
E3
330
1E
100
AcDbEntity
  8
0
100
AcDbText
 10
18.71933333333332
 20
5.842999999999999
 30
0.0
 40
0.05
  1
COM4
 72
     1
 11
18.81099999999998
 21
5.842999999999999
 31
0.0
100
AcDbText
  0
TEXT
  5
E4
330
1E
100
AcDbEntity
  8
0
100
AcDbText
 10
17.97533333333332
 20
5.842999999999999
 30
0.0
 40
0.05
  1
COM3
 72
     1
 11
18.06699999999998
 21
5.842999999999999
 31
0.0
100
AcDbText
  0
CIRCLE
  5
E5
330
1E
100
AcDbEntity
  8
0
100
AcDbCircle
 10
18.06701339378937
 20
4.726986000000004
 30
0.0
 40
0.0625
  0
LINE
  5
E6
330
1E
100
AcDbEntity
  8
0
100
AcDbLine
 10
18.28201339378937
 20
4.984797000000001
 30
0.0
 11
18.28201339378937
 21
5.453000000000003
 31
0.0
  0
LINE
  5
E7
330
1E
100
AcDbEntity
  8
0
100
AcDbLine
 10
17.85301339378936
 20
5.483538000000003
 30
0.0
 11
17.85301339378936
 21
4.953461000000005
 31
0.0
  0
ARC
  5
E8
330
1E
100
AcDbEntity
  8
0
100
AcDbCircle
 10
17.9775133367356
 20
4.953460905048463
 30
0.0
 40
0.1249999429462717
100
AcDbArc
 50
179.9999564773993
 51
280.0000208295727
  0
ARC
  5
E9
330
1E
100
AcDbEntity
  8
0
100
AcDbCircle
 10
18.15751330265613
 20
4.98479704951232
 30
0.0
 40
0.1250000911332398
100
AcDbArc
 50
280.0000247145827
 51
359.999977305241
  0
LINE
  5
EA
330
1E
100
AcDbEntity
  8
0
100
AcDbLine
 10
17.99921939378936
 20
4.830360000000003
 30
0.0
 11
18.17921939378937
 21
4.861696000000002
 31
0.0
  0
ARC
  5
EB
330
1E
100
AcDbEntity
  8
0
100
AcDbCircle
 10
17.9785133367356
 20
5.483538094951545
 30
0.0
 40
0.1249999429462689
100
AcDbArc
 50
79.99997917042621
 51
180.0000435226006
  0
CIRCLE
  5
EC
330
1E
100
AcDbEntity
  8
0
100
AcDbCircle
 10
18.06701339378937
 20
5.710986000000002
 30
0.0
 40
0.0625
  0
ARC
  5
ED
330
1E
100
AcDbEntity
  8
0
100
AcDbCircle
 10
18.15651330265614
 20
5.453202950487683
 30
0.0
 40
0.1250000911332405
100
AcDbArc
 50
0.000022694759032
 51
79.99997528541725
  0
LINE
  5
EE
330
1E
100
AcDbEntity
  8
0
100
AcDbLine
 10
18.17821939378936
 20
5.576304000000001
 30
0.0
 11
18.00021939378936
 21
5.606639000000002
 31
0.0
  0
CIRCLE
  5
EF
330
1E
100
AcDbEntity
  8
0
100
AcDbCircle
 10
18.81101339378936
 20
4.726986000000004
 30
0.0
 40
0.0625
  0
LINE
  5
F0
330
1E
100
AcDbEntity
  8
0
100
AcDbLine
 10
19.02601339378936
 20
4.984797000000001
 30
0.0
 11
19.02601339378936
 21
5.453000000000003
 31
0.0
  0
LINE
  5
F1
330
1E
100
AcDbEntity
  8
0
100
AcDbLine
 10
18.59701339378936
 20
5.483538000000003
 30
0.0
 11
18.59701339378936
 21
4.953461000000005
 31
0.0
  0
ARC
  5
F2
330
1E
100
AcDbEntity
  8
0
100
AcDbCircle
 10
18.72151333673559
 20
4.953460905048463
 30
0.0
 40
0.1249999429462717
100
AcDbArc
 50
179.9999564773993
 51
280.0000208295727
  0
ARC
  5
F3
330
1E
100
AcDbEntity
  8
0
100
AcDbCircle
 10
18.90151330265613
 20
4.98479704951232
 30
0.0
 40
0.1250000911332398
100
AcDbArc
 50
280.0000247145827
 51
359.999977305241
  0
LINE
  5
F4
330
1E
100
AcDbEntity
  8
0
100
AcDbLine
 10
18.74321939378936
 20
4.830360000000003
 30
0.0
 11
18.92321939378936
 21
4.861696000000002
 31
0.0
  0
ARC
  5
F5
330
1E
100
AcDbEntity
  8
0
100
AcDbCircle
 10
18.72251333673559
 20
5.483538094951545
 30
0.0
 40
0.1249999429462689
100
AcDbArc
 50
79.99997917042621
 51
180.0000435226006
  0
CIRCLE
  5
F6
330
1E
100
AcDbEntity
  8
0
100
AcDbCircle
 10
18.81101339378936
 20
5.710986000000002
 30
0.0
 40
0.0625
  0
ARC
  5
F7
330
1E
100
AcDbEntity
  8
0
100
AcDbCircle
 10
18.90051330265613
 20
5.453202950487683
 30
0.0
 40
0.1250000911332405
100
AcDbArc
 50
0.000022694759032
 51
79.99997528541725
  0
LINE
  5
F8
330
1E
100
AcDbEntity
  8
0
100
AcDbLine
 10
18.92221939378936
 20
5.576304000000001
 30
0.0
 11
18.74421939378936
 21
5.606639000000002
 31
0.0
  0
CIRCLE
  5
F9
330
1E
100
AcDbEntity
  8
0
100
AcDbCircle
 10
17.32201339378936
 20
4.726986000000004
 30
0.0
 40
0.0625
  0
LINE
  5
FA
330
1E
100
AcDbEntity
  8
0
100
AcDbLine
 10
17.53701339378936
 20
4.984797000000001
 30
0.0
 11
17.53701339378936
 21
5.453000000000003
 31
0.0
  0
LINE
  5
FB
330
1E
100
AcDbEntity
  8
0
100
AcDbLine
 10
17.10801339378936
 20
5.483538000000003
 30
0.0
 11
17.10801339378936
 21
4.953461000000005
 31
0.0
  0
ARC
  5
FC
330
1E
100
AcDbEntity
  8
0
100
AcDbCircle
 10
17.2325133367356
 20
4.953460905048463
 30
0.0
 40
0.1249999429462717
100
AcDbArc
 50
179.9999564773993
 51
280.0000208295727
  0
ARC
  5
FD
330
1E
100
AcDbEntity
  8
0
100
AcDbCircle
 10
17.41251330265613
 20
4.98479704951232
 30
0.0
 40
0.1250000911332398
100
AcDbArc
 50
280.0000247145827
 51
359.999977305241
  0
LINE
  5
FE
330
1E
100
AcDbEntity
  8
0
100
AcDbLine
 10
17.25421939378936
 20
4.830360000000003
 30
0.0
 11
17.43421939378936
 21
4.861696000000002
 31
0.0
  0
ARC
  5
FF
330
1E
100
AcDbEntity
  8
0
100
AcDbCircle
 10
17.23351333673559
 20
5.483538094951545
 30
0.0
 40
0.1249999429462689
100
AcDbArc
 50
79.99997917042621
 51
180.0000435226006
  0
CIRCLE
  5
100
330
1E
100
AcDbEntity
  8
0
100
AcDbCircle
 10
17.32201339378936
 20
5.710986000000002
 30
0.0
 40
0.0625
  0
ARC
  5
101
330
1E
100
AcDbEntity
  8
0
100
AcDbCircle
 10
17.41151330265613
 20
5.453202950487683
 30
0.0
 40
0.1250000911332405
100
AcDbArc
 50
0.000022694759032
 51
79.99997528541725
  0
LINE
  5
102
330
1E
100
AcDbEntity
  8
0
100
AcDbLine
 10
17.43321939378936
 20
5.576304000000001
 30
0.0
 11
17.25521939378936
 21
5.606639000000002
 31
0.0
  0
CIRCLE
  5
103
330
1E
100
AcDbEntity
  8
0
100
AcDbCircle
 10
18.867
 20
5.381999999999998
 30
0.0
 40
0.0420000000000016
  0
CIRCLE
  5
104
330
1E
100
AcDbEntity
  8
0
100
AcDbCircle
 10
18.755
 20
5.437
 30
0.0
 40
0.0420000000000016
  0
CIRCLE
  5
105
330
1E
100
AcDbEntity
  8
0
100
AcDbCircle
 10
18.867
 20
5.163999999999998
 30
0.0
 40
0.0420000000000016
  0
CIRCLE
  5
106
330
1E
100
AcDbEntity
  8
0
100
AcDbCircle
 10
18.867
 20
5.273
 30
0.0
 40
0.0420000000000016
  0
CIRCLE
  5
107
330
1E
100
AcDbEntity
  8
0
100
AcDbCircle
 10
18.867
 20
5.055
 30
0.0
 40
0.0420000000000016
  0
CIRCLE
  5
108
330
1E
100
AcDbEntity
  8
0
100
AcDbCircle
 10
18.755
 20
5.328
 30
0.0
 40
0.0420000000000016
  0
CIRCLE
  5
109
330
1E
100
AcDbEntity
  8
0
100
AcDbCircle
 10
18.755
 20
5.219
 30
0.0
 40
0.0420000000000016
  0
CIRCLE
  5
10A
330
1E
100
AcDbEntity
  8
0
100
AcDbCircle
 10
18.755
 20
5.11
 30
0.0
 40
0.0420000000000016
  0
CIRCLE
  5
10B
330
1E
100
AcDbEntity
  8
0
100
AcDbCircle
 10
17.265
 20
5.11
 30
0.0
 40
0.0420000000000016
  0
CIRCLE
  5
10C
330
1E
100
AcDbEntity
  8
0
100
AcDbCircle
 10
17.377
 20
5.163999999999998
 30
0.0
 40
0.0420000000000016
  0
CIRCLE
  5
10D
330
1E
100
AcDbEntity
  8
0
100
AcDbCircle
 10
17.377
 20
5.055
 30
0.0
 40
0.0420000000000016
  0
CIRCLE
  5
10E
330
1E
100
AcDbEntity
  8
0
100
AcDbCircle
 10
17.265
 20
5.219
 30
0.0
 40
0.0420000000000016
  0
CIRCLE
  5
10F
330
1E
100
AcDbEntity
  8
0
100
AcDbCircle
 10
17.265
 20
5.328
 30
0.0
 40
0.0420000000000016
  0
CIRCLE
  5
110
330
1E
100
AcDbEntity
  8
0
100
AcDbCircle
 10
17.265
 20
5.437
 30
0.0
 40
0.0420000000000016
  0
CIRCLE
  5
111
330
1E
100
AcDbEntity
  8
0
100
AcDbCircle
 10
17.377
 20
5.273
 30
0.0
 40
0.0420000000000016
  0
CIRCLE
  5
112
330
1E
100
AcDbEntity
  8
0
100
AcDbCircle
 10
17.377
 20
5.381999999999998
 30
0.0
 40
0.0420000000000016
  0
CIRCLE
  5
113
330
1E
100
AcDbEntity
  8
0
100
AcDbCircle
 10
18.01
 20
5.437
 30
0.0
 40
0.0420000000000016
  0
CIRCLE
  5
114
330
1E
100
AcDbEntity
  8
0
100
AcDbCircle
 10
18.01
 20
5.328
 30
0.0
 40
0.0420000000000016
  0
CIRCLE
  5
115
330
1E
100
AcDbEntity
  8
0
100
AcDbCircle
 10
18.01
 20
5.219
 30
0.0
 40
0.0420000000000016
  0
CIRCLE
  5
116
330
1E
100
AcDbEntity
  8
0
100
AcDbCircle
 10
18.01
 20
5.11
 30
0.0
 40
0.0420000000000016
  0
CIRCLE
  5
117
330
1E
100
AcDbEntity
  8
0
100
AcDbCircle
 10
18.12199999999999
 20
5.163999999999998
 30
0.0
 40
0.0420000000000016
  0
CIRCLE
  5
118
330
1E
100
AcDbEntity
  8
0
100
AcDbCircle
 10
18.12199999999999
 20
5.055
 30
0.0
 40
0.0420000000000016
  0
CIRCLE
  5
119
330
1E
100
AcDbEntity
  8
0
100
AcDbCircle
 10
18.12199999999999
 20
5.381999999999998
 30
0.0
 40
0.0420000000000016
  0
CIRCLE
  5
11A
330
1E
100
AcDbEntity
  8
0
100
AcDbCircle
 10
18.12199999999999
 20
5.273
 30
0.0
 40
0.0420000000000016
  0
CIRCLE
  5
11B
330
1E
100
AcDbEntity
  8
0
100
AcDbCircle
 10
16.434
 20
4.733999999999999
 30
0.0
 40
0.0459999999999994
  0
CIRCLE
  5
11C
330
1E
100
AcDbEntity
  8
0
100
AcDbCircle
 10
16.571
 20
4.733999999999999
 30
0.0
 40
0.0459999999999994
  0
LINE
  5
11D
330
1E
100
AcDbEntity
  8
0
100
AcDbLine
 10
16.668
 20
4.774
 30
0.0
 11
16.748
 21
4.774
 31
0.0
  0
LINE
  5
11E
330
1E
100
AcDbEntity
  8
0
100
AcDbLine
 10
16.748
 20
4.774
 30
0.0
 11
16.748
 21
4.693999999999999
 31
0.0
  0
LINE
  5
11F
330
1E
100
AcDbEntity
  8
0
100
AcDbLine
 10
16.748
 20
4.693999999999999
 30
0.0
 11
16.668
 21
4.693999999999999
 31
0.0
  0
LINE
  5
120
330
1E
100
AcDbEntity
  8
0
100
AcDbLine
 10
16.668
 20
4.693999999999999
 30
0.0
 11
16.668
 21
4.774
 31
0.0
  0
LINE
  5
121
330
1E
100
AcDbEntity
  8
0
100
AcDbLine
 10
17.227
 20
5.038999999999999
 30
0.0
 11
17.303
 21
5.038999999999999
 31
0.0
  0
LINE
  5
122
330
1E
100
AcDbEntity
  8
0
100
AcDbLine
 10
17.303
 20
5.038999999999999
 30
0.0
 11
17.303
 21
4.963
 31
0.0
  0
LINE
  5
123
330
1E
100
AcDbEntity
  8
0
100
AcDbLine
 10
17.303
 20
4.963
 30
0.0
 11
17.227
 21
4.963
 31
0.0
  0
LINE
  5
124
330
1E
100
AcDbEntity
  8
0
100
AcDbLine
 10
17.227
 20
4.963
 30
0.0
 11
17.227
 21
5.038999999999999
 31
0.0
  0
LINE
  5
125
330
1E
100
AcDbEntity
  8
0
100
AcDbLine
 10
18.048
 20
5.038999999999999
 30
0.0
 11
18.048
 21
4.963
 31
0.0
  0
LINE
  5
126
330
1E
100
AcDbEntity
  8
0
100
AcDbLine
 10
18.048
 20
4.963
 30
0.0
 11
17.972
 21
4.963
 31
0.0
  0
LINE
  5
127
330
1E
100
AcDbEntity
  8
0
100
AcDbLine
 10
17.972
 20
4.963
 30
0.0
 11
17.972
 21
5.038999999999999
 31
0.0
  0
LINE
  5
128
330
1E
100
AcDbEntity
  8
0
100
AcDbLine
 10
17.972
 20
5.038999999999999
 30
0.0
 11
18.048
 21
5.038999999999999
 31
0.0
  0
LINE
  5
129
330
1E
100
AcDbEntity
  8
0
100
AcDbLine
 10
18.717
 20
5.038999999999999
 30
0.0
 11
18.79299999999999
 21
5.038999999999999
 31
0.0
  0
LINE
  5
12A
330
1E
100
AcDbEntity
  8
0
100
AcDbLine
 10
18.79299999999999
 20
5.038999999999999
 30
0.0
 11
18.79299999999999
 21
4.963
 31
0.0
  0
LINE
  5
12B
330
1E
100
AcDbEntity
  8
0
100
AcDbLine
 10
18.79299999999999
 20
4.963
 30
0.0
 11
18.717
 21
4.963
 31
0.0
  0
LINE
  5
12C
330
1E
100
AcDbEntity
  8
0
100
AcDbLine
 10
18.717
 20
4.963
 30
0.0
 11
18.717
 21
5.038999999999999
 31
0.0
  0
LINE
  5
12D
330
1E
100
AcDbEntity
  8
0
100
AcDbLine
 10
16.72299999999999
 20
5.765299999999987
 30
0.0
 11
16.41899999999998
 21
5.765299999999987
 31
0.0
  0
LINE
  5
12E
330
1E
100
AcDbEntity
  8
0
100
AcDbLine
 10
16.31099999999999
 20
5.657000000000001
 30
0.0
 11
16.31099999999999
 21
5.313999999999998
 31
0.0
  0
LINE
  5
12F
330
1E
100
AcDbEntity
  8
0
100
AcDbLine
 10
16.45099999999999
 20
5.276000000000001
 30
0.0
 11
16.49099999999999
 21
5.276000000000001
 31
0.0
  0
LINE
  5
130
330
1E
100
AcDbEntity
  8
0
100
AcDbLine
 10
16.45099999999999
 20
5.313999999999998
 30
0.0
 11
16.45099999999999
 21
5.276000000000001
 31
0.0
  0
LINE
  5
131
330
1E
100
AcDbEntity
  8
0
100
AcDbLine
 10
16.31099999999999
 20
5.313999999999998
 30
0.0
 11
16.45099999999999
 21
5.313999999999998
 31
0.0
  0
LINE
  5
132
330
1E
100
AcDbEntity
  8
0
100
AcDbLine
 10
16.49099999999999
 20
5.276000000000001
 30
0.0
 11
16.49099999999999
 21
5.214299999999987
 31
0.0
  0
LINE
  5
133
330
1E
100
AcDbEntity
  8
0
100
AcDbLine
 10
16.41899999999998
 20
5.657000000000001
 30
0.0
 11
16.31099999999999
 21
5.657000000000001
 31
0.0
  0
LINE
  5
134
330
1E
100
AcDbEntity
  8
0
100
AcDbLine
 10
16.41899999999998
 20
5.765299999999987
 30
0.0
 11
16.41899999999998
 21
5.657000000000001
 31
0.0
  0
LINE
  5
135
330
1E
100
AcDbEntity
  8
0
100
AcDbLine
 10
16.83099999999998
 20
5.313999999999998
 30
0.0
 11
16.83099999999998
 21
5.657000000000001
 31
0.0
  0
LINE
  5
136
330
1E
100
AcDbEntity
  8
0
100
AcDbLine
 10
16.69099999999998
 20
5.313999999999998
 30
0.0
 11
16.83099999999998
 21
5.313999999999998
 31
0.0
  0
LINE
  5
137
330
1E
100
AcDbEntity
  8
0
100
AcDbLine
 10
16.69099999999998
 20
5.276000000000001
 30
0.0
 11
16.69099999999998
 21
5.313999999999998
 31
0.0
  0
LINE
  5
138
330
1E
100
AcDbEntity
  8
0
100
AcDbLine
 10
16.65099999999998
 20
5.276000000000001
 30
0.0
 11
16.69099999999998
 21
5.276000000000001
 31
0.0
  0
LINE
  5
139
330
1E
100
AcDbEntity
  8
0
100
AcDbLine
 10
16.65099999999998
 20
5.214299999999987
 30
0.0
 11
16.65099999999998
 21
5.276000000000001
 31
0.0
  0
LINE
  5
13A
330
1E
100
AcDbEntity
  8
0
100
AcDbLine
 10
16.72299999999999
 20
5.657000000000001
 30
0.0
 11
16.72299999999999
 21
5.765299999999987
 31
0.0
  0
LINE
  5
13B
330
1E
100
AcDbEntity
  8
0
100
AcDbLine
 10
16.83099999999998
 20
5.657000000000001
 30
0.0
 11
16.72299999999999
 21
5.657000000000001
 31
0.0
  0
LINE
  5
13C
330
1E
100
AcDbEntity
  8
0
100
AcDbLine
 10
16.65099999999998
 20
5.214299999999987
 30
0.0
 11
16.49099999999999
 21
5.214299999999987
 31
0.0
  0
CIRCLE
  5
13D
330
1E
100
AcDbEntity
  8
0
100
AcDbCircle
 10
21.64544112252136
 20
7.043999999999996
 30
0.0
 40
0.0389999999999999
  0
LINE
  5
13E
330
1E
100
AcDbEntity
  8
0
100
AcDbLine
 10
21.27199999999999
 20
7.172999999999993
 30
0.0
 11
21.76844112252136
 21
7.172999999999993
 31
0.0
  0
LINE
  5
13F
330
1E
100
AcDbEntity
  8
0
100
AcDbLine
 10
21.27199999999999
 20
6.924999999999996
 30
0.0
 11
21.76844112252136
 21
6.924999999999996
 31
0.0
  0
LINE
  5
140
330
1E
100
AcDbEntity
  8
0
100
AcDbLine
 10
21.27199999999999
 20
6.841999999999994
 30
0.0
 11
21.27199999999999
 21
7.172999999999993
 31
0.0
  0
CIRCLE
  5
141
330
1E
100
AcDbEntity
  8
0
100
AcDbCircle
 10
21.50844112252136
 20
7.043999999999996
 30
0.0
 40
0.0389999999999999
  0
CIRCLE
  5
142
330
1E
100
AcDbEntity
  8
0
100
AcDbCircle
 10
21.37144112252136
 20
7.043999999999996
 30
0.0
 40
0.0389999999999999
  0
LINE
  5
143
330
1E
100
AcDbEntity
  8
0
100
AcDbLine
 10
21.76844112252136
 20
7.172999999999993
 30
0.0
 11
21.76844112252136
 21
6.841999999999994
 31
0.0
  0
LINE
  5
144
330
1E
100
AcDbEntity
  8
0
100
AcDbLine
 10
21.20299999999999
 20
6.841299999999987
 30
0.0
 11
21.20299999999999
 21
6.868299999999987
 31
0.0
  0
LINE
  5
145
330
1E
100
AcDbEntity
  8
0
100
AcDbLine
 10
21.20299999999999
 20
6.868299999999987
 30
0.0
 11
20.411
 21
6.868299999999987
 31
0.0
  0
LINE
  5
146
330
1E
100
AcDbEntity
  8
0
100
AcDbLine
 10
20.411
 20
6.868299999999987
 30
0.0
 11
20.411
 21
6.841299999999987
 31
0.0
  0
LINE
  5
147
330
1E
100
AcDbEntity
  8
0
100
AcDbLine
 10
20.59274999999999
 20
6.868299999999987
 30
0.0
 11
20.59274999999999
 21
6.907299999999986
 31
0.0
  0
LINE
  5
148
330
1E
100
AcDbEntity
  8
0
100
AcDbLine
 10
20.52124999999999
 20
6.868299999999987
 30
0.0
 11
20.52124999999999
 21
6.907299999999986
 31
0.0
  0
LINE
  5
149
330
1E
100
AcDbEntity
  8
0
100
AcDbLine
 10
20.59274999999999
 20
6.907299999999986
 30
0.0
 11
20.52124999999999
 21
6.907299999999986
 31
0.0
  0
LINE
  5
14A
330
1E
100
AcDbEntity
  8
0
100
AcDbLine
 10
20.42025
 20
6.868299999999987
 30
0.0
 11
20.42025
 21
6.907299999999986
 31
0.0
  0
LINE
  5
14B
330
1E
100
AcDbEntity
  8
0
100
AcDbLine
 10
20.49174999999999
 20
6.907299999999986
 30
0.0
 11
20.42025
 21
6.907299999999986
 31
0.0
  0
LINE
  5
14C
330
1E
100
AcDbEntity
  8
0
100
AcDbLine
 10
20.49174999999999
 20
6.868299999999987
 30
0.0
 11
20.49174999999999
 21
6.907299999999986
 31
0.0
  0
LINE
  5
14D
330
1E
100
AcDbEntity
  8
0
100
AcDbLine
 10
20.69475
 20
6.868299999999987
 30
0.0
 11
20.69475
 21
6.907299999999986
 31
0.0
  0
LINE
  5
14E
330
1E
100
AcDbEntity
  8
0
100
AcDbLine
 10
20.69475
 20
6.907299999999986
 30
0.0
 11
20.62324999999999
 21
6.907299999999986
 31
0.0
  0
LINE
  5
14F
330
1E
100
AcDbEntity
  8
0
100
AcDbLine
 10
20.62324999999999
 20
6.868299999999987
 30
0.0
 11
20.62324999999999
 21
6.907299999999986
 31
0.0
  0
LINE
  5
150
330
1E
100
AcDbEntity
  8
0
100
AcDbLine
 10
20.72424999999999
 20
6.868299999999987
 30
0.0
 11
20.72424999999999
 21
6.907299999999986
 31
0.0
  0
LINE
  5
151
330
1E
100
AcDbEntity
  8
0
100
AcDbLine
 10
20.79574999999999
 20
6.868299999999987
 30
0.0
 11
20.79574999999999
 21
6.907299999999986
 31
0.0
  0
LINE
  5
152
330
1E
100
AcDbEntity
  8
0
100
AcDbLine
 10
20.79574999999999
 20
6.907299999999986
 30
0.0
 11
20.72424999999999
 21
6.907299999999986
 31
0.0
  0
LINE
  5
153
330
1E
100
AcDbEntity
  8
0
100
AcDbLine
 10
20.89075
 20
6.868299999999987
 30
0.0
 11
20.89075
 21
6.907299999999986
 31
0.0
  0
LINE
  5
154
330
1E
100
AcDbEntity
  8
0
100
AcDbLine
 10
20.89075
 20
6.907299999999986
 30
0.0
 11
20.81925
 21
6.907299999999986
 31
0.0
  0
LINE
  5
155
330
1E
100
AcDbEntity
  8
0
100
AcDbLine
 10
20.81925
 20
6.868299999999987
 30
0.0
 11
20.81925
 21
6.907299999999986
 31
0.0
  0
LINE
  5
156
330
1E
100
AcDbEntity
  8
0
100
AcDbLine
 10
20.92025
 20
6.868299999999987
 30
0.0
 11
20.92025
 21
6.907299999999986
 31
0.0
  0
LINE
  5
157
330
1E
100
AcDbEntity
  8
0
100
AcDbLine
 10
20.99175
 20
6.868299999999987
 30
0.0
 11
20.99175
 21
6.907299999999986
 31
0.0
  0
LINE
  5
158
330
1E
100
AcDbEntity
  8
0
100
AcDbLine
 10
20.99175
 20
6.907299999999986
 30
0.0
 11
20.92025
 21
6.907299999999986
 31
0.0
  0
LINE
  5
159
330
1E
100
AcDbEntity
  8
0
100
AcDbLine
 10
21.19474999999999
 20
6.907299999999986
 30
0.0
 11
21.12324999999999
 21
6.907299999999986
 31
0.0
  0
LINE
  5
15A
330
1E
100
AcDbEntity
  8
0
100
AcDbLine
 10
21.19474999999999
 20
6.868299999999987
 30
0.0
 11
21.19474999999999
 21
6.907299999999986
 31
0.0
  0
LINE
  5
15B
330
1E
100
AcDbEntity
  8
0
100
AcDbLine
 10
21.12324999999999
 20
6.868299999999987
 30
0.0
 11
21.12324999999999
 21
6.907299999999986
 31
0.0
  0
LINE
  5
15C
330
1E
100
AcDbEntity
  8
0
100
AcDbLine
 10
21.02225
 20
6.868299999999987
 30
0.0
 11
21.02225
 21
6.907299999999986
 31
0.0
  0
LINE
  5
15D
330
1E
100
AcDbEntity
  8
0
100
AcDbLine
 10
21.09375
 20
6.907299999999986
 30
0.0
 11
21.02225
 21
6.907299999999986
 31
0.0
  0
LINE
  5
15E
330
1E
100
AcDbEntity
  8
0
100
AcDbLine
 10
21.09375
 20
6.868299999999987
 30
0.0
 11
21.09375
 21
6.907299999999986
 31
0.0
  0
LINE
  5
15F
330
1E
100
AcDbEntity
  8
0
100
AcDbLine
 10
21.36244112252136
 20
7.005999999999994
 30
0.0
 11
21.36244112252136
 21
7.081999999999995
 31
0.0
  0
LINE
  5
160
330
1E
100
AcDbEntity
  8
0
100
AcDbLine
 10
21.38044112252136
 20
7.005999999999994
 30
0.0
 11
21.38044112252136
 21
7.081999999999995
 31
0.0
  0
LINE
  5
161
330
1E
100
AcDbEntity
  8
0
100
AcDbLine
 10
21.49944112252136
 20
7.005999999999994
 30
0.0
 11
21.49944112252136
 21
7.081999999999995
 31
0.0
  0
LINE
  5
162
330
1E
100
AcDbEntity
  8
0
100
AcDbLine
 10
21.51744112252136
 20
7.005999999999994
 30
0.0
 11
21.51744112252136
 21
7.081999999999995
 31
0.0
  0
LINE
  5
163
330
1E
100
AcDbEntity
  8
0
100
AcDbLine
 10
21.63644112252136
 20
7.005999999999994
 30
0.0
 11
21.63644112252136
 21
7.081999999999995
 31
0.0
  0
LINE
  5
164
330
1E
100
AcDbEntity
  8
0
100
AcDbLine
 10
21.65444112252136
 20
7.005999999999994
 30
0.0
 11
21.65444112252136
 21
7.081999999999995
 31
0.0
  0
TEXT
  5
5EA
330
1E
100
AcDbEntity
  8
0
100
AcDbText
 10
20.90681277677154
 20
3.739424050008675
 30
0.0
 40
0.05
  1
7
 72
     1
 11
20.92347944343821
 21
3.739424050008675
 31
0.0
100
AcDbText
  0
TEXT
  5
5EB
330
1E
100
AcDbEntity
  8
0
100
AcDbText
 10
20.4364794434382
 20
3.832848100017353
 30
0.0
 40
0.05
  1
DIGITAL OUTPUTS
 72
     1
 11
20.7864794434382
 21
3.832848100017353
 31
0.0
100
AcDbText
  0
LINE
  5
5ED
330
1E
100
AcDbEntity
  8
0
100
AcDbLine
 10
16.086
 20
3.474848100017353
 30
0.0
 11
22.206
 21
3.474848100017353
 31
0.0
  0
LINE
  5
5EE
330
1E
100
AcDbEntity
  8
0
100
AcDbLine
 10
22.206
 20
3.934848100017354
 30
0.0
 11
16.086
 21
3.934848100017354
 31
0.0
  0
TEXT
  5
612
330
1E
100
AcDbEntity
  8
0
100
AcDbText
 10
17.88833333333333
 20
3.833848100017353
 30
0.0
 40
0.05
  1
DIGITAL INPUTS
 72
     1
 11
18.205
 21
3.833848100017353
 31
0.0
100
AcDbText
  0
LINE
  5
615
330
1E
100
AcDbEntity
  8
0
100
AcDbLine
 10
16.086
 20
3.474848100017353
 30
0.0
 11
16.086
 21
3.934848100017354
 31
0.0
  0
CIRCLE
  5
61E
330
1E
100
AcDbEntity
  8
0
100
AcDbCircle
 10
16.69607943404042
 20
3.664424050008673
 30
0.0
 40
0.0350000000000002
  0
LINE
  5
625
330
1E
100
AcDbEntity
  8
0
100
AcDbLine
 10
17.92907943404042
 20
3.614424050008673
 30
0.0
 11
17.92907943404042
 21
3.484424050008674
 31
0.0
  0
LINE
  5
626
330
1E
100
AcDbEntity
  8
0
100
AcDbLine
 10
16.69607943404042
 20
3.614424050008673
 30
0.0
 11
16.69607943404042
 21
3.484424050008674
 31
0.0
  0
LINE
  5
627
330
1E
100
AcDbEntity
  8
0
100
AcDbLine
 10
16.83307943404042
 20
3.614424050008673
 30
0.0
 11
16.83307943404042
 21
3.484424050008674
 31
0.0
  0
LINE
  5
628
330
1E
100
AcDbEntity
  8
0
100
AcDbLine
 10
16.97007943404042
 20
3.614424050008673
 30
0.0
 11
16.97007943404042
 21
3.484424050008674
 31
0.0
  0
LINE
  5
629
330
1E
100
AcDbEntity
  8
0
100
AcDbLine
 10
17.10707943404042
 20
3.614424050008673
 30
0.0
 11
17.10707943404042
 21
3.484424050008674
 31
0.0
  0
LINE
  5
62A
330
1E
100
AcDbEntity
  8
0
100
AcDbLine
 10
17.24407943404042
 20
3.614424050008673
 30
0.0
 11
17.24407943404042
 21
3.484424050008674
 31
0.0
  0
LINE
  5
62B
330
1E
100
AcDbEntity
  8
0
100
AcDbLine
 10
17.51807943404042
 20
3.614424050008673
 30
0.0
 11
17.51807943404042
 21
3.484424050008674
 31
0.0
  0
LINE
  5
62C
330
1E
100
AcDbEntity
  8
0
100
AcDbLine
 10
17.38107943404042
 20
3.614424050008673
 30
0.0
 11
17.38107943404042
 21
3.484424050008674
 31
0.0
  0
LINE
  5
62D
330
1E
100
AcDbEntity
  8
0
100
AcDbLine
 10
17.65507943404042
 20
3.614424050008673
 30
0.0
 11
17.65507943404042
 21
3.484424050008674
 31
0.0
  0
LINE
  5
62E
330
1E
100
AcDbEntity
  8
0
100
AcDbLine
 10
17.79207943404042
 20
3.614424050008673
 30
0.0
 11
17.79207943404042
 21
3.484424050008674
 31
0.0
  0
TEXT
  5
62F
330
1E
100
AcDbEntity
  8
0
100
AcDbText
 10
17.89991276737375
 20
3.739424050008675
 30
0.0
 40
0.05
  1
10
 72
     1
 11
17.92907943404042
 21
3.739424050008675
 31
0.0
100
AcDbText
  0
TEXT
  5
630
330
1E
100
AcDbEntity
  8
0
100
AcDbText
 10
16.95341276737375
 20
3.739424050008675
 30
0.0
 40
0.05
  1
3
 72
     1
 11
16.97007943404042
 21
3.739424050008675
 31
0.0
100
AcDbText
  0
TEXT
  5
631
330
1E
100
AcDbEntity
  8
0
100
AcDbText
 10
17.09041276737375
 20
3.739424050008675
 30
0.0
 40
0.05
  1
4
 72
     1
 11
17.10707943404042
 21
3.739424050008675
 31
0.0
100
AcDbText
  0
TEXT
  5
632
330
1E
100
AcDbEntity
  8
0
100
AcDbText
 10
16.81641276737376
 20
3.739424050008675
 30
0.0
 40
0.05
  1
2
 72
     1
 11
16.83307943404042
 21
3.739424050008675
 31
0.0
100
AcDbText
  0
TEXT
  5
633
330
1E
100
AcDbEntity
  8
0
100
AcDbText
 10
16.68774610070709
 20
3.739424050008675
 30
0.0
 40
0.05
  1
1
 72
     1
 11
16.69607943404042
 21
3.739424050008675
 31
0.0
100
AcDbText
  0
TEXT
  5
634
330
1E
100
AcDbEntity
  8
0
100
AcDbText
 10
17.77541276737375
 20
3.739424050008675
 30
0.0
 40
0.05
  1
9
 72
     1
 11
17.79207943404042
 21
3.739424050008675
 31
0.0
100
AcDbText
  0
TEXT
  5
635
330
1E
100
AcDbEntity
  8
0
100
AcDbText
 10
17.63841276737375
 20
3.739424050008675
 30
0.0
 40
0.05
  1
8
 72
     1
 11
17.65507943404042
 21
3.739424050008675
 31
0.0
100
AcDbText
  0
TEXT
  5
636
330
1E
100
AcDbEntity
  8
0
100
AcDbText
 10
17.36441276737375
 20
3.739424050008675
 30
0.0
 40
0.05
  1
6
 72
     1
 11
17.38107943404042
 21
3.739424050008675
 31
0.0
100
AcDbText
  0
TEXT
  5
637
330
1E
100
AcDbEntity
  8
0
100
AcDbText
 10
17.50141276737375
 20
3.739424050008675
 30
0.0
 40
0.05
  1
7
 72
     1
 11
17.51807943404042
 21
3.739424050008675
 31
0.0
100
AcDbText
  0
TEXT
  5
638
330
1E
100
AcDbEntity
  8
0
100
AcDbText
 10
17.22741276737375
 20
3.739424050008675
 30
0.0
 40
0.05
  1
5
 72
     1
 11
17.24407943404042
 21
3.739424050008675
 31
0.0
100
AcDbText
  0
LINE
  5
64B
330
1E
100
AcDbEntity
  8
0
100
AcDbLine
 10
19.71007943404042
 20
3.714424050008674
 30
0.0
 11
19.71007943404042
 21
3.484424050008674
 31
0.0
  0
LINE
  5
64C
330
1E
100
AcDbEntity
  8
0
100
AcDbLine
 10
19.84707943404042
 20
3.714424050008674
 30
0.0
 11
19.84707943404042
 21
3.484424050008674
 31
0.0
  0
LINE
  5
64D
330
1E
100
AcDbEntity
  8
0
100
AcDbLine
 10
19.43607943404042
 20
3.614424050008673
 30
0.0
 11
19.43607943404042
 21
3.484424050008674
 31
0.0
  0
LINE
  5
64E
330
1E
100
AcDbEntity
  8
0
100
AcDbLine
 10
19.29907943404042
 20
3.614424050008673
 30
0.0
 11
19.29907943404042
 21
3.484424050008674
 31
0.0
  0
LINE
  5
64F
330
1E
100
AcDbEntity
  8
0
100
AcDbLine
 10
19.16207943404042
 20
3.614424050008673
 30
0.0
 11
19.16207943404042
 21
3.484424050008674
 31
0.0
  0
LINE
  5
650
330
1E
100
AcDbEntity
  8
0
100
AcDbLine
 10
19.02507943404042
 20
3.614424050008673
 30
0.0
 11
19.02507943404042
 21
3.484424050008674
 31
0.0
  0
LINE
  5
651
330
1E
100
AcDbEntity
  8
0
100
AcDbLine
 10
18.88807943404042
 20
3.614424050008673
 30
0.0
 11
18.88807943404042
 21
3.484424050008674
 31
0.0
  0
LINE
  5
652
330
1E
100
AcDbEntity
  8
0
100
AcDbLine
 10
18.06607943404042
 20
3.614424050008673
 30
0.0
 11
18.06607943404042
 21
3.484424050008674
 31
0.0
  0
LINE
  5
653
330
1E
100
AcDbEntity
  8
0
100
AcDbLine
 10
18.20307943404042
 20
3.614424050008673
 30
0.0
 11
18.20307943404042
 21
3.484424050008674
 31
0.0
  0
LINE
  5
654
330
1E
100
AcDbEntity
  8
0
100
AcDbLine
 10
18.47707943404042
 20
3.614424050008673
 30
0.0
 11
18.47707943404042
 21
3.484424050008674
 31
0.0
  0
LINE
  5
655
330
1E
100
AcDbEntity
  8
0
100
AcDbLine
 10
18.34007943404042
 20
3.614424050008673
 30
0.0
 11
18.34007943404042
 21
3.484424050008674
 31
0.0
  0
LINE
  5
656
330
1E
100
AcDbEntity
  8
0
100
AcDbLine
 10
18.61407943404042
 20
3.614424050008673
 30
0.0
 11
18.61407943404042
 21
3.484424050008674
 31
0.0
  0
LINE
  5
657
330
1E
100
AcDbEntity
  8
0
100
AcDbLine
 10
18.75107943404042
 20
3.614424050008673
 30
0.0
 11
18.75107943404042
 21
3.484424050008674
 31
0.0
  0
LINE
  5
658
330
1E
100
AcDbEntity
  8
0
100
AcDbLine
 10
20.64947944343821
 20
3.614424050008673
 30
0.0
 11
20.64947944343821
 21
3.484424050008674
 31
0.0
  0
LINE
  5
659
330
1E
100
AcDbEntity
  8
0
100
AcDbLine
 10
20.78647944343821
 20
3.614424050008673
 30
0.0
 11
20.78647944343821
 21
3.484424050008674
 31
0.0
  0
LINE
  5
65A
330
1E
100
AcDbEntity
  8
0
100
AcDbLine
 10
20.3754794434382
 20
3.614424050008673
 30
0.0
 11
20.3754794434382
 21
3.484424050008674
 31
0.0
  0
LINE
  5
65B
330
1E
100
AcDbEntity
  8
0
100
AcDbLine
 10
20.5124794434382
 20
3.614424050008673
 30
0.0
 11
20.5124794434382
 21
3.484424050008674
 31
0.0
  0
LINE
  5
65C
330
1E
100
AcDbEntity
  8
0
100
AcDbLine
 10
20.1014794434382
 20
3.614424050008673
 30
0.0
 11
20.1014794434382
 21
3.484424050008674
 31
0.0
  0
LINE
  5
65D
330
1E
100
AcDbEntity
  8
0
100
AcDbLine
 10
20.2384794434382
 20
3.614424050008673
 30
0.0
 11
20.2384794434382
 21
3.484424050008674
 31
0.0
  0
LINE
  5
65E
330
1E
100
AcDbEntity
  8
0
100
AcDbLine
 10
19.57307943404042
 20
3.614424050008673
 30
0.0
 11
19.57307943404042
 21
3.484424050008674
 31
0.0
  0
TEXT
  5
65F
330
1E
100
AcDbEntity
  8
0
100
AcDbText
 10
19.40274610070709
 20
3.739424050008675
 30
0.0
 40
0.05
  1
21
 72
     1
 11
19.43607943404042
 21
3.739424050008675
 31
0.0
100
AcDbText
  0
TEXT
  5
660
330
1E
100
AcDbEntity
  8
0
100
AcDbText
 10
18.58074610070709
 20
3.739424050008675
 30
0.0
 40
0.05
  1
15
 72
     1
 11
18.61407943404042
 21
3.739424050008675
 31
0.0
100
AcDbText
  0
TEXT
  5
661
330
1E
100
AcDbEntity
  8
0
100
AcDbText
 10
18.44374610070709
 20
3.739424050008675
 30
0.0
 40
0.05
  1
14
 72
     1
 11
18.47707943404042
 21
3.739424050008675
 31
0.0
100
AcDbText
  0
TEXT
  5
662
330
1E
100
AcDbEntity
  8
0
100
AcDbText
 10
18.30674610070709
 20
3.739424050008675
 30
0.0
 40
0.05
  1
13
 72
     1
 11
18.34007943404042
 21
3.739424050008675
 31
0.0
100
AcDbText
  0
TEXT
  5
663
330
1E
100
AcDbEntity
  8
0
100
AcDbText
 10
18.04107943404042
 20
3.739424050008675
 30
0.0
 40
0.05
  1
11
 72
     1
 11
18.06607943404042
 21
3.739424050008675
 31
0.0
100
AcDbText
  0
TEXT
  5
664
330
1E
100
AcDbEntity
  8
0
100
AcDbText
 10
18.16974610070709
 20
3.739424050008675
 30
0.0
 40
0.05
  1
12
 72
     1
 11
18.20307943404042
 21
3.739424050008675
 31
0.0
100
AcDbText
  0
TEXT
  5
665
330
1E
100
AcDbEntity
  8
0
100
AcDbText
 10
19.12874610070709
 20
3.739424050008675
 30
0.0
 40
0.05
  1
19
 72
     1
 11
19.16207943404042
 21
3.739424050008675
 31
0.0
100
AcDbText
  0
TEXT
  5
666
330
1E
100
AcDbEntity
  8
0
100
AcDbText
 10
18.99174610070709
 20
3.739424050008675
 30
0.0
 40
0.05
  1
18
 72
     1
 11
19.02507943404042
 21
3.739424050008675
 31
0.0
100
AcDbText
  0
TEXT
  5
667
330
1E
100
AcDbEntity
  8
0
100
AcDbText
 10
18.85474610070709
 20
3.739424050008675
 30
0.0
 40
0.05
  1
17
 72
     1
 11
18.88807943404042
 21
3.739424050008675
 31
0.0
100
AcDbText
  0
TEXT
  5
668
330
1E
100
AcDbEntity
  8
0
100
AcDbText
 10
18.71774610070709
 20
3.739424050008675
 30
0.0
 40
0.05
  1
16
 72
     1
 11
18.75107943404042
 21
3.739424050008675
 31
0.0
100
AcDbText
  0
TEXT
  5
669
330
1E
100
AcDbEntity
  8
0
100
AcDbText
 10
19.26157943404042
 20
3.739424050008675
 30
0.0
 40
0.05
  1
20
 72
     1
 11
19.29907943404042
 21
3.739424050008675
 31
0.0
100
AcDbText
  0
TEXT
  5
66A
330
1E
100
AcDbEntity
  8
0
100
AcDbText
 10
20.09314611010487
 20
3.739424050008675
 30
0.0
 40
0.05
  1
1
 72
     1
 11
20.1014794434382
 21
3.739424050008675
 31
0.0
100
AcDbText
  0
TEXT
  5
66B
330
1E
100
AcDbEntity
  8
0
100
AcDbText
 10
19.69341276737375
 20
3.739424050008675
 30
0.0
 40
0.05
  1
C
 72
     1
 11
19.71007943404042
 21
3.739424050008675
 31
0.0
100
AcDbText
  0
TEXT
  5
66C
330
1E
100
AcDbEntity
  8
0
100
AcDbText
 10
19.53141276737375
 20
3.739424050008675
 30
0.0
 40
0.05
  1
22
 72
     1
 11
19.57307943404042
 21
3.739424050008675
 31
0.0
100
AcDbText
  0
TEXT
  5
66D
330
1E
100
AcDbEntity
  8
0
100
AcDbText
 10
19.83041276737376
 20
3.739424050008675
 30
0.0
 40
0.05
  1
C
 72
     1
 11
19.84707943404042
 21
3.739424050008675
 31
0.0
100
AcDbText
  0
TEXT
  5
66E
330
1E
100
AcDbEntity
  8
0
100
AcDbText
 10
20.63281277677154
 20
3.739424050008675
 30
0.0
 40
0.05
  1
5
 72
     1
 11
20.64947944343821
 21
3.739424050008675
 31
0.0
100
AcDbText
  0
TEXT
  5
66F
330
1E
100
AcDbEntity
  8
0
100
AcDbText
 10
20.35881277677154
 20
3.739424050008675
 30
0.0
 40
0.05
  1
3
 72
     1
 11
20.3754794434382
 21
3.739424050008675
 31
0.0
100
AcDbText
  0
TEXT
  5
670
330
1E
100
AcDbEntity
  8
0
100
AcDbText
 10
20.49581277677154
 20
3.739424050008675
 30
0.0
 40
0.05
  1
4
 72
     1
 11
20.5124794434382
 21
3.739424050008675
 31
0.0
100
AcDbText
  0
TEXT
  5
671
330
1E
100
AcDbEntity
  8
0
100
AcDbText
 10
20.22181277677154
 20
3.739424050008675
 30
0.0
 40
0.05
  1
2
 72
     1
 11
20.2384794434382
 21
3.739424050008675
 31
0.0
100
AcDbText
  0
TEXT
  5
672
330
1E
100
AcDbEntity
  8
0
100
AcDbText
 10
20.76981277677154
 20
3.739424050008675
 30
0.0
 40
0.05
  1
6
 72
     1
 11
20.78647944343821
 21
3.739424050008675
 31
0.0
100
AcDbText
  0
LINE
  5
678
330
1E
100
AcDbEntity
  8
0
100
AcDbLine
 10
22.206
 20
3.474848100017353
 30
0.0
 11
22.206
 21
3.934848100017354
 31
0.0
  0
LINE
  5
67E
330
1E
100
AcDbEntity
  8
0
100
AcDbLine
 10
21.6084794434382
 20
3.714424050008674
 30
0.0
 11
21.6084794434382
 21
3.484424050008674
 31
0.0
  0
LINE
  5
67F
330
1E
100
AcDbEntity
  8
0
100
AcDbLine
 10
21.4714794434382
 20
3.714424050008674
 30
0.0
 11
21.4714794434382
 21
3.484424050008674
 31
0.0
  0
LINE
  5
680
330
1E
100
AcDbEntity
  8
0
100
AcDbLine
 10
21.19747944343821
 20
3.614424050008673
 30
0.0
 11
21.19747944343821
 21
3.484424050008674
 31
0.0
  0
LINE
  5
681
330
1E
100
AcDbEntity
  8
0
100
AcDbLine
 10
21.33447944343821
 20
3.614424050008673
 30
0.0
 11
21.33447944343821
 21
3.484424050008674
 31
0.0
  0
LINE
  5
682
330
1E
100
AcDbEntity
  8
0
100
AcDbLine
 10
20.92347944343821
 20
3.614424050008673
 30
0.0
 11
20.92347944343821
 21
3.484424050008674
 31
0.0
  0
LINE
  5
683
330
1E
100
AcDbEntity
  8
0
100
AcDbLine
 10
21.06047944343821
 20
3.614424050008673
 30
0.0
 11
21.06047944343821
 21
3.484424050008674
 31
0.0
  0
TEXT
  5
686
330
1E
100
AcDbEntity
  8
0
100
AcDbText
 10
21.18081277677154
 20
3.739424050008675
 30
0.0
 40
0.05
  1
9
 72
     1
 11
21.19747944343821
 21
3.739424050008675
 31
0.0
100
AcDbText
  0
TEXT
  5
687
330
1E
100
AcDbEntity
  8
0
100
AcDbText
 10
21.30531277677154
 20
3.739424050008675
 30
0.0
 40
0.05
  1
10
 72
     1
 11
21.33447944343821
 21
3.739424050008675
 31
0.0
100
AcDbText
  0
TEXT
  5
688
330
1E
100
AcDbEntity
  8
0
100
AcDbText
 10
21.04381277677154
 20
3.739424050008675
 30
0.0
 40
0.05
  1
8
 72
     1
 11
21.06047944343821
 21
3.739424050008675
 31
0.0
100
AcDbText
  0
TEXT
  5
689
330
1E
100
AcDbEntity
  8
0
100
AcDbText
 10
21.45481277677153
 20
3.739424050008675
 30
0.0
 40
0.05
  1
C
 72
     1
 11
21.4714794434382
 21
3.739424050008675
 31
0.0
100
AcDbText
  0
TEXT
  5
68A
330
1E
100
AcDbEntity
  8
0
100
AcDbText
 10
21.59181277677153
 20
3.739424050008675
 30
0.0
 40
0.05
  1
C
 72
     1
 11
21.6084794434382
 21
3.739424050008675
 31
0.0
100
AcDbText
  0
TEXT
  5
696
330
1E
100
AcDbEntity
  8
0
100
AcDbText
 10
17.38810778918803
 20
6.573272150026038
 30
0.0
 40
0.05
  1
6
 50
180.0
 72
     1
 11
17.37144112252136
 21
6.573272150026038
 31
0.0
100
AcDbText
  0
LINE
  5
697
330
1E
100
AcDbEntity
  8
0
100
AcDbLine
 10
16.09547944343821
 20
6.360848100017356
 30
0.0
 11
22.21547944343821
 21
6.360848100017355
 31
0.0
  0
LINE
  5
698
330
1E
100
AcDbEntity
  8
0
100
AcDbLine
 10
22.21547944343821
 20
6.820848100017354
 30
0.0
 11
16.09547944343821
 21
6.820848100017355
 31
0.0
  0
LINE
  5
69C
330
1E
100
AcDbEntity
  8
0
100
AcDbLine
 10
22.21547944343821
 20
6.360848100017355
 30
0.0
 11
22.21547944343821
 21
6.820848100017354
 31
0.0
  0
LINE
  5
6C5
330
1E
100
AcDbEntity
  8
0
100
AcDbLine
 10
20.75647944343821
 20
6.69968745780093
 30
0.0
 11
20.75647944343821
 21
6.819687457800931
 31
0.0
  0
LINE
  5
6C6
330
1E
100
AcDbEntity
  8
0
100
AcDbLine
 10
20.65547944343821
 20
6.69968745780093
 30
0.0
 11
20.65547944343821
 21
6.819687457800931
 31
0.0
  0
LINE
  5
6C7
330
1E
100
AcDbEntity
  8
0
100
AcDbLine
 10
20.85547944343821
 20
6.69968745780093
 30
0.0
 11
20.85547944343821
 21
6.819687457800931
 31
0.0
  0
LINE
  5
6C8
330
1E
100
AcDbEntity
  8
0
100
AcDbLine
 10
20.95647944343821
 20
6.69968745780093
 30
0.0
 11
20.95647944343821
 21
6.819687457800931
 31
0.0
  0
LINE
  5
6C9
330
1E
100
AcDbEntity
  8
0
100
AcDbLine
 10
21.05747944343821
 20
6.699687457800933
 30
0.0
 11
21.05747944343821
 21
6.819687457800931
 31
0.0
  0
LINE
  5
6CA
330
1E
100
AcDbEntity
  8
0
100
AcDbLine
 10
20.55647944343821
 20
6.69968745780093
 30
0.0
 11
20.55647944343821
 21
6.819687457800931
 31
0.0
  0
LINE
  5
6CB
330
1E
100
AcDbEntity
  8
0
100
AcDbLine
 10
20.45547944343821
 20
6.69968745780093
 30
0.0
 11
20.45547944343821
 21
6.819687457800931
 31
0.0
  0
LINE
  5
6CC
330
1E
100
AcDbEntity
  8
0
100
AcDbLine
 10
21.50944112252136
 20
6.699272150026038
 30
0.0
 11
21.50944112252136
 21
6.819272150026039
 31
0.0
  0
LINE
  5
6CD
330
1E
100
AcDbEntity
  8
0
100
AcDbLine
 10
21.64544112252136
 20
6.699272150026038
 30
0.0
 11
21.64544112252136
 21
6.819272150026039
 31
0.0
  0
LINE
  5
6CE
330
1E
100
AcDbEntity
  8
0
100
AcDbLine
 10
21.37244112252136
 20
6.699272150026038
 30
0.0
 11
21.37244112252136
 21
6.819272150026039
 31
0.0
  0
LINE
  5
6CF
330
1E
100
AcDbEntity
  8
0
100
AcDbLine
 10
21.15547944343821
 20
6.69968745780093
 30
0.0
 11
21.15547944343821
 21
6.819687457800931
 31
0.0
  0
LINE
  5
6D3
330
1E
100
AcDbEntity
  8
0
100
AcDbLine
 10
18.92944112252137
 20
6.699272150026038
 30
0.0
 11
18.92944112252137
 21
6.819272150026039
 31
0.0
  0
LINE
  5
6D4
330
1E
100
AcDbEntity
  8
0
100
AcDbLine
 10
19.52944112252136
 20
6.699272150026038
 30
0.0
 11
19.52944112252136
 21
6.819272150026039
 31
0.0
  0
LINE
  5
6D5
330
1E
100
AcDbEntity
  8
0
100
AcDbLine
 10
19.62944112252136
 20
6.699272150026038
 30
0.0
 11
19.62944112252136
 21
6.819272150026039
 31
0.0
  0
LINE
  5
6D6
330
1E
100
AcDbEntity
  8
0
100
AcDbLine
 10
19.42944112252137
 20
6.699272150026038
 30
0.0
 11
19.42944112252137
 21
6.819272150026039
 31
0.0
  0
LINE
  5
6D7
330
1E
100
AcDbEntity
  8
0
100
AcDbLine
 10
19.33044112252136
 20
6.699272150026038
 30
0.0
 11
19.33044112252136
 21
6.819272150026039
 31
0.0
  0
LINE
  5
6D8
330
1E
100
AcDbEntity
  8
0
100
AcDbLine
 10
19.22944112252136
 20
6.699272150026038
 30
0.0
 11
19.22944112252136
 21
6.819272150026039
 31
0.0
  0
LINE
  5
6D9
330
1E
100
AcDbEntity
  8
0
100
AcDbLine
 10
19.13044112252137
 20
6.699272150026038
 30
0.0
 11
19.13044112252137
 21
6.819272150026039
 31
0.0
  0
LINE
  5
6DA
330
1E
100
AcDbEntity
  8
0
100
AcDbLine
 10
19.02944112252137
 20
6.699272150026038
 30
0.0
 11
19.02944112252137
 21
6.819272150026039
 31
0.0
  0
LINE
  5
6DB
330
1E
100
AcDbEntity
  8
0
100
AcDbLine
 10
19.97247944343821
 20
6.699272150026038
 30
0.0
 11
19.97247944343821
 21
6.819272150026039
 31
0.0
  0
LINE
  5
6DC
330
1E
100
AcDbEntity
  8
0
100
AcDbLine
 10
19.83547944343821
 20
6.699272150026038
 30
0.0
 11
19.83547944343821
 21
6.819272150026039
 31
0.0
  0
LINE
  5
6DD
330
1E
100
AcDbEntity
  8
0
100
AcDbLine
 10
20.24647944343821
 20
6.699272150026038
 30
0.0
 11
20.24647944343821
 21
6.819272150026039
 31
0.0
  0
LINE
  5
6DE
330
1E
100
AcDbEntity
  8
0
100
AcDbLine
 10
20.10847944343821
 20
6.699272150026038
 30
0.0
 11
20.10847944343821
 21
6.819272150026039
 31
0.0
  0
LINE
  5
6DF
330
1E
100
AcDbEntity
  8
0
100
AcDbLine
 10
17.50837263131962
 20
6.69627215002604
 30
0.0
 11
17.50837263131962
 21
6.819272150026039
 31
0.0
  0
LINE
  5
6E0
330
1E
100
AcDbEntity
  8
0
100
AcDbLine
 10
18.60437263131962
 20
6.69627215002604
 30
0.0
 11
18.60444112252136
 21
6.819272150026039
 31
0.0
  0
LINE
  5
6E1
330
1E
100
AcDbEntity
  8
0
100
AcDbLine
 10
18.74137263131962
 20
6.69627215002604
 30
0.0
 11
18.74137263131962
 21
6.819272150026039
 31
0.0
  0
LINE
  5
6E2
330
1E
100
AcDbEntity
  8
0
100
AcDbLine
 10
17.64537263131962
 20
6.69627215002604
 30
0.0
 11
17.64537263131962
 21
6.818272150026039
 31
0.0
  0
LINE
  5
6E3
330
1E
100
AcDbEntity
  8
0
100
AcDbLine
 10
17.78237263131962
 20
6.69627215002604
 30
0.0
 11
17.78237263131962
 21
6.819272150026039
 31
0.0
  0
LINE
  5
6E4
330
1E
100
AcDbEntity
  8
0
100
AcDbLine
 10
17.91937263131963
 20
6.69627215002604
 30
0.0
 11
17.91937263131963
 21
6.819272150026039
 31
0.0
  0
LINE
  5
6E5
330
1E
100
AcDbEntity
  8
0
100
AcDbLine
 10
18.05637263131963
 20
6.69627215002604
 30
0.0
 11
18.05637263131963
 21
6.819272150026039
 31
0.0
  0
LINE
  5
6E6
330
1E
100
AcDbEntity
  8
0
100
AcDbLine
 10
18.19337263131963
 20
6.69627215002604
 30
0.0
 11
18.19337263131963
 21
6.819272150026039
 31
0.0
  0
LINE
  5
6E7
330
1E
100
AcDbEntity
  8
0
100
AcDbLine
 10
18.33037263131963
 20
6.69627215002604
 30
0.0
 11
18.33037263131963
 21
6.819272150026039
 31
0.0
  0
LINE
  5
6E8
330
1E
100
AcDbEntity
  8
0
100
AcDbLine
 10
18.46737263131963
 20
6.69627215002604
 30
0.0
 11
18.46737263131963
 21
6.819272150026039
 31
0.0
  0
TEXT
  5
6F0
330
1E
100
AcDbEntity
  8
0
100
AcDbText
 10
21.17533333333333
 20
6.465152857087307
 30
0.0
 40
0.05
  1
ADDRESS / OPTION
 50
180.0
 72
     1
 11
20.79199999999999
 21
6.465152857087307
 31
0.0
100
AcDbText
  0
TEXT
  5
6F1
330
1E
100
AcDbEntity
  8
0
100
AcDbText
 10
21.63644112252137
 20
6.465272150026038
 30
0.0
 40
0.05
  1
POWER
 50
180.0
 72
     1
 11
21.51144112252137
 21
6.465272150026038
 31
0.0
100
AcDbText
  0
TEXT
  5
6F2
330
1E
100
AcDbEntity
  8
0
100
AcDbText
 10
21.01214611010488
 20
6.566687457800931
 30
0.0
 40
0.05
  1
SWITCHES
 50
180.0
 72
     1
 11
20.82047944343821
 21
6.566687457800931
 31
0.0
100
AcDbText
  0
TEXT
  5
6F5
330
1E
100
AcDbEntity
  8
0
100
AcDbText
 10
21.53344112252137
 20
6.586272150026037
 30
0.0
 40
0.075
  1
-
 50
180.0
 72
     1
 11
21.50844112252137
 21
6.586272150026037
 31
0.0
100
AcDbText
  0
TEXT
  5
6F6
330
1E
100
AcDbEntity
  8
0
100
AcDbText
 10
21.67144112252136
 20
6.586272150026037
 30
0.0
 40
0.075
  1
+
 50
180.0
 72
     1
 11
21.64644112252136
 21
6.586272150026037
 31
0.0
100
AcDbText
  0
LINE
  5
6F7
330
1E
100
AcDbEntity
  8
0
100
AcDbLine
 10
21.35744112252136
 20
6.529272150026038
 30
0.0
 11
21.35744112252136
 21
6.561272150026038
 31
0.0
  0
LINE
  5
6F8
330
1E
100
AcDbEntity
  8
0
100
AcDbLine
 10
21.39744112252136
 20
6.561272150026038
 30
0.0
 11
21.31944112252136
 21
6.561272150026038
 31
0.0
  0
LINE
  5
6F9
330
1E
100
AcDbEntity
  8
0
100
AcDbLine
 10
21.39744112252136
 20
6.561272150026038
 30
0.0
 11
21.41344112252136
 21
6.606272150026043
 31
0.0
  0
LINE
  5
6FA
330
1E
100
AcDbEntity
  8
0
100
AcDbLine
 10
21.35744112252136
 20
6.561272150026038
 30
0.0
 11
21.37344112252136
 21
6.606272150026043
 31
0.0
  0
LINE
  5
6FB
330
1E
100
AcDbEntity
  8
0
100
AcDbLine
 10
21.31944112252136
 20
6.561272150026038
 30
0.0
 11
21.33544112252136
 21
6.606272150026043
 31
0.0
  0
TEXT
  5
700
330
1E
100
AcDbEntity
  8
0
100
AcDbText
 10
19.4507744558547
 20
6.464737549312415
 30
0.0
 40
0.05
  1
AI MODE
 50
180.0
 72
     1
 11
19.29244112252136
 21
6.464737549312415
 31
0.0
100
AcDbText
  0
TEXT
  5
701
330
1E
100
AcDbEntity
  8
0
100
AcDbText
 10
18.01877445585469
 20
6.464737549312415
 30
0.0
 40
0.05
  1
ANALOG INPUTS
 50
180.0
 72
     1
 11
17.71044112252136
 21
6.464737549312415
 31
0.0
100
AcDbText
  0
TEXT
  5
702
330
1E
100
AcDbEntity
  8
0
100
AcDbText
 10
20.08214611010488
 20
6.464272150026038
 30
0.0
 40
0.05
  1
AO
 50
180.0
 72
     1
 11
20.04047944343821
 21
6.464272150026038
 31
0.0
100
AcDbText
  0
TEXT
  5
704
330
1E
100
AcDbEntity
  8
0
100
AcDbText
 10
19.58410778918803
 20
6.563272150026039
 30
0.0
 40
0.05
  1
CURRENT = ON
 50
180.0
 72
     1
 11
19.29244112252136
 21
6.563272150026039
 31
0.0
100
AcDbText
  0
TEXT
  5
706
330
1E
100
AcDbEntity
  8
0
100
AcDbText
 10
19.88492056595957
 20
6.563687457800932
 30
0.0
 40
0.05
  1
+V
 50
180.0
 72
     1
 11
19.83492056595957
 21
6.563687457800932
 31
0.0
100
AcDbText
  0
TEXT
  5
707
330
1E
100
AcDbEntity
  8
0
100
AcDbText
 10
19.98958723262624
 20
6.563687457800934
 30
0.0
 40
0.05
  1
C
 50
180.0
 72
     1
 11
19.97292056595957
 21
6.563687457800934
 31
0.0
100
AcDbText
  0
TEXT
  5
708
330
1E
100
AcDbEntity
  8
0
100
AcDbText
 10
20.12258723262623
 20
6.565272150026039
 30
0.0
 40
0.05
  1
2
 50
180.0
 72
     1
 11
20.10592056595956
 21
6.565272150026039
 31
0.0
100
AcDbText
  0
TEXT
  5
709
330
1E
100
AcDbEntity
  8
0
100
AcDbText
 10
20.2512538992929
 20
6.565272150026039
 30
0.0
 40
0.05
  1
1
 50
180.0
 72
     1
 11
20.24292056595956
 21
6.565272150026039
 31
0.0
100
AcDbText
  0
TEXT
  5
70B
330
1E
100
AcDbEntity
  8
0
100
AcDbText
 10
18.48410778918803
 20
6.573272150026038
 30
0.0
 40
0.05
  1
2
 50
180.0
 72
     1
 11
18.46744112252136
 21
6.573272150026038
 31
0.0
100
AcDbText
  0
TEXT
  5
70C
330
1E
100
AcDbEntity
  8
0
100
AcDbText
 10
17.79910778918803
 20
6.573272150026038
 30
0.0
 40
0.05
  1
C
 50
180.0
 72
     1
 11
17.78244112252136
 21
6.573272150026038
 31
0.0
100
AcDbText
  0
TEXT
  5
70D
330
1E
100
AcDbEntity
  8
0
100
AcDbText
 10
18.34710778918803
 20
6.573272150026038
 30
0.0
 40
0.05
  1
C
 50
180.0
 72
     1
 11
18.33044112252136
 21
6.573272150026038
 31
0.0
100
AcDbText
  0
TEXT
  5
70E
330
1E
100
AcDbEntity
  8
0
100
AcDbText
 10
18.21010778918803
 20
6.573272150026038
 30
0.0
 40
0.05
  1
3
 50
180.0
 72
     1
 11
18.19344112252136
 21
6.573272150026038
 31
0.0
100
AcDbText
  0
TEXT
  5
70F
330
1E
100
AcDbEntity
  8
0
100
AcDbText
 10
17.93610778918803
 20
6.573272150026038
 30
0.0
 40
0.05
  1
4
 50
180.0
 72
     1
 11
17.91944112252136
 21
6.573272150026038
 31
0.0
100
AcDbText
  0
TEXT
  5
710
330
1E
100
AcDbEntity
  8
0
100
AcDbText
 10
18.07310778918803
 20
6.573272150026038
 30
0.0
 40
0.05
  1
C
 50
180.0
 72
     1
 11
18.05644112252136
 21
6.573272150026038
 31
0.0
100
AcDbText
  0
TEXT
  5
711
330
1E
100
AcDbEntity
  8
0
100
AcDbText
 10
17.66210778918803
 20
6.573272150026038
 30
0.0
 40
0.05
  1
5
 50
180.0
 72
     1
 11
17.64544112252136
 21
6.573272150026038
 31
0.0
100
AcDbText
  0
TEXT
  5
712
330
1E
100
AcDbEntity
  8
0
100
AcDbText
 10
18.7497744558547
 20
6.573272150026038
 30
0.0
 40
0.05
  1
1
 50
180.0
 72
     1
 11
18.74144112252136
 21
6.573272150026038
 31
0.0
100
AcDbText
  0
TEXT
  5
713
330
1E
100
AcDbEntity
  8
0
100
AcDbText
 10
18.62110778918803
 20
6.573272150026038
 30
0.0
 40
0.05
  1
C
 50
180.0
 72
     1
 11
18.60444112252136
 21
6.573272150026038
 31
0.0
100
AcDbText
  0
TEXT
  5
715
330
1E
100
AcDbEntity
  8
0
100
AcDbText
 10
17.52510778918803
 20
6.573272150026038
 30
0.0
 40
0.05
  1
C
 50
180.0
 72
     1
 11
17.50844112252136
 21
6.573272150026038
 31
0.0
100
AcDbText
  0
LINE
  5
71B
330
1E
100
AcDbEntity
  8
0
100
AcDbLine
 10
16.09547944343821
 20
6.360848100017356
 30
0.0
 11
16.09547944343821
 21
6.820848100017355
 31
0.0
  0
LINE
  5
71E
330
1E
100
AcDbEntity
  8
0
100
AcDbLine
 10
17.09737263131962
 20
6.69627215002604
 30
0.0
 11
17.09737263131962
 21
6.819272150026039
 31
0.0
  0
LINE
  5
71F
330
1E
100
AcDbEntity
  8
0
100
AcDbLine
 10
17.23437263131962
 20
6.69627215002604
 30
0.0
 11
17.23437263131962
 21
6.819272150026039
 31
0.0
  0
LINE
  5
720
330
1E
100
AcDbEntity
  8
0
100
AcDbLine
 10
17.37137263131962
 20
6.69627215002604
 30
0.0
 11
17.37137263131962
 21
6.819272150026039
 31
0.0
  0
LINE
  5
721
330
1E
100
AcDbEntity
  8
0
100
AcDbLine
 10
16.68637263131962
 20
6.69627215002604
 30
0.0
 11
16.68637263131962
 21
6.819272150026039
 31
0.0
  0
LINE
  5
722
330
1E
100
AcDbEntity
  8
0
100
AcDbLine
 10
16.82337263131962
 20
6.69627215002604
 30
0.0
 11
16.82337263131962
 21
6.819272150026039
 31
0.0
  0
LINE
  5
723
330
1E
100
AcDbEntity
  8
0
100
AcDbLine
 10
16.96037263131962
 20
6.69627215002604
 30
0.0
 11
16.96037263131962
 21
6.819272150026039
 31
0.0
  0
TEXT
  5
725
330
1E
100
AcDbEntity
  8
0
100
AcDbText
 10
16.70310778918803
 20
6.573272150026038
 30
0.0
 40
0.05
  1
C
 50
180.0
 72
     1
 11
16.68644112252136
 21
6.573272150026038
 31
0.0
100
AcDbText
  0
TEXT
  5
726
330
1E
100
AcDbEntity
  8
0
100
AcDbText
 10
16.97710778918803
 20
6.573272150026038
 30
0.0
 40
0.05
  1
C
 50
180.0
 72
     1
 11
16.96044112252137
 21
6.573272150026038
 31
0.0
100
AcDbText
  0
TEXT
  5
727
330
1E
100
AcDbEntity
  8
0
100
AcDbText
 10
16.84010778918803
 20
6.573272150026038
 30
0.0
 40
0.05
  1
8
 50
180.0
 72
     1
 11
16.82344112252136
 21
6.573272150026038
 31
0.0
100
AcDbText
  0
TEXT
  5
728
330
1E
100
AcDbEntity
  8
0
100
AcDbText
 10
17.25110778918803
 20
6.573272150026038
 30
0.0
 40
0.05
  1
C
 50
180.0
 72
     1
 11
17.23444112252136
 21
6.573272150026038
 31
0.0
100
AcDbText
  0
TEXT
  5
729
330
1E
100
AcDbEntity
  8
0
100
AcDbText
 10
17.11410778918803
 20
6.573272150026038
 30
0.0
 40
0.05
  1
7
 50
180.0
 72
     1
 11
17.09744112252136
 21
6.573272150026038
 31
0.0
100
AcDbText
  0
LINE
  5
C01
330
1E
100
AcDbEntity
  8
0
100
AcDbLine
 10
19.71247944343821
 20
6.924999999999996
 30
0.0
 11
20.36947944343821
 21
6.924999999999996
 31
0.0
  0
LINE
  5
C02
330
1E
100
AcDbEntity
  8
0
100
AcDbLine
 10
19.71247944343821
 20
7.172999999999993
 30
0.0
 11
20.36947944343821
 21
7.172999999999993
 31
0.0
  0
LINE
  5
C03
330
1E
100
AcDbEntity
  8
0
100
AcDbLine
 10
19.71247944343821
 20
6.841999999999994
 30
0.0
 11
19.71247944343821
 21
7.172999999999993
 31
0.0
  0
CIRCLE
  5
C04
330
1E
100
AcDbEntity
  8
0
100
AcDbCircle
 10
19.97247944343821
 20
7.043999999999996
 30
0.0
 40
0.0389999999999999
  0
LINE
  5
C05
330
1E
100
AcDbEntity
  8
0
100
AcDbLine
 10
19.96347944343821
 20
7.005999999999994
 30
0.0
 11
19.96347944343821
 21
7.081999999999995
 31
0.0
  0
CIRCLE
  5
C06
330
1E
100
AcDbEntity
  8
0
100
AcDbCircle
 10
20.10947944343821
 20
7.043999999999996
 30
0.0
 40
0.0389999999999999
  0
LINE
  5
C07
330
1E
100
AcDbEntity
  8
0
100
AcDbLine
 10
20.11847944343821
 20
7.005999999999994
 30
0.0
 11
20.11847944343821
 21
7.081999999999995
 31
0.0
  0
LINE
  5
C08
330
1E
100
AcDbEntity
  8
0
100
AcDbLine
 10
20.10047944343821
 20
7.005999999999994
 30
0.0
 11
20.10047944343821
 21
7.081999999999995
 31
0.0
  0
LINE
  5
C09
330
1E
100
AcDbEntity
  8
0
100
AcDbLine
 10
19.98147944343821
 20
7.005999999999994
 30
0.0
 11
19.98147944343821
 21
7.081999999999995
 31
0.0
  0
LINE
  5
C0A
330
1E
100
AcDbEntity
  8
0
100
AcDbLine
 10
20.25547944343821
 20
7.005999999999994
 30
0.0
 11
20.25547944343821
 21
7.081999999999995
 31
0.0
  0
LINE
  5
C0B
330
1E
100
AcDbEntity
  8
0
100
AcDbLine
 10
20.23747944343821
 20
7.005999999999994
 30
0.0
 11
20.23747944343821
 21
7.081999999999995
 31
0.0
  0
CIRCLE
  5
C0C
330
1E
100
AcDbEntity
  8
0
100
AcDbCircle
 10
20.24647944343821
 20
7.043999999999996
 30
0.0
 40
0.0389999999999999
  0
LINE
  5
C0D
330
1E
100
AcDbEntity
  8
0
100
AcDbLine
 10
20.36947944343821
 20
7.172999999999993
 30
0.0
 11
20.36947944343821
 21
6.841999999999994
 31
0.0
  0
LINE
  5
1D43
330
1E
100
AcDbEntity
  8
0
100
AcDbLine
 10
19.56771167908315
 20
6.906884692225094
 30
0.0
 11
19.49621167908315
 21
6.906884692225094
 31
0.0
  0
LINE
  5
1D44
330
1E
100
AcDbEntity
  8
0
100
AcDbLine
 10
19.67696167908315
 20
6.867884692225095
 30
0.0
 11
18.88496167908315
 21
6.867884692225095
 31
0.0
  0
LINE
  5
1D45
330
1E
100
AcDbEntity
  8
0
100
AcDbLine
 10
19.06671167908315
 20
6.906884692225094
 30
0.0
 11
18.99521167908315
 21
6.906884692225094
 31
0.0
  0
LINE
  5
1D46
330
1E
100
AcDbEntity
  8
0
100
AcDbLine
 10
18.96571167908315
 20
6.867884692225095
 30
0.0
 11
18.96571167908315
 21
6.906884692225094
 31
0.0
  0
LINE
  5
1D47
330
1E
100
AcDbEntity
  8
0
100
AcDbLine
 10
18.96571167908315
 20
6.906884692225094
 30
0.0
 11
18.89421167908315
 21
6.906884692225094
 31
0.0
  0
LINE
  5
1D48
330
1E
100
AcDbEntity
  8
0
100
AcDbLine
 10
18.89421167908315
 20
6.867884692225095
 30
0.0
 11
18.89421167908315
 21
6.906884692225094
 31
0.0
  0
LINE
  5
1D49
330
1E
100
AcDbEntity
  8
0
100
AcDbLine
 10
18.99521167908315
 20
6.867884692225095
 30
0.0
 11
18.99521167908315
 21
6.906884692225094
 31
0.0
  0
LINE
  5
1D4A
330
1E
100
AcDbEntity
  8
0
100
AcDbLine
 10
18.88496167908315
 20
6.867884692225095
 30
0.0
 11
18.88496167908315
 21
6.840884692225094
 31
0.0
  0
LINE
  5
1D4B
330
1E
100
AcDbEntity
  8
0
100
AcDbLine
 10
19.09721167908315
 20
6.867884692225095
 30
0.0
 11
19.09721167908315
 21
6.906884692225094
 31
0.0
  0
LINE
  5
1D4C
330
1E
100
AcDbEntity
  8
0
100
AcDbLine
 10
19.16871167908315
 20
6.906884692225094
 30
0.0
 11
19.09721167908315
 21
6.906884692225094
 31
0.0
  0
LINE
  5
1D4D
330
1E
100
AcDbEntity
  8
0
100
AcDbLine
 10
19.16871167908315
 20
6.867884692225095
 30
0.0
 11
19.16871167908315
 21
6.906884692225094
 31
0.0
  0
LINE
  5
1D4E
330
1E
100
AcDbEntity
  8
0
100
AcDbLine
 10
19.06671167908315
 20
6.867884692225095
 30
0.0
 11
19.06671167908315
 21
6.906884692225094
 31
0.0
  0
LINE
  5
1D4F
330
1E
100
AcDbEntity
  8
0
100
AcDbLine
 10
19.36471167908315
 20
6.906884692225094
 30
0.0
 11
19.29321167908315
 21
6.906884692225094
 31
0.0
  0
LINE
  5
1D50
330
1E
100
AcDbEntity
  8
0
100
AcDbLine
 10
19.29321167908315
 20
6.867884692225095
 30
0.0
 11
19.29321167908315
 21
6.906884692225094
 31
0.0
  0
LINE
  5
1D51
330
1E
100
AcDbEntity
  8
0
100
AcDbLine
 10
19.26971167908315
 20
6.906884692225094
 30
0.0
 11
19.19821167908315
 21
6.906884692225094
 31
0.0
  0
LINE
  5
1D52
330
1E
100
AcDbEntity
  8
0
100
AcDbLine
 10
19.26971167908315
 20
6.867884692225095
 30
0.0
 11
19.26971167908315
 21
6.906884692225094
 31
0.0
  0
LINE
  5
1D53
330
1E
100
AcDbEntity
  8
0
100
AcDbLine
 10
19.19821167908315
 20
6.867884692225095
 30
0.0
 11
19.19821167908315
 21
6.906884692225094
 31
0.0
  0
LINE
  5
1D54
330
1E
100
AcDbEntity
  8
0
100
AcDbLine
 10
19.49621167908315
 20
6.867884692225095
 30
0.0
 11
19.49621167908315
 21
6.906884692225094
 31
0.0
  0
LINE
  5
1D55
330
1E
100
AcDbEntity
  8
0
100
AcDbLine
 10
19.46571167908315
 20
6.906884692225094
 30
0.0
 11
19.39421167908315
 21
6.906884692225094
 31
0.0
  0
LINE
  5
1D56
330
1E
100
AcDbEntity
  8
0
100
AcDbLine
 10
19.46571167908315
 20
6.867884692225095
 30
0.0
 11
19.46571167908315
 21
6.906884692225094
 31
0.0
  0
LINE
  5
1D57
330
1E
100
AcDbEntity
  8
0
100
AcDbLine
 10
19.39421167908315
 20
6.867884692225095
 30
0.0
 11
19.39421167908315
 21
6.906884692225094
 31
0.0
  0
LINE
  5
1D58
330
1E
100
AcDbEntity
  8
0
100
AcDbLine
 10
19.36471167908315
 20
6.867884692225095
 30
0.0
 11
19.36471167908315
 21
6.906884692225094
 31
0.0
  0
LINE
  5
1D59
330
1E
100
AcDbEntity
  8
0
100
AcDbLine
 10
19.56771167908315
 20
6.867884692225095
 30
0.0
 11
19.56771167908315
 21
6.906884692225094
 31
0.0
  0
LINE
  5
1D5A
330
1E
100
AcDbEntity
  8
0
100
AcDbLine
 10
19.59721167908315
 20
6.867884692225095
 30
0.0
 11
19.59721167908315
 21
6.906884692225094
 31
0.0
  0
LINE
  5
1D5B
330
1E
100
AcDbEntity
  8
0
100
AcDbLine
 10
19.66871167908315
 20
6.867884692225095
 30
0.0
 11
19.66871167908315
 21
6.906884692225094
 31
0.0
  0
LINE
  5
1D5C
330
1E
100
AcDbEntity
  8
0
100
AcDbLine
 10
19.66871167908315
 20
6.906884692225094
 30
0.0
 11
19.59721167908315
 21
6.906884692225094
 31
0.0
  0
LINE
  5
1D5D
330
1E
100
AcDbEntity
  8
0
100
AcDbLine
 10
19.67696167908315
 20
6.840884692225094
 30
0.0
 11
19.67696167908315
 21
6.867884692225095
 31
0.0
  0
CIRCLE
  5
1D5F
330
1E
100
AcDbEntity
  8
0
100
AcDbCircle
 10
19.83547944343821
 20
7.043999999999996
 30
0.0
 40
0.0389999999999999
  0
LINE
  5
1D60
330
1E
100
AcDbEntity
  8
0
100
AcDbLine
 10
19.82647944343821
 20
7.005999999999994
 30
0.0
 11
19.82647944343821
 21
7.081999999999995
 31
0.0
  0
LINE
  5
1D61
330
1E
100
AcDbEntity
  8
0
100
AcDbLine
 10
19.84447944343821
 20
7.005999999999994
 30
0.0
 11
19.84447944343821
 21
7.081999999999995
 31
0.0
  0
LINE
  5
1D64
330
1E
100
AcDbEntity
  8
0
100
AcDbLine
 10
16.57247944343821
 20
6.838999999999995
 30
0.0
 11
16.57247944343821
 21
7.169999999999995
 31
0.0
  0
LINE
  5
1D65
330
1E
100
AcDbEntity
  8
0
100
AcDbLine
 10
18.86437263131962
 20
7.169999999999995
 30
0.0
 11
18.86437263131962
 21
6.838999999999995
 31
0.0
  0
LINE
  5
1D66
330
1E
100
AcDbEntity
  8
0
100
AcDbLine
 10
16.57247944343821
 20
6.921999999999997
 30
0.0
 11
18.86437263131962
 21
6.921999999999997
 31
0.0
  0
LINE
  5
1D67
330
1E
100
AcDbEntity
  8
0
100
AcDbLine
 10
16.57247944343821
 20
7.169999999999995
 30
0.0
 11
18.86437263131962
 21
7.169999999999995
 31
0.0
  0
CIRCLE
  5
1D68
330
1E
100
AcDbEntity
  8
0
100
AcDbCircle
 10
18.33037263131962
 20
7.040999999999997
 30
0.0
 40
0.0389999999999999
  0
LINE
  5
1D69
330
1E
100
AcDbEntity
  8
0
100
AcDbLine
 10
18.33937263131962
 20
7.002999999999996
 30
0.0
 11
18.33937263131962
 21
7.078999999999997
 31
0.0
  0
LINE
  5
1D6A
330
1E
100
AcDbEntity
  8
0
100
AcDbLine
 10
18.32137263131962
 20
7.002999999999996
 30
0.0
 11
18.32137263131962
 21
7.078999999999997
 31
0.0
  0
CIRCLE
  5
1D6B
330
1E
100
AcDbEntity
  8
0
100
AcDbCircle
 10
18.46737263131962
 20
7.040999999999997
 30
0.0
 40
0.0389999999999999
  0
LINE
  5
1D6C
330
1E
100
AcDbEntity
  8
0
100
AcDbLine
 10
18.45837263131962
 20
7.002999999999996
 30
0.0
 11
18.45837263131962
 21
7.078999999999997
 31
0.0
  0
LINE
  5
1D6D
330
1E
100
AcDbEntity
  8
0
100
AcDbLine
 10
18.47637263131962
 20
7.002999999999996
 30
0.0
 11
18.47637263131962
 21
7.078999999999997
 31
0.0
  0
CIRCLE
  5
1D6E
330
1E
100
AcDbEntity
  8
0
100
AcDbCircle
 10
18.60437263131962
 20
7.040999999999997
 30
0.0
 40
0.0389999999999999
  0
LINE
  5
1D6F
330
1E
100
AcDbEntity
  8
0
100
AcDbLine
 10
18.61337263131962
 20
7.002999999999996
 30
0.0
 11
18.61337263131962
 21
7.078999999999997
 31
0.0
  0
LINE
  5
1D70
330
1E
100
AcDbEntity
  8
0
100
AcDbLine
 10
18.59537263131962
 20
7.002999999999996
 30
0.0
 11
18.59537263131962
 21
7.078999999999997
 31
0.0
  0
LINE
  5
1D71
330
1E
100
AcDbEntity
  8
0
100
AcDbLine
 10
18.75037263131962
 20
7.002999999999996
 30
0.0
 11
18.75037263131962
 21
7.078999999999997
 31
0.0
  0
LINE
  5
1D72
330
1E
100
AcDbEntity
  8
0
100
AcDbLine
 10
18.73237263131962
 20
7.002999999999996
 30
0.0
 11
18.73237263131962
 21
7.078999999999997
 31
0.0
  0
CIRCLE
  5
1D73
330
1E
100
AcDbEntity
  8
0
100
AcDbCircle
 10
18.74137263131962
 20
7.040999999999997
 30
0.0
 40
0.0389999999999999
  0
LINE
  5
1D76
330
1E
100
AcDbEntity
  8
0
100
AcDbLine
 10
17.91037263131962
 20
7.002999999999996
 30
0.0
 11
17.91037263131962
 21
7.078999999999997
 31
0.0
  0
LINE
  5
1D77
330
1E
100
AcDbEntity
  8
0
100
AcDbLine
 10
17.92837263131962
 20
7.002999999999996
 30
0.0
 11
17.92837263131962
 21
7.078999999999997
 31
0.0
  0
CIRCLE
  5
1D78
330
1E
100
AcDbEntity
  8
0
100
AcDbCircle
 10
17.91937263131962
 20
7.040999999999997
 30
0.0
 40
0.0389999999999999
  0
LINE
  5
1D79
330
1E
100
AcDbEntity
  8
0
100
AcDbLine
 10
18.06537263131962
 20
7.002999999999996
 30
0.0
 11
18.06537263131962
 21
7.078999999999997
 31
0.0
  0
LINE
  5
1D7A
330
1E
100
AcDbEntity
  8
0
100
AcDbLine
 10
18.04737263131962
 20
7.002999999999996
 30
0.0
 11
18.04737263131962
 21
7.078999999999997
 31
0.0
  0
CIRCLE
  5
1D7B
330
1E
100
AcDbEntity
  8
0
100
AcDbCircle
 10
18.05637263131962
 20
7.040999999999997
 30
0.0
 40
0.0389999999999999
  0
LINE
  5
1D7C
330
1E
100
AcDbEntity
  8
0
100
AcDbLine
 10
18.18437263131962
 20
7.002999999999996
 30
0.0
 11
18.18437263131962
 21
7.078999999999997
 31
0.0
  0
LINE
  5
1D7D
330
1E
100
AcDbEntity
  8
0
100
AcDbLine
 10
18.20237263131962
 20
7.002999999999996
 30
0.0
 11
18.20237263131962
 21
7.078999999999997
 31
0.0
  0
CIRCLE
  5
1D7E
330
1E
100
AcDbEntity
  8
0
100
AcDbCircle
 10
18.19337263131962
 20
7.040999999999997
 30
0.0
 40
0.0389999999999999
  0
CIRCLE
  5
1D7F
330
1E
100
AcDbEntity
  8
0
100
AcDbCircle
 10
17.23437263131962
 20
7.040999999999997
 30
0.0
 40
0.0389999999999999
  0
CIRCLE
  5
1D80
330
1E
100
AcDbEntity
  8
0
100
AcDbCircle
 10
17.09737263131962
 20
7.040999999999997
 30
0.0
 40
0.0389999999999999
  0
LINE
  5
1D81
330
1E
100
AcDbEntity
  8
0
100
AcDbLine
 10
17.10637263131961
 20
7.002999999999996
 30
0.0
 11
17.10637263131961
 21
7.078999999999997
 31
0.0
  0
LINE
  5
1D82
330
1E
100
AcDbEntity
  8
0
100
AcDbLine
 10
17.08837263131961
 20
7.002999999999996
 30
0.0
 11
17.08837263131961
 21
7.078999999999997
 31
0.0
  0
CIRCLE
  5
1D83
330
1E
100
AcDbEntity
  8
0
100
AcDbCircle
 10
17.37137263131962
 20
7.040999999999997
 30
0.0
 40
0.0389999999999999
  0
LINE
  5
1D84
330
1E
100
AcDbEntity
  8
0
100
AcDbLine
 10
17.38037263131962
 20
7.002999999999996
 30
0.0
 11
17.38037263131962
 21
7.078999999999997
 31
0.0
  0
LINE
  5
1D85
330
1E
100
AcDbEntity
  8
0
100
AcDbLine
 10
17.36237263131962
 20
7.002999999999996
 30
0.0
 11
17.36237263131962
 21
7.078999999999997
 31
0.0
  0
LINE
  5
1D86
330
1E
100
AcDbEntity
  8
0
100
AcDbLine
 10
17.22537263131961
 20
7.002999999999996
 30
0.0
 11
17.22537263131961
 21
7.078999999999997
 31
0.0
  0
LINE
  5
1D87
330
1E
100
AcDbEntity
  8
0
100
AcDbLine
 10
17.24337263131961
 20
7.002999999999996
 30
0.0
 11
17.24337263131961
 21
7.078999999999997
 31
0.0
  0
LINE
  5
1D88
330
1E
100
AcDbEntity
  8
0
100
AcDbLine
 10
17.49937263131962
 20
7.002999999999996
 30
0.0
 11
17.49937263131962
 21
7.078999999999997
 31
0.0
  0
LINE
  5
1D89
330
1E
100
AcDbEntity
  8
0
100
AcDbLine
 10
17.51737263131962
 20
7.002999999999996
 30
0.0
 11
17.51737263131962
 21
7.078999999999997
 31
0.0
  0
CIRCLE
  5
1D8A
330
1E
100
AcDbEntity
  8
0
100
AcDbCircle
 10
17.50837263131962
 20
7.040999999999997
 30
0.0
 40
0.0389999999999999
  0
LINE
  5
1D8B
330
1E
100
AcDbEntity
  8
0
100
AcDbLine
 10
17.65437263131962
 20
7.002999999999996
 30
0.0
 11
17.65437263131962
 21
7.078999999999997
 31
0.0
  0
LINE
  5
1D8C
330
1E
100
AcDbEntity
  8
0
100
AcDbLine
 10
17.63637263131962
 20
7.002999999999996
 30
0.0
 11
17.63637263131962
 21
7.078999999999997
 31
0.0
  0
CIRCLE
  5
1D8D
330
1E
100
AcDbEntity
  8
0
100
AcDbCircle
 10
17.64537263131962
 20
7.040999999999997
 30
0.0
 40
0.0389999999999999
  0
LINE
  5
1D8E
330
1E
100
AcDbEntity
  8
0
100
AcDbLine
 10
17.77337263131962
 20
7.002999999999996
 30
0.0
 11
17.77337263131962
 21
7.078999999999997
 31
0.0
  0
LINE
  5
1D8F
330
1E
100
AcDbEntity
  8
0
100
AcDbLine
 10
17.79137263131962
 20
7.002999999999996
 30
0.0
 11
17.79137263131962
 21
7.078999999999997
 31
0.0
  0
CIRCLE
  5
1D90
330
1E
100
AcDbEntity
  8
0
100
AcDbCircle
 10
17.78237263131962
 20
7.040999999999997
 30
0.0
 40
0.0389999999999999
  0
CIRCLE
  5
1D91
330
1E
100
AcDbEntity
  8
0
100
AcDbCircle
 10
16.96037263131962
 20
7.040999999999997
 30
0.0
 40
0.0389999999999999
  0
CIRCLE
  5
1D92
330
1E
100
AcDbEntity
  8
0
100
AcDbCircle
 10
16.82337263131961
 20
7.040999999999997
 30
0.0
 40
0.0389999999999999
  0
LINE
  5
1D93
330
1E
100
AcDbEntity
  8
0
100
AcDbLine
 10
16.67737263131961
 20
7.002999999999996
 30
0.0
 11
16.67737263131961
 21
7.078999999999997
 31
0.0
  0
LINE
  5
1D94
330
1E
100
AcDbEntity
  8
0
100
AcDbLine
 10
16.69537263131961
 20
7.002999999999996
 30
0.0
 11
16.69537263131961
 21
7.078999999999997
 31
0.0
  0
CIRCLE
  5
1D95
330
1E
100
AcDbEntity
  8
0
100
AcDbCircle
 10
16.68637263131961
 20
7.040999999999997
 30
0.0
 40
0.0389999999999999
  0
LINE
  5
1D96
330
1E
100
AcDbEntity
  8
0
100
AcDbLine
 10
16.83237263131961
 20
7.002999999999996
 30
0.0
 11
16.83237263131961
 21
7.078999999999997
 31
0.0
  0
LINE
  5
1D97
330
1E
100
AcDbEntity
  8
0
100
AcDbLine
 10
16.81437263131961
 20
7.002999999999996
 30
0.0
 11
16.81437263131961
 21
7.078999999999997
 31
0.0
  0
LINE
  5
1D98
330
1E
100
AcDbEntity
  8
0
100
AcDbLine
 10
16.95137263131961
 20
7.002999999999996
 30
0.0
 11
16.95137263131961
 21
7.078999999999997
 31
0.0
  0
LINE
  5
1D99
330
1E
100
AcDbEntity
  8
0
100
AcDbLine
 10
16.96937263131961
 20
7.002999999999996
 30
0.0
 11
16.96937263131961
 21
7.078999999999997
 31
0.0
  0
LINE
  5
1D9A
330
1E
100
AcDbEntity
  8
0
100
AcDbLine
 10
21.72237263131961
 20
3.373999999999997
 30
0.0
 11
19.98747944343821
 21
3.373999999999998
 31
0.0
  0
LINE
  5
1D9B
330
1E
100
AcDbEntity
  8
0
100
AcDbLine
 10
21.72237263131961
 20
3.125999999999999
 30
0.0
 11
19.98747944343821
 21
3.126
 31
0.0
  0
LINE
  5
1D9C
330
1E
100
AcDbEntity
  8
0
100
AcDbLine
 10
21.72237263131961
 20
3.456999999999999
 30
0.0
 11
21.72237263131961
 21
3.125999999999999
 31
0.0
  0
CIRCLE
  5
1D9D
330
1E
100
AcDbEntity
  8
0
100
AcDbCircle
 10
21.6084794434382
 20
3.254999999999998
 30
0.0
 40
0.0389999999999999
  0
LINE
  5
1D9E
330
1E
100
AcDbEntity
  8
0
100
AcDbLine
 10
21.5994794434382
 20
3.292999999999998
 30
0.0
 11
21.5994794434382
 21
3.216999999999998
 31
0.0
  0
LINE
  5
1D9F
330
1E
100
AcDbEntity
  8
0
100
AcDbLine
 10
21.6174794434382
 20
3.292999999999998
 30
0.0
 11
21.6174794434382
 21
3.216999999999998
 31
0.0
  0
LINE
  5
1DA0
330
1E
100
AcDbEntity
  8
0
100
AcDbLine
 10
21.4804794434382
 20
3.292999999999998
 30
0.0
 11
21.4804794434382
 21
3.216999999999998
 31
0.0
  0
LINE
  5
1DA1
330
1E
100
AcDbEntity
  8
0
100
AcDbLine
 10
21.4624794434382
 20
3.292999999999998
 30
0.0
 11
21.4624794434382
 21
3.216999999999998
 31
0.0
  0
CIRCLE
  5
1DA2
330
1E
100
AcDbEntity
  8
0
100
AcDbCircle
 10
21.4714794434382
 20
3.254999999999998
 30
0.0
 40
0.0389999999999999
  0
LINE
  5
1DA3
330
1E
100
AcDbEntity
  8
0
100
AcDbLine
 10
21.3254794434382
 20
3.292999999999998
 30
0.0
 11
21.3254794434382
 21
3.216999999999998
 31
0.0
  0
LINE
  5
1DA4
330
1E
100
AcDbEntity
  8
0
100
AcDbLine
 10
21.3434794434382
 20
3.292999999999998
 30
0.0
 11
21.3434794434382
 21
3.216999999999998
 31
0.0
  0
CIRCLE
  5
1DA5
330
1E
100
AcDbEntity
  8
0
100
AcDbCircle
 10
21.3344794434382
 20
3.254999999999998
 30
0.0
 40
0.0389999999999999
  0
CIRCLE
  5
1DA6
330
1E
100
AcDbEntity
  8
0
100
AcDbCircle
 10
20.9234794434382
 20
3.254999999999998
 30
0.0
 40
0.0389999999999999
  0
CIRCLE
  5
1DA7
330
1E
100
AcDbEntity
  8
0
100
AcDbCircle
 10
21.0604794434382
 20
3.254999999999998
 30
0.0
 40
0.0389999999999999
  0
LINE
  5
1DA8
330
1E
100
AcDbEntity
  8
0
100
AcDbLine
 10
21.2064794434382
 20
3.292999999999998
 30
0.0
 11
21.2064794434382
 21
3.216999999999998
 31
0.0
  0
LINE
  5
1DA9
330
1E
100
AcDbEntity
  8
0
100
AcDbLine
 10
21.1884794434382
 20
3.292999999999998
 30
0.0
 11
21.1884794434382
 21
3.216999999999998
 31
0.0
  0
CIRCLE
  5
1DAA
330
1E
100
AcDbEntity
  8
0
100
AcDbCircle
 10
21.1974794434382
 20
3.254999999999998
 30
0.0
 40
0.0389999999999999
  0
LINE
  5
1DAB
330
1E
100
AcDbEntity
  8
0
100
AcDbLine
 10
21.0514794434382
 20
3.292999999999998
 30
0.0
 11
21.0514794434382
 21
3.216999999999998
 31
0.0
  0
LINE
  5
1DAC
330
1E
100
AcDbEntity
  8
0
100
AcDbLine
 10
21.0694794434382
 20
3.292999999999998
 30
0.0
 11
21.0694794434382
 21
3.216999999999998
 31
0.0
  0
LINE
  5
1DAD
330
1E
100
AcDbEntity
  8
0
100
AcDbLine
 10
20.9324794434382
 20
3.292999999999998
 30
0.0
 11
20.9324794434382
 21
3.216999999999998
 31
0.0
  0
CIRCLE
  5
1DAE
330
1E
100
AcDbEntity
  8
0
100
AcDbCircle
 10
20.7864794434382
 20
3.254999999999998
 30
0.0
 40
0.0389999999999999
  0
LINE
  5
1DAF
330
1E
100
AcDbEntity
  8
0
100
AcDbLine
 10
20.7774794434382
 20
3.292999999999998
 30
0.0
 11
20.7774794434382
 21
3.216999999999998
 31
0.0
  0
LINE
  5
1DB0
330
1E
100
AcDbEntity
  8
0
100
AcDbLine
 10
20.7954794434382
 20
3.292999999999998
 30
0.0
 11
20.7954794434382
 21
3.216999999999998
 31
0.0
  0
LINE
  5
1DB1
330
1E
100
AcDbEntity
  8
0
100
AcDbLine
 10
20.9144794434382
 20
3.292999999999998
 30
0.0
 11
20.9144794434382
 21
3.216999999999998
 31
0.0
  0
CIRCLE
  5
1DB2
330
1E
100
AcDbEntity
  8
0
100
AcDbCircle
 10
20.6494794434382
 20
3.254999999999998
 30
0.0
 40
0.0389999999999999
  0
LINE
  5
1DB3
330
1E
100
AcDbEntity
  8
0
100
AcDbLine
 10
20.6584794434382
 20
3.292999999999998
 30
0.0
 11
20.6584794434382
 21
3.216999999999998
 31
0.0
  0
LINE
  5
1DB4
330
1E
100
AcDbEntity
  8
0
100
AcDbLine
 10
20.6404794434382
 20
3.292999999999998
 30
0.0
 11
20.6404794434382
 21
3.216999999999998
 31
0.0
  0
CIRCLE
  5
1DB5
330
1E
100
AcDbEntity
  8
0
100
AcDbCircle
 10
20.2384794434382
 20
3.254999999999999
 30
0.0
 40
0.0389999999999999
  0
CIRCLE
  5
1DB6
330
1E
100
AcDbEntity
  8
0
100
AcDbCircle
 10
20.5124794434382
 20
3.254999999999998
 30
0.0
 40
0.0389999999999999
  0
LINE
  5
1DB7
330
1E
100
AcDbEntity
  8
0
100
AcDbLine
 10
20.5034794434382
 20
3.292999999999999
 30
0.0
 11
20.5034794434382
 21
3.216999999999999
 31
0.0
  0
LINE
  5
1DB8
330
1E
100
AcDbEntity
  8
0
100
AcDbLine
 10
20.5214794434382
 20
3.292999999999999
 30
0.0
 11
20.5214794434382
 21
3.216999999999999
 31
0.0
  0
CIRCLE
  5
1DB9
330
1E
100
AcDbEntity
  8
0
100
AcDbCircle
 10
20.3754794434382
 20
3.254999999999999
 30
0.0
 40
0.0389999999999999
  0
LINE
  5
1DBA
330
1E
100
AcDbEntity
  8
0
100
AcDbLine
 10
20.3664794434382
 20
3.292999999999999
 30
0.0
 11
20.3664794434382
 21
3.216999999999999
 31
0.0
  0
LINE
  5
1DBB
330
1E
100
AcDbEntity
  8
0
100
AcDbLine
 10
20.3844794434382
 20
3.292999999999999
 30
0.0
 11
20.3844794434382
 21
3.216999999999999
 31
0.0
  0
CIRCLE
  5
1DBC
330
1E
100
AcDbEntity
  8
0
100
AcDbCircle
 10
20.1014794434382
 20
3.254999999999999
 30
0.0
 40
0.0389999999999999
  0
LINE
  5
1DBD
330
1E
100
AcDbEntity
  8
0
100
AcDbLine
 10
20.0924794434382
 20
3.292999999999999
 30
0.0
 11
20.0924794434382
 21
3.216999999999999
 31
0.0
  0
LINE
  5
1DBE
330
1E
100
AcDbEntity
  8
0
100
AcDbLine
 10
20.1104794434382
 20
3.292999999999999
 30
0.0
 11
20.1104794434382
 21
3.216999999999999
 31
0.0
  0
LINE
  5
1DBF
330
1E
100
AcDbEntity
  8
0
100
AcDbLine
 10
20.2474794434382
 20
3.292999999999999
 30
0.0
 11
20.2474794434382
 21
3.216999999999999
 31
0.0
  0
LINE
  5
1DC0
330
1E
100
AcDbEntity
  8
0
100
AcDbLine
 10
20.2294794434382
 20
3.292999999999999
 30
0.0
 11
20.2294794434382
 21
3.216999999999999
 31
0.0
  0
LINE
  5
1DC4
330
1E
100
AcDbEntity
  8
0
100
AcDbLine
 10
19.98747944343821
 20
3.126
 30
0.0
 11
19.98747944343821
 21
3.457
 31
0.0
  0
LINE
  5
1E07
330
1E
100
AcDbEntity
  8
0
100
AcDbLine
 10
19.96097262192182
 20
3.125999999999999
 30
0.0
 11
16.57747944343821
 21
3.126
 31
0.0
  0
LINE
  5
1E08
330
1E
100
AcDbEntity
  8
0
100
AcDbLine
 10
19.96097262192182
 20
3.373999999999997
 30
0.0
 11
16.57747944343821
 21
3.373999999999998
 31
0.0
  0
CIRCLE
  5
1E09
330
1E
100
AcDbEntity
  8
0
100
AcDbCircle
 10
18.61407943404041
 20
3.254999999999999
 30
0.0
 40
0.0389999999999999
  0
LINE
  5
1E0A
330
1E
100
AcDbEntity
  8
0
100
AcDbLine
 10
16.57747944343821
 20
3.126
 30
0.0
 11
16.57747944343821
 21
3.457
 31
0.0
  0
CIRCLE
  5
1E0B
330
1E
100
AcDbEntity
  8
0
100
AcDbCircle
 10
18.47707943404041
 20
3.254999999999999
 30
0.0
 40
0.0389999999999999
  0
LINE
  5
1E0C
330
1E
100
AcDbEntity
  8
0
100
AcDbLine
 10
18.33107943404042
 20
3.292999999999999
 30
0.0
 11
18.33107943404042
 21
3.216999999999999
 31
0.0
  0
LINE
  5
1E0D
330
1E
100
AcDbEntity
  8
0
100
AcDbLine
 10
18.34907943404042
 20
3.292999999999999
 30
0.0
 11
18.34907943404042
 21
3.216999999999999
 31
0.0
  0
CIRCLE
  5
1E0E
330
1E
100
AcDbEntity
  8
0
100
AcDbCircle
 10
18.34007943404041
 20
3.254999999999999
 30
0.0
 40
0.0389999999999999
  0
LINE
  5
1E0F
330
1E
100
AcDbEntity
  8
0
100
AcDbLine
 10
18.48607943404042
 20
3.292999999999999
 30
0.0
 11
18.48607943404042
 21
3.216999999999999
 31
0.0
  0
LINE
  5
1E10
330
1E
100
AcDbEntity
  8
0
100
AcDbLine
 10
18.60507943404042
 20
3.292999999999999
 30
0.0
 11
18.60507943404042
 21
3.216999999999999
 31
0.0
  0
LINE
  5
1E11
330
1E
100
AcDbEntity
  8
0
100
AcDbLine
 10
18.46807943404042
 20
3.292999999999999
 30
0.0
 11
18.46807943404042
 21
3.216999999999999
 31
0.0
  0
CIRCLE
  5
1E12
330
1E
100
AcDbEntity
  8
0
100
AcDbCircle
 10
19.29907943404042
 20
3.254999999999998
 30
0.0
 40
0.0389999999999999
  0
CIRCLE
  5
1E13
330
1E
100
AcDbEntity
  8
0
100
AcDbCircle
 10
18.75107943404042
 20
3.254999999999998
 30
0.0
 40
0.0389999999999999
  0
LINE
  5
1E14
330
1E
100
AcDbEntity
  8
0
100
AcDbLine
 10
18.74207943404042
 20
3.292999999999999
 30
0.0
 11
18.74207943404042
 21
3.216999999999999
 31
0.0
  0
LINE
  5
1E15
330
1E
100
AcDbEntity
  8
0
100
AcDbLine
 10
18.76007943404042
 20
3.292999999999999
 30
0.0
 11
18.76007943404042
 21
3.216999999999999
 31
0.0
  0
LINE
  5
1E16
330
1E
100
AcDbEntity
  8
0
100
AcDbLine
 10
18.62307943404042
 20
3.292999999999999
 30
0.0
 11
18.62307943404042
 21
3.216999999999999
 31
0.0
  0
LINE
  5
1E17
330
1E
100
AcDbEntity
  8
0
100
AcDbLine
 10
18.89707943404042
 20
3.292999999999998
 30
0.0
 11
18.89707943404042
 21
3.216999999999998
 31
0.0
  0
LINE
  5
1E18
330
1E
100
AcDbEntity
  8
0
100
AcDbLine
 10
18.87907943404042
 20
3.292999999999998
 30
0.0
 11
18.87907943404042
 21
3.216999999999998
 31
0.0
  0
CIRCLE
  5
1E19
330
1E
100
AcDbEntity
  8
0
100
AcDbCircle
 10
18.88807943404042
 20
3.254999999999998
 30
0.0
 40
0.0389999999999999
  0
CIRCLE
  5
1E1A
330
1E
100
AcDbEntity
  8
0
100
AcDbCircle
 10
19.02507943404042
 20
3.254999999999998
 30
0.0
 40
0.0389999999999999
  0
LINE
  5
1E1B
330
1E
100
AcDbEntity
  8
0
100
AcDbLine
 10
19.01607943404042
 20
3.292999999999998
 30
0.0
 11
19.01607943404042
 21
3.216999999999998
 31
0.0
  0
LINE
  5
1E1C
330
1E
100
AcDbEntity
  8
0
100
AcDbLine
 10
19.03407943404042
 20
3.292999999999998
 30
0.0
 11
19.03407943404042
 21
3.216999999999998
 31
0.0
  0
LINE
  5
1E1D
330
1E
100
AcDbEntity
  8
0
100
AcDbLine
 10
19.17107943404042
 20
3.292999999999998
 30
0.0
 11
19.17107943404042
 21
3.216999999999998
 31
0.0
  0
LINE
  5
1E1E
330
1E
100
AcDbEntity
  8
0
100
AcDbLine
 10
19.15307943404042
 20
3.292999999999998
 30
0.0
 11
19.15307943404042
 21
3.216999999999998
 31
0.0
  0
CIRCLE
  5
1E1F
330
1E
100
AcDbEntity
  8
0
100
AcDbCircle
 10
19.16207943404042
 20
3.254999999999998
 30
0.0
 40
0.0389999999999999
  0
CIRCLE
  5
1E20
330
1E
100
AcDbEntity
  8
0
100
AcDbCircle
 10
19.57307943404042
 20
3.254999999999998
 30
0.0
 40
0.0389999999999999
  0
CIRCLE
  5
1E21
330
1E
100
AcDbEntity
  8
0
100
AcDbCircle
 10
19.43607943404042
 20
3.254999999999998
 30
0.0
 40
0.0389999999999999
  0
LINE
  5
1E22
330
1E
100
AcDbEntity
  8
0
100
AcDbLine
 10
19.30807943404042
 20
3.292999999999998
 30
0.0
 11
19.30807943404042
 21
3.216999999999998
 31
0.0
  0
LINE
  5
1E23
330
1E
100
AcDbEntity
  8
0
100
AcDbLine
 10
19.42707943404042
 20
3.292999999999998
 30
0.0
 11
19.42707943404042
 21
3.216999999999998
 31
0.0
  0
LINE
  5
1E24
330
1E
100
AcDbEntity
  8
0
100
AcDbLine
 10
19.29007943404042
 20
3.292999999999998
 30
0.0
 11
19.29007943404042
 21
3.216999999999998
 31
0.0
  0
LINE
  5
1E25
330
1E
100
AcDbEntity
  8
0
100
AcDbLine
 10
19.56407943404042
 20
3.292999999999998
 30
0.0
 11
19.56407943404042
 21
3.216999999999998
 31
0.0
  0
LINE
  5
1E26
330
1E
100
AcDbEntity
  8
0
100
AcDbLine
 10
19.58207943404042
 20
3.292999999999998
 30
0.0
 11
19.58207943404042
 21
3.216999999999998
 31
0.0
  0
LINE
  5
1E27
330
1E
100
AcDbEntity
  8
0
100
AcDbLine
 10
19.44507943404042
 20
3.292999999999998
 30
0.0
 11
19.44507943404042
 21
3.216999999999998
 31
0.0
  0
CIRCLE
  5
1E28
330
1E
100
AcDbEntity
  8
0
100
AcDbCircle
 10
19.71007943404042
 20
3.254999999999998
 30
0.0
 40
0.0389999999999999
  0
LINE
  5
1E29
330
1E
100
AcDbEntity
  8
0
100
AcDbLine
 10
19.70107943404042
 20
3.292999999999998
 30
0.0
 11
19.70107943404042
 21
3.216999999999998
 31
0.0
  0
LINE
  5
1E2A
330
1E
100
AcDbEntity
  8
0
100
AcDbLine
 10
19.71907943404042
 20
3.292999999999998
 30
0.0
 11
19.71907943404042
 21
3.216999999999998
 31
0.0
  0
LINE
  5
1E2B
330
1E
100
AcDbEntity
  8
0
100
AcDbLine
 10
19.83807943404042
 20
3.292999999999998
 30
0.0
 11
19.83807943404042
 21
3.216999999999998
 31
0.0
  0
LINE
  5
1E2C
330
1E
100
AcDbEntity
  8
0
100
AcDbLine
 10
19.85607943404042
 20
3.292999999999998
 30
0.0
 11
19.85607943404042
 21
3.216999999999998
 31
0.0
  0
CIRCLE
  5
1E2D
330
1E
100
AcDbEntity
  8
0
100
AcDbCircle
 10
19.84707943404042
 20
3.254999999999998
 30
0.0
 40
0.0389999999999999
  0
LINE
  5
1E2E
330
1E
100
AcDbEntity
  8
0
100
AcDbLine
 10
19.96097262192182
 20
3.456999999999999
 30
0.0
 11
19.96097262192182
 21
3.125999999999999
 31
0.0
  0
CIRCLE
  5
1E2F
330
1E
100
AcDbEntity
  8
0
100
AcDbCircle
 10
17.38107943404042
 20
3.254999999999998
 30
0.0
 40
0.0389999999999999
  0
CIRCLE
  5
1E30
330
1E
100
AcDbEntity
  8
0
100
AcDbCircle
 10
16.69607943404042
 20
3.254999999999999
 30
0.0
 40
0.0389999999999999
  0
LINE
  5
1E31
330
1E
100
AcDbEntity
  8
0
100
AcDbLine
 10
16.70507943404042
 20
3.292999999999999
 30
0.0
 11
16.70507943404042
 21
3.216999999999999
 31
0.0
  0
LINE
  5
1E32
330
1E
100
AcDbEntity
  8
0
100
AcDbLine
 10
16.68707943404042
 20
3.292999999999999
 30
0.0
 11
16.68707943404042
 21
3.216999999999999
 31
0.0
  0
LINE
  5
1E33
330
1E
100
AcDbEntity
  8
0
100
AcDbLine
 10
16.82407943404042
 20
3.292999999999999
 30
0.0
 11
16.82407943404042
 21
3.216999999999999
 31
0.0
  0
LINE
  5
1E34
330
1E
100
AcDbEntity
  8
0
100
AcDbLine
 10
16.84207943404042
 20
3.292999999999999
 30
0.0
 11
16.84207943404042
 21
3.216999999999999
 31
0.0
  0
CIRCLE
  5
1E35
330
1E
100
AcDbEntity
  8
0
100
AcDbCircle
 10
16.83307943404042
 20
3.254999999999999
 30
0.0
 40
0.0389999999999999
  0
LINE
  5
1E36
330
1E
100
AcDbEntity
  8
0
100
AcDbLine
 10
16.97907943404042
 20
3.292999999999999
 30
0.0
 11
16.97907943404042
 21
3.216999999999999
 31
0.0
  0
LINE
  5
1E37
330
1E
100
AcDbEntity
  8
0
100
AcDbLine
 10
16.96107943404042
 20
3.292999999999999
 30
0.0
 11
16.96107943404042
 21
3.216999999999999
 31
0.0
  0
CIRCLE
  5
1E38
330
1E
100
AcDbEntity
  8
0
100
AcDbCircle
 10
16.97007943404042
 20
3.254999999999999
 30
0.0
 40
0.0389999999999999
  0
CIRCLE
  5
1E39
330
1E
100
AcDbEntity
  8
0
100
AcDbCircle
 10
17.24407943404042
 20
3.254999999999998
 30
0.0
 40
0.0389999999999999
  0
LINE
  5
1E3A
330
1E
100
AcDbEntity
  8
0
100
AcDbLine
 10
17.11607943404042
 20
3.292999999999999
 30
0.0
 11
17.11607943404042
 21
3.216999999999999
 31
0.0
  0
LINE
  5
1E3B
330
1E
100
AcDbEntity
  8
0
100
AcDbLine
 10
17.09807943404042
 20
3.292999999999999
 30
0.0
 11
17.09807943404042
 21
3.216999999999999
 31
0.0
  0
CIRCLE
  5
1E3C
330
1E
100
AcDbEntity
  8
0
100
AcDbCircle
 10
17.10707943404042
 20
3.254999999999998
 30
0.0
 40
0.0389999999999999
  0
LINE
  5
1E3D
330
1E
100
AcDbEntity
  8
0
100
AcDbLine
 10
17.39007943404042
 20
3.292999999999998
 30
0.0
 11
17.39007943404042
 21
3.216999999999998
 31
0.0
  0
LINE
  5
1E3E
330
1E
100
AcDbEntity
  8
0
100
AcDbLine
 10
17.37207943404042
 20
3.292999999999998
 30
0.0
 11
17.37207943404042
 21
3.216999999999998
 31
0.0
  0
LINE
  5
1E3F
330
1E
100
AcDbEntity
  8
0
100
AcDbLine
 10
17.23507943404042
 20
3.292999999999998
 30
0.0
 11
17.23507943404042
 21
3.216999999999998
 31
0.0
  0
LINE
  5
1E40
330
1E
100
AcDbEntity
  8
0
100
AcDbLine
 10
17.25307943404042
 20
3.292999999999998
 30
0.0
 11
17.25307943404042
 21
3.216999999999998
 31
0.0
  0
CIRCLE
  5
1E41
330
1E
100
AcDbEntity
  8
0
100
AcDbCircle
 10
18.06607943404042
 20
3.254999999999998
 30
0.0
 40
0.0389999999999999
  0
CIRCLE
  5
1E42
330
1E
100
AcDbEntity
  8
0
100
AcDbCircle
 10
17.51807943404042
 20
3.254999999999998
 30
0.0
 40
0.0389999999999999
  0
LINE
  5
1E43
330
1E
100
AcDbEntity
  8
0
100
AcDbLine
 10
17.50907943404042
 20
3.292999999999998
 30
0.0
 11
17.50907943404042
 21
3.216999999999998
 31
0.0
  0
LINE
  5
1E44
330
1E
100
AcDbEntity
  8
0
100
AcDbLine
 10
17.52707943404042
 20
3.292999999999998
 30
0.0
 11
17.52707943404042
 21
3.216999999999998
 31
0.0
  0
LINE
  5
1E45
330
1E
100
AcDbEntity
  8
0
100
AcDbLine
 10
17.64607943404042
 20
3.292999999999998
 30
0.0
 11
17.64607943404042
 21
3.216999999999998
 31
0.0
  0
LINE
  5
1E46
330
1E
100
AcDbEntity
  8
0
100
AcDbLine
 10
17.66407943404042
 20
3.292999999999998
 30
0.0
 11
17.66407943404042
 21
3.216999999999998
 31
0.0
  0
CIRCLE
  5
1E47
330
1E
100
AcDbEntity
  8
0
100
AcDbCircle
 10
17.65507943404042
 20
3.254999999999998
 30
0.0
 40
0.0389999999999999
  0
CIRCLE
  5
1E48
330
1E
100
AcDbEntity
  8
0
100
AcDbCircle
 10
17.92907943404042
 20
3.254999999999998
 30
0.0
 40
0.0389999999999999
  0
LINE
  5
1E49
330
1E
100
AcDbEntity
  8
0
100
AcDbLine
 10
17.80107943404042
 20
3.292999999999998
 30
0.0
 11
17.80107943404042
 21
3.216999999999998
 31
0.0
  0
LINE
  5
1E4A
330
1E
100
AcDbEntity
  8
0
100
AcDbLine
 10
17.78307943404042
 20
3.292999999999998
 30
0.0
 11
17.78307943404042
 21
3.216999999999998
 31
0.0
  0
CIRCLE
  5
1E4B
330
1E
100
AcDbEntity
  8
0
100
AcDbCircle
 10
17.79207943404042
 20
3.254999999999998
 30
0.0
 40
0.0389999999999999
  0
LINE
  5
1E4C
330
1E
100
AcDbEntity
  8
0
100
AcDbLine
 10
18.05707943404042
 20
3.292999999999998
 30
0.0
 11
18.05707943404042
 21
3.216999999999998
 31
0.0
  0
LINE
  5
1E4D
330
1E
100
AcDbEntity
  8
0
100
AcDbLine
 10
17.93807943404042
 20
3.292999999999998
 30
0.0
 11
17.93807943404042
 21
3.216999999999998
 31
0.0
  0
LINE
  5
1E4E
330
1E
100
AcDbEntity
  8
0
100
AcDbLine
 10
17.92007943404042
 20
3.292999999999998
 30
0.0
 11
17.92007943404042
 21
3.216999999999998
 31
0.0
  0
CIRCLE
  5
1E4F
330
1E
100
AcDbEntity
  8
0
100
AcDbCircle
 10
18.20307943404042
 20
3.254999999999998
 30
0.0
 40
0.0389999999999999
  0
LINE
  5
1E50
330
1E
100
AcDbEntity
  8
0
100
AcDbLine
 10
18.21207943404042
 20
3.292999999999998
 30
0.0
 11
18.21207943404042
 21
3.216999999999998
 31
0.0
  0
LINE
  5
1E51
330
1E
100
AcDbEntity
  8
0
100
AcDbLine
 10
18.19407943404042
 20
3.292999999999998
 30
0.0
 11
18.19407943404042
 21
3.216999999999998
 31
0.0
  0
LINE
  5
1E52
330
1E
100
AcDbEntity
  8
0
100
AcDbLine
 10
18.07507943404042
 20
3.292999999999998
 30
0.0
 11
18.07507943404042
 21
3.216999999999998
 31
0.0
  0
LINE
  5
1E57
330
1E
100
AcDbEntity
  8
0
100
AcDbLine
 10
18.85900000000001
 20
6.554737549312415
 30
0.0
 11
18.85900000000001
 21
6.438737549312415
 31
0.0
  0
LINE
  5
1E58
330
1E
100
AcDbEntity
  8
0
100
AcDbLine
 10
18.85900000000001
 20
6.438737549312415
 30
0.0
 11
19.09944112252136
 21
6.438737549312415
 31
0.0
  0
CIRCLE
  5
1E59
330
1E
100
AcDbEntity
  8
0
100
AcDbCircle
 10
19.02507943404042
 20
3.664424050008673
 30
0.0
 40
0.0350000000000002
  0
LINE
  5
1E5A
330
1E
100
AcDbEntity
  8
0
100
AcDbLine
 10
19.92947944343821
 20
3.738424050008673
 30
0.0
 11
19.92947944343821
 21
3.855424050008674
 31
0.0
  0
LINE
  5
1E5B
330
1E
100
AcDbEntity
  8
0
100
AcDbLine
 10
19.92947944343821
 20
3.855424050008674
 30
0.0
 11
18.6294794434382
 21
3.855424050008674
 31
0.0
  0
LINE
  5
1E5C
330
1E
100
AcDbEntity
  8
0
100
AcDbLine
 10
16.896
 20
5.174
 30
0.0
 11
16.896
 21
5.029999999999999
 31
0.0
  0
LINE
  5
1E5D
330
1E
100
AcDbEntity
  8
0
100
AcDbLine
 10
16.896
 20
5.029999999999999
 30
0.0
 11
16.741
 21
5.029999999999999
 31
0.0
  0
LINE
  5
1E5E
330
1E
100
AcDbEntity
  8
0
100
AcDbLine
 10
16.24599999999998
 20
5.174
 30
0.0
 11
16.24599999999998
 21
5.029999999999999
 31
0.0
  0
LINE
  5
1E5F
330
1E
100
AcDbEntity
  8
0
100
AcDbLine
 10
16.24599999999998
 20
5.029999999999999
 30
0.0
 11
16.40099999999999
 21
5.029999999999999
 31
0.0
  0
CIRCLE
  5
1E60
330
1E
100
AcDbEntity
  8
0
100
AcDbCircle
 10
16.83307943404042
 20
3.664424050008673
 30
0.0
 40
0.0350000000000002
  0
CIRCLE
  5
1E61
330
1E
100
AcDbEntity
  8
0
100
AcDbCircle
 10
16.97007943404042
 20
3.664424050008673
 30
0.0
 40
0.0350000000000002
  0
CIRCLE
  5
1E62
330
1E
100
AcDbEntity
  8
0
100
AcDbCircle
 10
17.38107943404042
 20
3.664424050008673
 30
0.0
 40
0.0350000000000002
  0
CIRCLE
  5
1E63
330
1E
100
AcDbEntity
  8
0
100
AcDbCircle
 10
17.10707943404042
 20
3.664424050008673
 30
0.0
 40
0.0350000000000002
  0
CIRCLE
  5
1E64
330
1E
100
AcDbEntity
  8
0
100
AcDbCircle
 10
17.24407943404042
 20
3.664424050008673
 30
0.0
 40
0.0350000000000002
  0
CIRCLE
  5
1E65
330
1E
100
AcDbEntity
  8
0
100
AcDbCircle
 10
17.51807943404042
 20
3.664424050008673
 30
0.0
 40
0.0350000000000002
  0
CIRCLE
  5
1E66
330
1E
100
AcDbEntity
  8
0
100
AcDbCircle
 10
17.65507943404042
 20
3.664424050008673
 30
0.0
 40
0.0350000000000002
  0
CIRCLE
  5
1E67
330
1E
100
AcDbEntity
  8
0
100
AcDbCircle
 10
18.34007943404042
 20
3.664424050008673
 30
0.0
 40
0.0350000000000002
  0
CIRCLE
  5
1E68
330
1E
100
AcDbEntity
  8
0
100
AcDbCircle
 10
18.06607943404042
 20
3.664424050008673
 30
0.0
 40
0.0350000000000002
  0
CIRCLE
  5
1E69
330
1E
100
AcDbEntity
  8
0
100
AcDbCircle
 10
17.79207943404042
 20
3.664424050008673
 30
0.0
 40
0.0350000000000002
  0
CIRCLE
  5
1E6A
330
1E
100
AcDbEntity
  8
0
100
AcDbCircle
 10
17.92907943404042
 20
3.664424050008673
 30
0.0
 40
0.0350000000000002
  0
CIRCLE
  5
1E6B
330
1E
100
AcDbEntity
  8
0
100
AcDbCircle
 10
18.20307943404042
 20
3.664424050008673
 30
0.0
 40
0.0350000000000002
  0
CIRCLE
  5
1E6C
330
1E
100
AcDbEntity
  8
0
100
AcDbCircle
 10
18.47707943404042
 20
3.664424050008673
 30
0.0
 40
0.0350000000000002
  0
CIRCLE
  5
1E6D
330
1E
100
AcDbEntity
  8
0
100
AcDbCircle
 10
18.61407943404042
 20
3.664424050008673
 30
0.0
 40
0.0350000000000002
  0
CIRCLE
  5
1E6E
330
1E
100
AcDbEntity
  8
0
100
AcDbCircle
 10
18.88807943404042
 20
3.664424050008673
 30
0.0
 40
0.0350000000000002
  0
CIRCLE
  5
1E6F
330
1E
100
AcDbEntity
  8
0
100
AcDbCircle
 10
18.75107943404042
 20
3.664424050008673
 30
0.0
 40
0.0350000000000002
  0
LINE
  5
1E70
330
1E
100
AcDbEntity
  8
0
100
AcDbLine
 10
16.6204794434382
 20
3.742424050008675
 30
0.0
 11
16.6204794434382
 21
3.855424050008674
 31
0.0
  0
LINE
  5
1E71
330
1E
100
AcDbEntity
  8
0
100
AcDbLine
 10
16.6204794434382
 20
3.855424050008674
 30
0.0
 11
17.8144794434382
 21
3.855424050008674
 31
0.0
  0
LINE
  5
1E72
330
1E
100
AcDbEntity
  8
0
100
AcDbLine
 10
16.54099999999999
 20
5.029999999999999
 30
0.0
 11
16.60099999999999
 21
5.029999999999999
 31
0.0
  0
LINE
  5
1E73
330
1E
100
AcDbEntity
  8
0
100
AcDbLine
 10
16.608
 20
6.554737549312417
 30
0.0
 11
16.608
 21
6.438737549312417
 31
0.0
  0
LINE
  5
1E74
330
1E
100
AcDbEntity
  8
0
100
AcDbLine
 10
16.608
 20
6.438737549312417
 30
0.0
 11
17.31544112252136
 21
6.438737549312415
 31
0.0
  0
LINE
  5
1E75
330
1E
100
AcDbEntity
  8
0
100
AcDbLine
 10
18.81800000000001
 20
6.555737549312414
 30
0.0
 11
18.81800000000001
 21
6.439737549312415
 31
0.0
  0
LINE
  5
1E76
330
1E
100
AcDbEntity
  8
0
100
AcDbLine
 10
18.81800000000001
 20
6.439737549312415
 30
0.0
 11
18.11444112252136
 21
6.439737549312415
 31
0.0
  0
LINE
  5
1E77
330
1E
100
AcDbEntity
  8
0
100
AcDbLine
 10
21.6944794434382
 20
3.740424050008674
 30
0.0
 11
21.6944794434382
 21
3.856424050008675
 31
0.0
  0
LINE
  5
1E78
330
1E
100
AcDbEntity
  8
0
100
AcDbLine
 10
21.6944794434382
 20
3.856424050008675
 30
0.0
 11
21.1814794434382
 21
3.856424050008675
 31
0.0
  0
LINE
  5
1E79
330
1E
100
AcDbEntity
  8
0
100
AcDbLine
 10
20.02147944343821
 20
3.739424050008675
 30
0.0
 11
20.02147944343821
 21
3.855424050008674
 31
0.0
  0
LINE
  5
1E7A
330
1E
100
AcDbEntity
  8
0
100
AcDbLine
 10
20.02147944343821
 20
3.855424050008674
 30
0.0
 11
20.3954794434382
 21
3.855424050008674
 31
0.0
  0
CIRCLE
  5
1E7B
330
1E
100
AcDbEntity
  8
0
100
AcDbCircle
 10
20.3754794434382
 20
3.664424050008673
 30
0.0
 40
0.0350000000000002
  0
CIRCLE
  5
1E7C
330
1E
100
AcDbEntity
  8
0
100
AcDbCircle
 10
19.16207943404042
 20
3.664424050008673
 30
0.0
 40
0.0350000000000002
  0
CIRCLE
  5
1E7D
330
1E
100
AcDbEntity
  8
0
100
AcDbCircle
 10
19.29907943404042
 20
3.664424050008673
 30
0.0
 40
0.0350000000000002
  0
CIRCLE
  5
1E7E
330
1E
100
AcDbEntity
  8
0
100
AcDbCircle
 10
19.57307943404042
 20
3.664424050008673
 30
0.0
 40
0.0350000000000002
  0
CIRCLE
  5
1E7F
330
1E
100
AcDbEntity
  8
0
100
AcDbCircle
 10
19.43607943404042
 20
3.664424050008673
 30
0.0
 40
0.0350000000000002
  0
CIRCLE
  5
1E80
330
1E
100
AcDbEntity
  8
0
100
AcDbCircle
 10
20.2384794434382
 20
3.664424050008673
 30
0.0
 40
0.0350000000000002
  0
CIRCLE
  5
1E81
330
1E
100
AcDbEntity
  8
0
100
AcDbCircle
 10
20.1014794434382
 20
3.664424050008673
 30
0.0
 40
0.0350000000000002
  0
CIRCLE
  5
1E82
330
1E
100
AcDbEntity
  8
0
100
AcDbCircle
 10
21.06047944343821
 20
3.664424050008673
 30
0.0
 40
0.0350000000000002
  0
CIRCLE
  5
1E83
330
1E
100
AcDbEntity
  8
0
100
AcDbCircle
 10
20.5124794434382
 20
3.664424050008673
 30
0.0
 40
0.0350000000000002
  0
CIRCLE
  5
1E84
330
1E
100
AcDbEntity
  8
0
100
AcDbCircle
 10
20.64947944343821
 20
3.664424050008673
 30
0.0
 40
0.0350000000000002
  0
CIRCLE
  5
1E85
330
1E
100
AcDbEntity
  8
0
100
AcDbCircle
 10
20.78647944343821
 20
3.664424050008673
 30
0.0
 40
0.0350000000000002
  0
CIRCLE
  5
1E86
330
1E
100
AcDbEntity
  8
0
100
AcDbCircle
 10
20.92347944343821
 20
3.664424050008673
 30
0.0
 40
0.0350000000000002
  0
CIRCLE
  5
1E87
330
1E
100
AcDbEntity
  8
0
100
AcDbCircle
 10
21.19747944343821
 20
3.664424050008673
 30
0.0
 40
0.0350000000000002
  0
CIRCLE
  5
1E88
330
1E
100
AcDbEntity
  8
0
100
AcDbCircle
 10
21.33447944343821
 20
3.664424050008673
 30
0.0
 40
0.0350000000000002
  0
LINE
  5
1E89
330
1E
100
AcDbEntity
  8
0
100
AcDbLine
 10
21.718
 20
6.555737549312414
 30
0.0
 11
21.718
 21
6.439737549312415
 31
0.0
  0
LINE
  5
1E8A
330
1E
100
AcDbEntity
  8
0
100
AcDbLine
 10
21.718
 20
6.439737549312415
 30
0.0
 11
21.65344112252137
 21
6.439737549312415
 31
0.0
  0
LINE
  5
1E8B
330
1E
100
AcDbEntity
  8
0
100
AcDbLine
 10
20.36703832091685
 20
6.555152857087307
 30
0.0
 11
20.36703832091685
 21
6.439152857087307
 31
0.0
  0
LINE
  5
1E8C
330
1E
100
AcDbEntity
  8
0
100
AcDbLine
 10
20.36703832091685
 20
6.439152857087307
 30
0.0
 11
20.388
 21
6.439152857087307
 31
0.0
  0
LINE
  5
1E8D
330
1E
100
AcDbEntity
  8
0
100
AcDbLine
 10
19.71500000000001
 20
6.555737549312414
 30
0.0
 11
19.71500000000001
 21
6.439737549312415
 31
0.0
  0
LINE
  5
1E8E
330
1E
100
AcDbEntity
  8
0
100
AcDbLine
 10
19.71500000000001
 20
6.439737549312415
 30
0.0
 11
19.48344112252136
 21
6.439737549312415
 31
0.0
  0
LINE
  5
1E8F
330
1E
100
AcDbEntity
  8
0
100
AcDbLine
 10
19.75347944343821
 20
6.555737549312414
 30
0.0
 11
19.75347944343821
 21
6.439737549312415
 31
0.0
  0
LINE
  5
1E90
330
1E
100
AcDbEntity
  8
0
100
AcDbLine
 10
19.75347944343821
 20
6.439737549312415
 30
0.0
 11
19.95447944343821
 21
6.439737549312415
 31
0.0
  0
LINE
  5
1E91
330
1E
100
AcDbEntity
  8
0
100
AcDbLine
 10
20.3274794434382
 20
6.555737549312414
 30
0.0
 11
20.3274794434382
 21
6.439737549312415
 31
0.0
  0
LINE
  5
1E92
330
1E
100
AcDbEntity
  8
0
100
AcDbLine
 10
20.3274794434382
 20
6.439737549312415
 30
0.0
 11
20.13447944343821
 21
6.439737549312415
 31
0.0
  0
LINE
  5
1E93
330
1E
100
AcDbEntity
  8
0
100
AcDbLine
 10
21.289
 20
6.554737549312415
 30
0.0
 11
21.289
 21
6.438737549312415
 31
0.0
  0
LINE
  5
1E94
330
1E
100
AcDbEntity
  8
0
100
AcDbLine
 10
21.289
 20
6.438737549312415
 30
0.0
 11
21.37144112252136
 21
6.438737549312415
 31
0.0
  0
LINE
  5
1E95
330
1E
100
AcDbEntity
  8
0
100
AcDbLine
 10
21.21503832091685
 20
6.556152857087308
 30
0.0
 11
21.21503832091685
 21
6.440152857087309
 31
0.0
  0
LINE
  5
1E96
330
1E
100
AcDbEntity
  8
0
100
AcDbLine
 10
21.21503832091685
 20
6.440152857087309
 30
0.0
 11
21.196
 21
6.440152857087309
 31
0.0
  0
ENDSEC
  0
SECTION
  2
OBJECTS
  0
DICTIONARY
  5
C
330
0
100
AcDbDictionary
281
     1
  3
ACAD_GROUP
350
D
  3
ACAD_LAYOUT
350
19
  3
ACAD_MLINESTYLE
350
16
  3
ACAD_PLOTSETTINGS
350
18
  3
ACAD_PLOTSTYLENAME
350
E
  0
DICTIONARY
  5
D
102
{ACAD_REACTORS
330
C
102
}
330
C
100
AcDbDictionary
281
     1
  0
DICTIONARY
  5
19
102
{ACAD_REACTORS
330
C
102
}
330
C
100
AcDbDictionary
281
     1
  3
Layout1
350
1D
  3
Model
350
21
  0
DICTIONARY
  5
16
102
{ACAD_REACTORS
330
C
102
}
330
C
100
AcDbDictionary
281
     1
  3
Standard
350
17
  0
DICTIONARY
  5
18
102
{ACAD_REACTORS
330
C
102
}
330
C
100
AcDbDictionary
281
     1
  0
ACDBDICTIONARYWDFLT
  5
E
102
{ACAD_REACTORS
330
C
102
}
330
C
100
AcDbDictionary
281
     1
  3
Normal
350
F
100
AcDbDictionaryWithDefault
340
F
  0
LAYOUT
  5
1D
102
{ACAD_REACTORS
330
19
102
}
330
19
100
AcDbPlotSettings
  1

  2
\\ENGPRINTSERV\QMS 2425 Eng Printer
  4

  6

 40
0.0
 41
0.0
 42
0.0
 43
0.0
 44
0.0
 45
0.0
 46
0.0
 47
0.0
 48
0.0
 49
0.0
140
0.0
141
0.0
142
1.0
143
1.0
 70
   688
 72
     0
 73
     0
 74
     5
  7

 75
    16
147
1.0
148
0.0
149
0.0
100
AcDbLayout
  1
Layout1
 70
     0
 71
     1
 10
0.0
 20
0.0
 11
12.0
 21
9.0
 12
0.0
 22
0.0
 32
0.0
 14
1.000000000000000E+20
 24
1.000000000000000E+20
 34
1.000000000000000E+20
 15
-1.000000000000000E+20
 25
-1.000000000000000E+20
 35
-1.000000000000000E+20
146
0.0
 13
0.0
 23
0.0
 33
0.0
 16
1.0
 26
0.0
 36
0.0
 17
0.0
 27
1.0
 37
0.0
 76
     0
330
1A
  0
LAYOUT
  5
21
102
{ACAD_REACTORS
330
19
102
}
330
19
100
AcDbPlotSettings
  1

  2
none_device
  4
Letter_(8.50_x_11.00_Inches)
  6

 40
6.349999904632568
 41
6.349999904632568
 42
6.350006103515625
 43
6.350006103515625
 44
215.8999938964843
 45
279.3999938964843
 46
0.0
 47
0.0
 48
0.0
 49
0.0
140
0.0
141
0.0
142
1.0
143
1.0
 70
 11952
 72
     0
 73
     1
 74
     0
  7

 75
     0
147
1.0
148
-466.6791472371977
149
137.0183566193923
100
AcDbLayout
  1
Model
 70
     1
 71
     0
 10
0.0
 20
0.0
 11
12.0
 21
9.0
 12
0.0
 22
0.0
 32
0.0
 14
0.0
 24
0.0
 34
0.0
 15
0.0
 25
0.0
 35
0.0
146
0.0
 13
0.0
 23
0.0
 33
0.0
 16
1.0
 26
0.0
 36
0.0
 17
0.0
 27
1.0
 37
0.0
 76
     0
330
1E
  0
MLINESTYLE
  5
17
102
{ACAD_REACTORS
330
16
102
}
330
16
100
AcDbMlineStyle
  2
STANDARD
 70
     0
  3

 62
   256
 51
90.0
 52
90.0
 71
     2
 49
0.5
 62
   256
  6
BYLAYER
 49
-0.5
 62
   256
  6
BYLAYER
  0
ACDBPLACEHOLDER
  5
F
102
{ACAD_REACTORS
330
E
102
}
330
E
  0
ENDSEC
  0
EOF
