  0
SECTION
  2
HEADER
  9
$ACADVER
  1
AC1015
  9
$ACADMAINTVER
 70
    10
  9
$DWGCODEPAGE
  3
ANSI_1252
  9
$INSBASE
 10
0.0
 20
0.0
 30
0.0
  9
$EXTMIN
 10
-2.990024950313543
 20
4.166817899955733
 30
0.0
  9
$EXTMAX
 10
1.109975049686457
 20
7.878817899955726
 30
0.0
  9
$LIMMIN
 10
0.0
 20
0.0
  9
$LIMMAX
 10
12.0
 20
9.0
  9
$ORTHOMODE
 70
     1
  9
$REGENMODE
 70
     1
  9
$FILLMODE
 70
     1
  9
$QTEXTMODE
 70
     0
  9
$MIRRTEXT
 70
     1
  9
$LTSCALE
 40
1.0
  9
$ATTMODE
 70
     1
  9
$TEXTSIZE
 40
0.1
  9
$TRACEWID
 40
0.05
  9
$TEXTSTYLE
  7
STANDARD
  9
$CLAYER
  8
0
  9
$CELTYPE
  6
ByLayer
  9
$CECOLOR
 62
   256
  9
$CELTSCALE
 40
1.0
  9
$DISPSILH
 70
     0
  9
$DIMSCALE
 40
1.0
  9
$DIMASZ
 40
0.18
  9
$DIMEXO
 40
0.0625
  9
$DIMDLI
 40
0.38
  9
$DIMRND
 40
0.0
  9
$DIMDLE
 40
0.0
  9
$DIMEXE
 40
0.18
  9
$DIMTP
 40
0.0
  9
$DIMTM
 40
0.0
  9
$DIMTXT
 40
0.12
  9
$DIMCEN
 40
0.09
  9
$DIMTSZ
 40
0.0
  9
$DIMTOL
 70
     0
  9
$DIMLIM
 70
     0
  9
$DIMTIH
 70
     1
  9
$DIMTOH
 70
     1
  9
$DIMSE1
 70
     0
  9
$DIMSE2
 70
     0
  9
$DIMTAD
 70
     0
  9
$DIMZIN
 70
     0
  9
$DIMBLK
  1

  9
$DIMASO
 70
     1
  9
$DIMSHO
 70
     1
  9
$DIMPOST
  1

  9
$DIMAPOST
  1

  9
$DIMALT
 70
     0
  9
$DIMALTD
 70
     2
  9
$DIMALTF
 40
25.4
  9
$DIMLFAC
 40
1.0
  9
$DIMTOFL
 70
     0
  9
$DIMTVP
 40
0.0
  9
$DIMTIX
 70
     0
  9
$DIMSOXD
 70
     0
  9
$DIMSAH
 70
     0
  9
$DIMBLK1
  1

  9
$DIMBLK2
  1

  9
$DIMSTYLE
  2
Standard
  9
$DIMCLRD
 70
     0
  9
$DIMCLRE
 70
     0
  9
$DIMCLRT
 70
     0
  9
$DIMTFAC
 40
1.5
  9
$DIMGAP
 40
0.09
  9
$DIMJUST
 70
     0
  9
$DIMSD1
 70
     0
  9
$DIMSD2
 70
     0
  9
$DIMTOLJ
 70
     1
  9
$DIMTZIN
 70
     0
  9
$DIMALTZ
 70
     0
  9
$DIMALTTZ
 70
     0
  9
$DIMUPT
 70
     0
  9
$DIMDEC
 70
     4
  9
$DIMTDEC
 70
     4
  9
$DIMALTU
 70
     2
  9
$DIMALTTD
 70
     2
  9
$DIMTXSTY
  7
STANDARD
  9
$DIMAUNIT
 70
     0
  9
$DIMADEC
 70
     0
  9
$DIMALTRND
 40
0.0
  9
$DIMAZIN
 70
     0
  9
$DIMDSEP
 70
    46
  9
$DIMATFIT
 70
     3
  9
$DIMFRAC
 70
     0
  9
$DIMLDRBLK
  1

  9
$DIMLUNIT
 70
     2
  9
$DIMLWD
 70
    -2
  9
$DIMLWE
 70
    -2
  9
$DIMTMOVE
 70
     2
  9
$LUNITS
 70
     2
  9
$LUPREC
 70
     4
  9
$SKETCHINC
 40
0.1
  9
$FILLETRAD
 40
0.5
  9
$AUNITS
 70
     0
  9
$AUPREC
 70
     0
  9
$MENU
  1
acad
  9
$ELEVATION
 40
0.0
  9
$PELEVATION
 40
0.0
  9
$THICKNESS
 40
0.0
  9
$LIMCHECK
 70
     0
  9
$CHAMFERA
 40
0.5
  9
$CHAMFERB
 40
0.5
  9
$CHAMFERC
 40
0.0
  9
$CHAMFERD
 40
0.0
  9
$SKPOLY
 70
     0
  9
$TDCREATE
 40
2452419.300709143
  9
$TDUCREATE
 40
2452419.634042477
  9
$TDUPDATE
 40
2453692.456078333
  9
$TDUUPDATE
 40
2453692.789411666
  9
$TDINDWG
 40
0.6318362037
  9
$TDUSRTIMER
 40
0.6318362037
  9
$USRTIMER
 70
     1
  9
$ANGBASE
 50
0.0
  9
$ANGDIR
 70
     0
  9
$PDMODE
 70
     0
  9
$PDSIZE
 40
0.0
  9
$PLINEWID
 40
0.02
  9
$SPLFRAME
 70
     0
  9
$SPLINETYPE
 70
     6
  9
$SPLINESEGS
 70
     8
  9
$HANDSEED
  5
BB13639EED91DB66
  9
$SURFTAB1
 70
     6
  9
$SURFTAB2
 70
     6
  9
$SURFTYPE
 70
     6
  9
$SURFU
 70
     6
  9
$SURFV
 70
     6
  9
$UCSBASE
  2

  9
$UCSNAME
  2

  9
$UCSORG
 10
3.218975049686459
 20
5.335817899955732
 30
0.0
  9
$UCSXDIR
 10
1.0
 20
0.0
 30
0.0
  9
$UCSYDIR
 10
0.0
 20
1.0
 30
0.0
  9
$UCSORTHOREF
  2

  9
$UCSORTHOVIEW
 70
     0
  9
$UCSORGTOP
 10
0.0
 20
0.0
 30
0.0
  9
$UCSORGBOTTOM
 10
0.0
 20
0.0
 30
0.0
  9
$UCSORGLEFT
 10
0.0
 20
0.0
 30
0.0
  9
$UCSORGRIGHT
 10
0.0
 20
0.0
 30
0.0
  9
$UCSORGFRONT
 10
0.0
 20
0.0
 30
0.0
  9
$UCSORGBACK
 10
0.0
 20
0.0
 30
0.0
  9
$PUCSBASE
  2

  9
$PUCSNAME
  2

  9
$PUCSORG
 10
0.0
 20
0.0
 30
0.0
  9
$PUCSXDIR
 10
1.0
 20
0.0
 30
0.0
  9
$PUCSYDIR
 10
0.0
 20
1.0
 30
0.0
  9
$PUCSORTHOREF
  2

  9
$PUCSORTHOVIEW
 70
     0
  9
$PUCSORGTOP
 10
0.0
 20
0.0
 30
0.0
  9
$PUCSORGBOTTOM
 10
0.0
 20
0.0
 30
0.0
  9
$PUCSORGLEFT
 10
0.0
 20
0.0
 30
0.0
  9
$PUCSORGRIGHT
 10
0.0
 20
0.0
 30
0.0
  9
$PUCSORGFRONT
 10
0.0
 20
0.0
 30
0.0
  9
$PUCSORGBACK
 10
0.0
 20
0.0
 30
0.0
  9
$USERI1
 70
     0
  9
$USERI2
 70
     0
  9
$USERI3
 70
     0
  9
$USERI4
 70
     0
  9
$USERI5
 70
     0
  9
$USERR1
 40
0.0
  9
$USERR2
 40
0.0
  9
$USERR3
 40
0.0
  9
$USERR4
 40
0.0
  9
$USERR5
 40
0.0
  9
$WORLDVIEW
 70
     1
  9
$SHADEDGE
 70
     3
  9
$SHADEDIF
 70
    70
  9
$TILEMODE
 70
     1
  9
$MAXACTVP
 70
    16
  9
$PINSBASE
 10
0.0
 20
0.0
 30
0.0
  9
$PLIMCHECK
 70
     0
  9
$PEXTMIN
 10
1.000000000000000E+20
 20
1.000000000000000E+20
 30
1.000000000000000E+20
  9
$PEXTMAX
 10
-1.000000000000000E+20
 20
-1.000000000000000E+20
 30
-1.000000000000000E+20
  9
$PLIMMIN
 10
0.0
 20
0.0
  9
$PLIMMAX
 10
12.0
 20
9.0
  9
$UNITMODE
 70
     0
  9
$VISRETAIN
 70
     0
  9
$PLINEGEN
 70
     0
  9
$PSLTSCALE
 70
     0
  9
$TREEDEPTH
 70
  3020
  9
$CMLSTYLE
  2
Standard
  9
$CMLJUST
 70
     0
  9
$CMLSCALE
 40
1.0
  9
$PROXYGRAPHICS
 70
     1
  9
$MEASUREMENT
 70
     0
  9
$CELWEIGHT
370
    -1
  9
$ENDCAPS
280
     0
  9
$JOINSTYLE
280
     0
  9
$LWDISPLAY
290
     0
  9
$INSUNITS
 70
     0
  9
$HYPERLINKBASE
  1

  9
$STYLESHEET
  1

  9
$XEDIT
290
     1
  9
$CEPSNTYPE
380
     0
  9
$PSTYLEMODE
290
     1
  9
$FINGERPRINTGUID
  2
{746B34C5-D649-4610-A93C-ACD02E25F6A4}
  9
$VERSIONGUID
  2
{74F2667D-7947-4D0A-939E-409C2478B601}
  9
$EXTNAMES
290
     1
  9
$PSVPSCALE
 40
0.0
  9
$OLESTARTUP
290
     0
  0
ENDSEC
  0
SECTION
  2
CLASSES
  0
CLASS
  1
ACDBDICTIONARYWDFLT
  2
AcDbDictionaryWithDefault
  3
AutoCAD 2000
 90
        0
280
     0
281
     0
  0
CLASS
  1
ACDBPLACEHOLDER
  2
AcDbPlaceHolder
  3
AutoCAD 2000
 90
        0
280
     0
281
     0
  0
CLASS
  1
LAYOUT
  2
AcDbLayout
  3
AutoCAD 2000
 90
        0
280
     0
281
     0
  0
ENDSEC
  0
SECTION
  2
TABLES
  0
TABLE
  2
VPORT
  5
BB13639EED91DB14
330
0
100
AcDbSymbolTable
 70
     2
  0
VPORT
  5
BB13639EED91DB65
330
BB13639EED91DB14
100
AcDbSymbolTableRecord
100
AcDbViewportTableRecord
  2
*Active
 70
     0
 10
0.0
 20
0.0
 11
1.0
 21
1.0
 12
0.4141701467372059
 22
5.173677393047118
 13
0.0
 23
0.0
 14
0.001
 24
0.001
 15
0.001
 25
0.001
 16
0.0
 26
0.0
 36
1.0
 17
0.0
 27
0.0
 37
0.0
 40
6.472963520776381
 41
1.767754318618042
 42
50.0
 43
0.0
 44
0.0
 50
0.0
 51
0.0
 71
     0
 72
   100
 73
     1
 74
     0
 75
     1
 76
     1
 77
     0
 78
     0
281
     0
 65
     1
110
0.0
120
0.0
130
0.0
111
1.0
121
0.0
131
0.0
112
0.0
122
1.0
132
0.0
 79
     0
146
0.0
  0
ENDTAB
  0
TABLE
  2
LTYPE
  5
BB13639EED91DB11
330
0
100
AcDbSymbolTable
 70
     1
  0
LTYPE
  5
BB13639EED91DB1F
330
BB13639EED91DB11
100
AcDbSymbolTableRecord
100
AcDbLinetypeTableRecord
  2
ByBlock
 70
     0
  3

 72
    65
 73
     0
 40
0.0
  0
LTYPE
  5
BB13639EED91DB20
330
BB13639EED91DB11
100
AcDbSymbolTableRecord
100
AcDbLinetypeTableRecord
  2
ByLayer
 70
     0
  3

 72
    65
 73
     0
 40
0.0
  0
LTYPE
  5
BB13639EED91DB21
330
BB13639EED91DB11
100
AcDbSymbolTableRecord
100
AcDbLinetypeTableRecord
  2
CONTINUOUS
 70
     0
  3
Solid line
 72
    65
 73
     0
 40
0.0
  0
ENDTAB
  0
TABLE
  2
LAYER
  5
BB13639EED91DB0E
330
0
100
AcDbSymbolTable
 70
     2
  0
LAYER
  5
BB13639EED91DB1C
330
BB13639EED91DB0E
100
AcDbSymbolTableRecord
100
AcDbLayerTableRecord
  2
0
 70
     0
 62
     7
  6
CONTINUOUS
370
    -3
390
BB13639EED91DB1B
  0
LAYER
  5
BB13639EED91DB35
330
BB13639EED91DB0E
100
AcDbSymbolTableRecord
100
AcDbLayerTableRecord
  2
DEFPOINTS
 70
     0
 62
     7
  6
CONTINUOUS
290
     0
370
    -3
390
BB13639EED91DB1B
  0
ENDTAB
  0
TABLE
  2
STYLE
  5
BB13639EED91DB0F
330
0
100
AcDbSymbolTable
 70
     2
  0
STYLE
  5
BB13639EED91DB1D
330
BB13639EED91DB0F
100
AcDbSymbolTableRecord
100
AcDbTextStyleTableRecord
  2
STANDARD
 70
     0
 40
0.0
 41
1.0
 50
0.0
 71
     0
 42
0.1
  3
txt
  4

  0
STYLE
  5
BB13639EED91DB30
330
BB13639EED91DB0F
100
AcDbSymbolTableRecord
100
AcDbTextStyleTableRecord
  2
ADESK1
 70
     0
 40
0.0
 41
1.0
 50
0.0
 71
     0
 42
0.065
  3
romans
  4

  0
ENDTAB
  0
TABLE
  2
VIEW
  5
BB13639EED91DB12
330
0
100
AcDbSymbolTable
 70
     0
  0
ENDTAB
  0
TABLE
  2
UCS
  5
BB13639EED91DB13
330
0
100
AcDbSymbolTable
 70
     0
  0
ENDTAB
  0
TABLE
  2
APPID
  5
BB13639EED91DB15
330
0
100
AcDbSymbolTable
 70
     1
  0
APPID
  5
BB13639EED91DB1E
330
BB13639EED91DB15
100
AcDbSymbolTableRecord
100
AcDbRegAppTableRecord
  2
ACAD
 70
     0
  0
ENDTAB
  0
TABLE
  2
DIMSTYLE
  5
BB13639EED91DB16
330
0
100
AcDbSymbolTable
 70
     1
100
AcDbDimStyleTable
 71
     0
  0
DIMSTYLE
105
BB13639EED91DB3C
330
BB13639EED91DB16
100
AcDbSymbolTableRecord
100
AcDbDimStyleTableRecord
  2
Standard
 70
     0
340
BB13639EED91DB1D
  0
ENDTAB
  0
TABLE
  2
BLOCK_RECORD
  5
BB13639EED91DB0D
330
0
100
AcDbSymbolTable
 70
     0
  0
BLOCK_RECORD
  5
BB13639EED91DB2A
330
BB13639EED91DB0D
100
AcDbSymbolTableRecord
100
AcDbBlockTableRecord
  2
*Model_Space
340
BB13639EED91DB2D
  0
BLOCK_RECORD
  5
BB13639EED91DB26
330
BB13639EED91DB0D
100
AcDbSymbolTableRecord
100
AcDbBlockTableRecord
  2
*Paper_Space
340
BB13639EED91DB29
  0
ENDTAB
  0
ENDSEC
  0
SECTION
  2
BLOCKS
  0
BLOCK
  5
BB13639EED91DB38
330
BB13639EED91DB2A
100
AcDbEntity
  8
0
100
AcDbBlockBegin
  2
*Model_Space
 70
     0
 10
0.0
 20
0.0
 30
0.0
  3
*Model_Space
  1

  0
ENDBLK
  5
BB13639EED91DB39
330
BB13639EED91DB2A
100
AcDbEntity
  8
0
100
AcDbBlockEnd
  0
BLOCK
  5
BB13639EED91DB36
330
BB13639EED91DB26
100
AcDbEntity
 67
     1
  8
0
100
AcDbBlockBegin
  2
*Paper_Space
 70
     0
 10
0.0
 20
0.0
 30
0.0
  3
*Paper_Space
  1

  0
ENDBLK
  5
BB13639EED91DB37
330
BB13639EED91DB26
100
AcDbEntity
 67
     1
  8
0
100
AcDbBlockEnd
  0
ENDSEC
  0
SECTION
  2
ENTITIES
  0
LINE
  5
A07
330
BB13639EED91DB2A
100
AcDbEntity
  8
0
100
AcDbLine
 10
1.109975049686457
 20
5.272817899955725
 30
0.0
 11
1.109975049686457
 21
7.105817899955725
 31
0.0
  0
LINE
  5
A08
330
BB13639EED91DB2A
100
AcDbEntity
  8
0
100
AcDbLine
 10
-2.990024950313543
 20
7.105817899955725
 30
0.0
 11
-2.990024950313543
 21
5.272817899955725
 31
0.0
  0
LINE
  5
A34
330
BB13639EED91DB2A
100
AcDbEntity
  8
0
100
AcDbLine
 10
-2.950024950313544
 20
4.523393849947046
 30
0.0
 11
1.069975049686458
 21
4.523393849947046
 31
0.0
  0
LINE
  5
A35
330
BB13639EED91DB2A
100
AcDbEntity
  8
0
100
AcDbLine
 10
1.069975049686458
 20
4.983393849947047
 30
0.0
 11
-2.950024950313544
 21
4.983393849947047
 31
0.0
  0
LINE
  5
A37
330
BB13639EED91DB2A
100
AcDbEntity
  8
0
100
AcDbLine
 10
-2.990024950313543
 20
5.272817899955725
 30
0.0
 11
1.109975049686457
 21
5.272817899955725
 31
0.0
  0
LINE
  5
A38
330
BB13639EED91DB2A
100
AcDbEntity
  8
0
100
AcDbLine
 10
1.109975049686457
 20
4.996817899955726
 30
0.0
 11
-2.990024950313543
 21
4.996817899955726
 31
0.0
  0
LINE
  5
A39
330
BB13639EED91DB2A
100
AcDbEntity
  8
0
100
AcDbLine
 10
1.109975049686457
 20
4.498817899955726
 30
0.0
 11
-2.990024950313543
 21
4.498817899955726
 31
0.0
  0
LINE
  5
A3C
330
BB13639EED91DB2A
100
AcDbEntity
  8
0
100
AcDbLine
 10
-2.950024950313544
 20
4.523393849947046
 30
0.0
 11
-2.950024950313544
 21
4.983393849947047
 31
0.0
  0
LINE
  5
A3D
330
BB13639EED91DB2A
100
AcDbEntity
  8
0
100
AcDbLine
 10
-2.990024950313543
 20
4.498817899955726
 30
0.0
 11
-2.990024950313543
 21
4.996817899955726
 31
0.0
  0
LINE
  5
A47
330
BB13639EED91DB2A
100
AcDbEntity
  8
0
100
AcDbLine
 10
-2.990024950313543
 20
4.996817899955726
 30
0.0
 11
-2.990024950313543
 21
5.272817899955725
 31
0.0
  0
LINE
  5
A4A
330
BB13639EED91DB2A
100
AcDbEntity
  8
0
100
AcDbLine
 10
1.069975049686458
 20
4.523393849947046
 30
0.0
 11
1.069975049686458
 21
4.983393849947047
 31
0.0
  0
LINE
  5
A4B
330
BB13639EED91DB2A
100
AcDbEntity
  8
0
100
AcDbLine
 10
1.109975049686457
 20
4.996817899955726
 30
0.0
 11
1.109975049686457
 21
4.498817899955726
 31
0.0
  0
LINE
  5
A82
330
BB13639EED91DB2A
100
AcDbEntity
  8
0
100
AcDbLine
 10
1.109975049686457
 20
5.272817899955725
 30
0.0
 11
1.109975049686457
 21
4.996817899955726
 31
0.0
  0
LINE
  5
A8A
330
BB13639EED91DB2A
100
AcDbEntity
  8
0
100
AcDbLine
 10
1.069975049686458
 20
7.865241949964412
 30
0.0
 11
-2.950024950313544
 21
7.865241949964412
 31
0.0
  0
LINE
  5
A8B
330
BB13639EED91DB2A
100
AcDbEntity
  8
0
100
AcDbLine
 10
-2.950024950313544
 20
7.405241949964411
 30
0.0
 11
1.069975049686458
 21
7.405241949964411
 31
0.0
  0
LINE
  5
A8C
330
BB13639EED91DB2A
100
AcDbEntity
  8
0
100
AcDbLine
 10
-2.990024950313543
 20
7.380817899955726
 30
0.0
 11
1.109975049686457
 21
7.380817899955726
 31
0.0
  0
LINE
  5
A8D
330
BB13639EED91DB2A
100
AcDbEntity
  8
0
100
AcDbLine
 10
-2.990024950313543
 20
7.878817899955726
 30
0.0
 11
1.109975049686457
 21
7.878817899955726
 31
0.0
  0
LINE
  5
A8F
330
BB13639EED91DB2A
100
AcDbEntity
  8
0
100
AcDbLine
 10
1.109975049686457
 20
7.105817899955725
 30
0.0
 11
-2.990024950313543
 21
7.105817899955725
 31
0.0
  0
LINE
  5
A90
330
BB13639EED91DB2A
100
AcDbEntity
  8
0
100
AcDbLine
 10
-2.990024950313543
 20
7.105817899955725
 30
0.0
 11
-2.990024950313543
 21
7.381817899955724
 31
0.0
  0
LINE
  5
A93
330
BB13639EED91DB2A
100
AcDbEntity
  8
0
100
AcDbLine
 10
-2.950024950313544
 20
7.865241949964412
 30
0.0
 11
-2.950024950313544
 21
7.405241949964411
 31
0.0
  0
LINE
  5
A94
330
BB13639EED91DB2A
100
AcDbEntity
  8
0
100
AcDbLine
 10
-2.990024950313543
 20
7.381817899955724
 30
0.0
 11
-2.990024950313543
 21
7.878817899955726
 31
0.0
  0
LINE
  5
A95
330
BB13639EED91DB2A
100
AcDbEntity
  8
0
100
AcDbLine
 10
1.109975049686457
 20
7.381817899955724
 30
0.0
 11
1.109975049686457
 21
7.105817899955725
 31
0.0
  0
TEXT
  5
A96
330
BB13639EED91DB2A
100
AcDbEntity
  8
0
100
AcDbText
 10
-0.8140249503135443
 20
5.899393849947046
 30
0.0
 40
0.133
  1
ScadaFlex
  7
ADESK1
 72
     1
 11
-0.3200249503135444
 21
5.899393849947046
 31
0.0
100
AcDbText
  0
LINE
  5
A99
330
BB13639EED91DB2A
100
AcDbEntity
  8
0
100
AcDbLine
 10
1.069975049686458
 20
7.865241949964412
 30
0.0
 11
1.069975049686458
 21
7.405241949964411
 31
0.0
  0
LINE
  5
A9A
330
BB13639EED91DB2A
100
AcDbEntity
  8
0
100
AcDbLine
 10
1.109975049686457
 20
7.878817899955726
 30
0.0
 11
1.109975049686457
 21
7.381817899955724
 31
0.0
  0
LINE
  5
AB8
330
BB13639EED91DB2A
100
AcDbEntity
  8
0
100
AcDbLine
 10
1.039975049686454
 20
6.993817899955732
 30
0.0
 11
1.039975049686455
 21
5.398817899955733
 31
0.0
  0
LINE
  5
AB9
330
BB13639EED91DB2A
100
AcDbEntity
  8
0
100
AcDbLine
 10
1.024975049686454
 20
7.008817899955733
 30
0.0
 11
-2.905024950313539
 21
7.008817899955731
 31
0.0
  0
ARC
  5
ABA
330
BB13639EED91DB2A
100
AcDbEntity
  8
0
100
AcDbCircle
 10
1.024975049686454
 20
6.993817899955731
 30
0.0
 40
0.0150000000000001
100
AcDbArc
 50
0.0
 51
90.0
  0
LINE
  5
ABB
330
BB13639EED91DB2A
100
AcDbEntity
  8
0
100
AcDbLine
 10
-2.90502495031354
 20
5.383817899955732
 30
0.0
 11
1.024975049686455
 21
5.383817899955732
 31
0.0
  0
LINE
  5
ABC
330
BB13639EED91DB2A
100
AcDbEntity
  8
0
100
AcDbLine
 10
-2.920024950313544
 20
5.398817899955732
 30
0.0
 11
-2.920024950313544
 21
6.993817899955732
 31
0.0
  0
ARC
  5
ABD
330
BB13639EED91DB2A
100
AcDbEntity
  8
0
100
AcDbCircle
 10
-2.90502495031354
 20
5.398817899955732
 30
0.0
 40
0.015
100
AcDbArc
 50
180.0
 51
270.0
  0
ARC
  5
ABE
330
BB13639EED91DB2A
100
AcDbEntity
  8
0
100
AcDbCircle
 10
-2.905024950313539
 20
6.993817899955732
 30
0.0
 40
0.015
100
AcDbArc
 50
90.0
 51
180.0
  0
ARC
  5
ABF
330
BB13639EED91DB2A
100
AcDbEntity
  8
0
100
AcDbCircle
 10
1.024975049686455
 20
5.398817899955733
 30
0.0
 40
0.0150000000000001
100
AcDbArc
 50
270.0
 51
0.0
  0
TEXT
  5
AC0
330
BB13639EED91DB2A
100
AcDbEntity
  8
0
100
AcDbText
 10
0.1769274306388369
 20
5.953817899955732
 30
0.0
 40
0.05
  1
TM
  7
ADESK1
 72
     1
 11
0.220975049686456
 21
5.953817899955732
 31
0.0
100
AcDbText
  0
LINE
  5
AC1
330
BB13639EED91DB2A
100
AcDbEntity
  8
0
100
AcDbLine
 10
1.069975049686458
 20
4.983393849947047
 30
0.0
 11
-2.950024950313544
 21
4.983393849947047
 31
0.0
  0
LINE
  5
AC2
330
BB13639EED91DB2A
100
AcDbEntity
  8
0
100
AcDbLine
 10
-2.950024950313544
 20
4.523393849947046
 30
0.0
 11
1.069975049686458
 21
4.523393849947046
 31
0.0
  0
LINE
  5
AC3
330
BB13639EED91DB2A
100
AcDbEntity
  8
0
100
AcDbLine
 10
-2.950024950313544
 20
4.523393849947046
 30
0.0
 11
-2.950024950313544
 21
4.983393849947047
 31
0.0
  0
TEXT
  5
ACA
330
BB13639EED91DB2A
100
AcDbEntity
  8
0
100
AcDbText
 10
-1.345072569361157
 20
4.783241949964409
 30
0.0
 40
0.05
  1
BAT
  7
ADESK1
 72
     4
 11
-1.276024950313538
 21
4.80824194996441
 31
0.0
100
AcDbText
  0
LINE
  5
AD2
330
BB13639EED91DB2A
100
AcDbEntity
  8
0
100
AcDbLine
 10
-2.340024950313537
 20
4.670393849947046
 30
0.0
 11
-2.340024950313537
 21
4.540393849947047
 31
0.0
  0
LINE
  5
AD3
330
BB13639EED91DB2A
100
AcDbEntity
  8
0
100
AcDbLine
 10
-2.54002495031354
 20
4.670393849947046
 30
0.0
 11
-2.54002495031354
 21
4.540393849947047
 31
0.0
  0
TEXT
  5
ADA
330
BB13639EED91DB2A
100
AcDbEntity
  8
0
100
AcDbText
 10
-2.565596378884972
 20
4.874241949964409
 30
0.0
 40
0.05
  1
POWER
  7
ADESK1
 72
     4
 11
-2.437024950313544
 21
4.89924194996441
 31
0.0
100
AcDbText
  0
TEXT
  5
ADB
330
BB13639EED91DB2A
100
AcDbEntity
  8
0
100
AcDbText
 10
-2.468977331265924
 20
4.706817899955732
 30
0.0
 40
0.05
  1
~
  7
ADESK1
 72
     1
 11
-2.438024950313543
 21
4.706817899955732
 31
0.0
100
AcDbText
  0
LINE
  5
ADC
330
BB13639EED91DB2A
100
AcDbEntity
  8
0
100
AcDbLine
 10
-0.1159455162731255
 20
4.670393849947046
 30
0.0
 11
-0.1159455162731255
 21
4.540393849947047
 31
0.0
  0
LINE
  5
ADE
330
BB13639EED91DB2A
100
AcDbEntity
  8
0
100
AcDbLine
 10
-0.3899455162731264
 20
4.670393849947046
 30
0.0
 11
-0.3899455162731264
 21
4.540393849947047
 31
0.0
  0
LINE
  5
ADF
330
BB13639EED91DB2A
100
AcDbEntity
  8
0
100
AcDbLine
 10
-0.5269455162731198
 20
4.670393849947046
 30
0.0
 11
-0.5269455162731198
 21
4.540393849947047
 31
0.0
  0
LINE
  5
AE0
330
BB13639EED91DB2A
100
AcDbEntity
  8
0
100
AcDbLine
 10
-0.6639455162731203
 20
4.670393849947046
 30
0.0
 11
-0.6639455162731203
 21
4.540393849947047
 31
0.0
  0
LINE
  5
AE1
330
BB13639EED91DB2A
100
AcDbEntity
  8
0
100
AcDbLine
 10
-0.8009455162731207
 20
4.670393849947046
 30
0.0
 11
-0.8009455162731207
 21
4.540393849947047
 31
0.0
  0
LINE
  5
AE3
330
BB13639EED91DB2A
100
AcDbEntity
  8
0
100
AcDbLine
 10
-0.9380249503135438
 20
4.670393849947046
 30
0.0
 11
-0.9380249503135438
 21
4.540393849947047
 31
0.0
  0
LINE
  5
AE4
330
BB13639EED91DB2A
100
AcDbEntity
  8
0
100
AcDbLine
 10
-1.212024950313537
 20
4.670393849947046
 30
0.0
 11
-1.212024950313537
 21
4.540393849947047
 31
0.0
  0
LINE
  5
AE5
330
BB13639EED91DB2A
100
AcDbEntity
  8
0
100
AcDbLine
 10
-1.349024950313538
 20
4.670393849947046
 30
0.0
 11
-1.349024950313538
 21
4.540393849947047
 31
0.0
  0
TEXT
  5
AED
330
BB13639EED91DB2A
100
AcDbEntity
  8
0
100
AcDbText
 10
-0.9108978972255087
 20
4.78224194996441
 30
0.0
 40
0.05
  1
+DC OUT
  7
ADESK1
 72
     4
 11
-0.729945516273128
 21
4.80724194996441
 31
0.0
100
AcDbText
  0
TEXT
  5
AEE
330
BB13639EED91DB2A
100
AcDbEntity
  8
0
100
AcDbText
 10
-0.2580565584231925
 20
4.783241949964409
 30
0.0
 40
0.05
  1
GND
  7
ADESK1
 72
     4
 11
-0.1818660822327163
 21
4.80824194996441
 31
0.0
100
AcDbText
  0
TEXT
  5
AEF
330
BB13639EED91DB2A
100
AcDbEntity
  8
0
100
AcDbText
 10
-1.357056765306339
 20
4.707393849947046
 30
0.0
 40
0.05
  1
+
  7
ADESK1
 72
     1
 11
-1.326104384353958
 21
4.707393849947046
 31
0.0
100
AcDbText
  0
TEXT
  5
AF0
330
BB13639EED91DB2A
100
AcDbEntity
  8
0
100
AcDbText
 10
-1.268056765306333
 20
4.707393849947046
 30
0.0
 40
0.05
  1
-
  7
ADESK1
 72
     1
 11
-1.237104384353952
 21
4.707393849947046
 31
0.0
100
AcDbText
  0
LINE
  5
AF1
330
BB13639EED91DB2A
100
AcDbEntity
  8
0
100
AcDbLine
 10
1.069975049686458
 20
4.523393849947046
 30
0.0
 11
1.069975049686458
 21
4.983393849947047
 31
0.0
  0
LINE
  5
AF2
330
BB13639EED91DB2A
100
AcDbEntity
  8
0
100
AcDbLine
 10
0.2950544837268758
 20
4.670393849947046
 30
0.0
 11
0.2950544837268758
 21
4.540393849947047
 31
0.0
  0
LINE
  5
AF3
330
BB13639EED91DB2A
100
AcDbEntity
  8
0
100
AcDbLine
 10
0.7060544837268772
 20
4.670393849947046
 30
0.0
 11
0.7060544837268772
 21
4.540393849947047
 31
0.0
  0
LINE
  5
AF4
330
BB13639EED91DB2A
100
AcDbEntity
  8
0
100
AcDbLine
 10
0.5690544837268768
 20
4.670393849947046
 30
0.0
 11
0.5690544837268768
 21
4.540393849947047
 31
0.0
  0
LINE
  5
AF5
330
BB13639EED91DB2A
100
AcDbEntity
  8
0
100
AcDbLine
 10
0.4320544837268763
 20
4.670393849947046
 30
0.0
 11
0.4320544837268763
 21
4.540393849947047
 31
0.0
  0
LINE
  5
AF6
330
BB13639EED91DB2A
100
AcDbEntity
  8
0
100
AcDbLine
 10
0.0210544837268749
 20
4.670393849947046
 30
0.0
 11
0.0210544837268749
 21
4.540393849947047
 31
0.0
  0
TEXT
  5
B03
330
BB13639EED91DB2A
100
AcDbEntity
  8
0
100
AcDbText
 10
0.2862131449245535
 20
4.783241949964409
 30
0.0
 40
0.05
  1
PWR
  7
ADESK1
 72
     4
 11
0.3659750496864582
 21
4.80824194996441
 31
0.0
100
AcDbText
  0
TEXT
  5
B04
330
BB13639EED91DB2A
100
AcDbEntity
  8
0
100
AcDbText
 10
0.3618798115912178
 20
4.874241949964409
 30
0.0
 40
0.05
  1
ALARMS
  7
ADESK1
 72
     4
 11
0.4999750496864559
 21
4.89924194996441
 31
0.0
100
AcDbText
  0
TEXT
  5
B09
330
BB13639EED91DB2A
100
AcDbEntity
  8
0
100
AcDbText
 10
0.5729274306388368
 20
4.783241949964409
 30
0.0
 40
0.05
  1
BAT
  7
ADESK1
 72
     4
 11
0.6419750496864558
 21
4.80824194996441
 31
0.0
100
AcDbText
  0
LINE
  5
B0B
330
BB13639EED91DB2A
100
AcDbEntity
  8
0
100
AcDbLine
 10
-2.950024950313544
 20
7.405241949964411
 30
0.0
 11
1.069975049686458
 21
7.405241949964411
 31
0.0
  0
LINE
  5
B0C
330
BB13639EED91DB2A
100
AcDbEntity
  8
0
100
AcDbLine
 10
1.069975049686458
 20
7.865241949964412
 30
0.0
 11
-2.950024950313544
 21
7.865241949964412
 31
0.0
  0
LINE
  5
B0D
330
BB13639EED91DB2A
100
AcDbEntity
  8
0
100
AcDbLine
 10
-2.950024950313544
 20
7.865241949964412
 30
0.0
 11
-2.950024950313544
 21
7.405241949964411
 31
0.0
  0
TEXT
  5
B0E
330
BB13639EED91DB2A
100
AcDbEntity
  8
0
100
AcDbText
 10
-0.1198344741230646
 20
7.507393849947046
 30
0.0
 40
0.05
  1
OUT
  7
ADESK1
 72
     1
 11
-0.0460249503135408
 21
7.507393849947046
 31
0.0
100
AcDbText
  0
CIRCLE
  5
B0F
330
BB13639EED91DB2A
100
AcDbEntity
  8
0
100
AcDbCircle
 10
-0.0460249503135408
 20
7.648817899955732
 30
0.0
 40
0.0350000000000002
  0
TEXT
  5
B10
330
BB13639EED91DB2A
100
AcDbEntity
  8
0
100
AcDbText
 10
-0.097215426504017
 20
7.738393849947048
 30
0.0
 40
0.05
  1
DC
  7
ADESK1
 72
     1
 11
-0.0460249503135408
 21
7.738393849947048
 31
0.0
100
AcDbText
  0
LINE
  5
B11
330
BB13639EED91DB2A
100
AcDbEntity
  8
0
100
AcDbLine
 10
1.069975049686458
 20
7.865241949964412
 30
0.0
 11
1.069975049686458
 21
7.405241949964411
 31
0.0
  0
CIRCLE
  5
B12
330
BB13639EED91DB2A
100
AcDbEntity
  8
0
100
AcDbCircle
 10
0.3689750496864583
 20
7.648817899955732
 30
0.0
 40
0.0350000000000002
  0
TEXT
  5
B13
330
BB13639EED91DB2A
100
AcDbEntity
  8
0
100
AcDbText
 10
0.2917845734959845
 20
7.507393849947046
 30
0.0
 40
0.05
  1
FAIL
  7
ADESK1
 72
     1
 11
0.3679750496864607
 21
7.507393849947046
 31
0.0
100
AcDbText
  0
TEXT
  5
B14
330
BB13639EED91DB2A
100
AcDbEntity
  8
0
100
AcDbText
 10
0.2882131449245559
 20
7.738393849947048
 30
0.0
 40
0.05
  1
PWR
  7
ADESK1
 72
     1
 11
0.3679750496864607
 21
7.738393849947048
 31
0.0
100
AcDbText
  0
CIRCLE
  5
B15
330
BB13639EED91DB2A
100
AcDbEntity
  8
0
100
AcDbCircle
 10
0.6339750496864589
 20
7.648817899955732
 30
0.0
 40
0.0350000000000002
  0
TEXT
  5
B16
330
BB13639EED91DB2A
100
AcDbEntity
  8
0
100
AcDbText
 10
0.5659274306388376
 20
7.507393849947046
 30
0.0
 40
0.05
  1
BAT
  7
ADESK1
 72
     1
 11
0.6349750496864566
 21
7.507393849947046
 31
0.0
100
AcDbText
  0
TEXT
  5
B17
330
BB13639EED91DB2A
100
AcDbEntity
  8
0
100
AcDbText
 10
0.5575940973055042
 20
7.738393849947048
 30
0.0
 40
0.05
  1
LOW
  7
ADESK1
 72
     1
 11
0.6349750496864566
 21
7.738393849947048
 31
0.0
100
AcDbText
  0
TEXT
  5
1675
330
BB13639EED91DB2A
100
AcDbEntity
  8
0
100
AcDbText
 10
-2.472739236027829
 20
4.784241949964409
 30
0.0
 40
0.05
  1
IN
  7
ADESK1
 72
     1
 11
-2.437024950313544
 21
4.784241949964409
 31
0.0
100
AcDbText
  0
LWPOLYLINE
  5
168F
330
BB13639EED91DB2A
100
AcDbEntity
  8
0
100
AcDbPolyline
 90
        3
 70
     0
 43
0.02
 10
-2.583024950313539
 20
4.669817899955732
 10
-2.583024950313539
 20
4.80824194996441
 10
-2.540024950313544
 20
4.80824194996441
  0
LWPOLYLINE
  5
1694
330
BB13639EED91DB2A
100
AcDbEntity
  8
0
100
AcDbPolyline
 90
        3
 70
     0
 43
0.02
 10
-2.297024950313538
 20
4.670817899955732
 10
-2.297024950313538
 20
4.80824194996441
 10
-2.340024950313544
 20
4.80824194996441
  0
LWPOLYLINE
  5
169F
330
BB13639EED91DB2A
100
AcDbEntity
  8
0
100
AcDbPolyline
 90
        3
 70
     0
 43
0.02
 10
-0.9809455162731275
 20
4.669817899955732
 10
-0.9809455162731275
 20
4.80824194996441
 10
-0.9169455162731278
 20
4.80824194996441
  0
LWPOLYLINE
  5
16A9
330
BB13639EED91DB2A
100
AcDbEntity
  8
0
100
AcDbPolyline
 90
        3
 70
     0
 43
0.02
 10
-0.4839455162731344
 20
4.670817899955732
 10
-0.4839455162731344
 20
4.80824194996441
 10
-0.5489455162731279
 20
4.80824194996441
  0
LWPOLYLINE
  5
16AE
330
BB13639EED91DB2A
100
AcDbEntity
  8
0
100
AcDbPolyline
 90
        3
 70
     0
 43
0.02
 10
-0.4328660822327098
 20
4.669817899955732
 10
-0.4328660822327098
 20
4.80824194996441
 10
-0.2788660822327162
 20
4.80824194996441
  0
LWPOLYLINE
  5
16B3
330
BB13639EED91DB2A
100
AcDbEntity
  8
0
100
AcDbPolyline
 90
        3
 70
     0
 43
0.02
 10
0.064133917767284
 20
4.670817899955732
 10
0.064133917767284
 20
4.80824194996441
 10
-0.0928660822327161
 20
4.80824194996441
  0
LWPOLYLINE
  5
16B8
330
BB13639EED91DB2A
100
AcDbEntity
  8
0
100
AcDbPolyline
 90
        3
 70
     0
 43
0.02
 10
-1.392024950313538
 20
4.669817899955732
 10
-1.392024950313538
 20
4.80824194996441
 10
-1.370104384353957
 20
4.80824194996441
  0
LWPOLYLINE
  5
16BD
330
BB13639EED91DB2A
100
AcDbEntity
  8
0
100
AcDbPolyline
 90
        3
 70
     0
 43
0.02
 10
-1.169024950313539
 20
4.670817899955732
 10
-1.169024950313539
 20
4.80824194996441
 10
-1.197104384353957
 20
4.80824194996441
  0
LWPOLYLINE
  5
16C2
330
BB13639EED91DB2A
100
AcDbEntity
  8
0
100
AcDbPolyline
 90
        3
 70
     0
 43
0.02
 10
0.2520544837268765
 20
4.669817899955732
 10
0.2520544837268765
 20
4.80824194996441
 10
0.2759750496864557
 20
4.80824194996441
  0
LWPOLYLINE
  5
16C7
330
BB13639EED91DB2A
100
AcDbEntity
  8
0
100
AcDbPolyline
 90
        3
 70
     0
 43
0.02
 10
0.4750544837268756
 20
4.670817899955732
 10
0.4750544837268756
 20
4.80824194996441
 10
0.450975049686456
 20
4.80824194996441
  0
LWPOLYLINE
  5
16CC
330
BB13639EED91DB2A
100
AcDbEntity
  8
0
100
AcDbPolyline
 90
        3
 70
     0
 43
0.02
 10
0.5260544837268775
 20
4.669817899955732
 10
0.5260544837268775
 20
4.80824194996441
 10
0.551975049686456
 20
4.80824194996441
  0
LWPOLYLINE
  5
16D1
330
BB13639EED91DB2A
100
AcDbEntity
  8
0
100
AcDbPolyline
 90
        3
 70
     0
 43
0.02
 10
0.7490544837268765
 20
4.670817899955732
 10
0.7490544837268765
 20
4.80824194996441
 10
0.7199750496864557
 20
4.80824194996441
  0
LINE
  5
16D6
330
BB13639EED91DB2A
100
AcDbEntity
  8
0
100
AcDbLine
 10
0.3454750496864558
 20
4.757241949964409
 30
0.0
 11
0.3454750496864558
 21
4.69524194996441
 31
0.0
  0
LINE
  5
16D7
330
BB13639EED91DB2A
100
AcDbEntity
  8
0
100
AcDbLine
 10
0.380475049686456
 20
4.757241949964409
 30
0.0
 11
0.380475049686456
 21
4.69524194996441
 31
0.0
  0
LINE
  5
16D8
330
BB13639EED91DB2A
100
AcDbEntity
  8
0
100
AcDbLine
 10
0.380475049686456
 20
4.757241949964409
 30
0.0
 11
0.3454750496864558
 21
4.69524194996441
 31
0.0
  0
LINE
  5
16D9
330
BB13639EED91DB2A
100
AcDbEntity
  8
0
100
AcDbLine
 10
0.3454750496864558
 20
4.72624194996441
 30
0.0
 11
0.2949750496864558
 21
4.72624194996441
 31
0.0
  0
LINE
  5
16DA
330
BB13639EED91DB2A
100
AcDbEntity
  8
0
100
AcDbLine
 10
0.4314750496864557
 20
4.72624194996441
 30
0.0
 11
0.3809750496864557
 21
4.72624194996441
 31
0.0
  0
LINE
  5
16DB
330
BB13639EED91DB2A
100
AcDbEntity
  8
0
100
AcDbLine
 10
0.6194750496864559
 20
4.757241949964409
 30
0.0
 11
0.6194750496864559
 21
4.69524194996441
 31
0.0
  0
LINE
  5
16DC
330
BB13639EED91DB2A
100
AcDbEntity
  8
0
100
AcDbLine
 10
0.654475049686456
 20
4.757241949964409
 30
0.0
 11
0.654475049686456
 21
4.69524194996441
 31
0.0
  0
LINE
  5
16DD
330
BB13639EED91DB2A
100
AcDbEntity
  8
0
100
AcDbLine
 10
0.654475049686456
 20
4.757241949964409
 30
0.0
 11
0.6194750496864559
 21
4.69524194996441
 31
0.0
  0
LINE
  5
16DE
330
BB13639EED91DB2A
100
AcDbEntity
  8
0
100
AcDbLine
 10
0.6194750496864559
 20
4.72624194996441
 30
0.0
 11
0.5689750496864559
 21
4.72624194996441
 31
0.0
  0
LINE
  5
16DF
330
BB13639EED91DB2A
100
AcDbEntity
  8
0
100
AcDbLine
 10
0.7054750496864557
 20
4.72624194996441
 30
0.0
 11
0.6549750496864557
 21
4.72624194996441
 31
0.0
  0
LINE
  5
8773
330
BB13639EED91DB2A
100
AcDbEntity
  8
0
100
AcDbLine
 10
-0.2529455162731278
 20
4.670393849947046
 30
0.0
 11
-0.2529455162731278
 21
4.540393849947047
 31
0.0
  0
TEXT
  5
5561D
330
BB13639EED91DB2A
100
AcDbEntity
  8
0
100
AcDbText
 10
-0.8160249503135442
 20
5.682393849947046
 30
0.0
 40
0.133
  1
DC UPS
  7
ADESK1
 72
     1
 11
-0.4138582836468778
 21
5.682393849947046
 31
0.0
100
AcDbText
  0
CIRCLE
  5
BB13639EED91D799
330
BB13639EED91DB2A
100
AcDbEntity
  8
0
100
AcDbCircle
 10
-0.8010249503135419
 20
4.295817899955732
 30
0.0
 40
0.0389999999999999
  0
LINE
  5
BB13639EED91D79A
330
BB13639EED91DB2A
100
AcDbEntity
  8
0
100
AcDbLine
 10
0.8289750496864588
 20
4.166817899955733
 30
0.0
 11
-1.463024950313541
 21
4.166817899955733
 31
0.0
  0
LINE
  5
BB13639EED91D79B
330
BB13639EED91DB2A
100
AcDbEntity
  8
0
100
AcDbLine
 10
0.8289750496864588
 20
4.414817899955732
 30
0.0
 11
-1.463024950313541
 21
4.414817899955732
 31
0.0
  0
CIRCLE
  5
BB13639EED91D79C
330
BB13639EED91DB2A
100
AcDbEntity
  8
0
100
AcDbCircle
 10
0.2929750496864574
 20
4.295817899955732
 30
0.0
 40
0.0389999999999999
  0
LINE
  5
BB13639EED91D79D
330
BB13639EED91DB2A
100
AcDbEntity
  8
0
100
AcDbLine
 10
0.8289750496864588
 20
4.497817899955732
 30
0.0
 11
0.8289750496864588
 21
4.166817899955733
 31
0.0
  0
CIRCLE
  5
BB13639EED91D79E
330
BB13639EED91DB2A
100
AcDbEntity
  8
0
100
AcDbCircle
 10
0.7059750496864594
 20
4.295817899955732
 30
0.0
 40
0.0389999999999999
  0
CIRCLE
  5
BB13639EED91D79F
330
BB13639EED91DB2A
100
AcDbEntity
  8
0
100
AcDbCircle
 10
0.5689750496864572
 20
4.295817899955732
 30
0.0
 40
0.0389999999999999
  0
CIRCLE
  5
BB13639EED91D7A4
330
BB13639EED91DB2A
100
AcDbEntity
  8
0
100
AcDbCircle
 10
0.4319750496864585
 20
4.295817899955732
 30
0.0
 40
0.0389999999999999
  0
CIRCLE
  5
BB13639EED91D7A5
330
BB13639EED91DB2A
100
AcDbEntity
  8
0
100
AcDbCircle
 10
-0.253024950313542
 20
4.295817899955732
 30
0.0
 40
0.0389999999999999
  0
CIRCLE
  5
BB13639EED91D7A7
330
BB13639EED91DB2A
100
AcDbEntity
  8
0
100
AcDbCircle
 10
-0.1160249503135415
 20
4.295817899955732
 30
0.0
 40
0.0389999999999999
  0
CIRCLE
  5
BB13639EED91D7AA
330
BB13639EED91DB2A
100
AcDbEntity
  8
0
100
AcDbCircle
 10
0.0219750496864584
 20
4.295817899955732
 30
0.0
 40
0.0389999999999999
  0
CIRCLE
  5
BB13639EED91D7AE
330
BB13639EED91DB2A
100
AcDbEntity
  8
0
100
AcDbCircle
 10
-0.3900249503135425
 20
4.295817899955732
 30
0.0
 40
0.0389999999999999
  0
CIRCLE
  5
BB13639EED91D7AF
330
BB13639EED91DB2A
100
AcDbEntity
  8
0
100
AcDbCircle
 10
-0.5270249503135412
 20
4.295817899955732
 30
0.0
 40
0.0389999999999999
  0
CIRCLE
  5
BB13639EED91D7B1
330
BB13639EED91DB2A
100
AcDbEntity
  8
0
100
AcDbCircle
 10
-0.6640249503135416
 20
4.295817899955732
 30
0.0
 40
0.0389999999999999
  0
CIRCLE
  5
BB13639EED91D7B4
330
BB13639EED91DB2A
100
AcDbEntity
  8
0
100
AcDbCircle
 10
-1.349024950313542
 20
4.295817899955732
 30
0.0
 40
0.0389999999999999
  0
CIRCLE
  5
BB13639EED91D7B7
330
BB13639EED91DB2A
100
AcDbEntity
  8
0
100
AcDbCircle
 10
-0.9380249503135424
 20
4.295817899955732
 30
0.0
 40
0.0389999999999999
  0
CIRCLE
  5
BB13639EED91D7BA
330
BB13639EED91DB2A
100
AcDbEntity
  8
0
100
AcDbCircle
 10
-1.212024950313541
 20
4.295817899955732
 30
0.0
 40
0.0389999999999999
  0
LINE
  5
BB13639EED91D7BC
330
BB13639EED91DB2A
100
AcDbEntity
  8
0
100
AcDbLine
 10
-1.463024950313541
 20
4.166817899955733
 30
0.0
 11
-1.463024950313541
 21
4.497817899955732
 31
0.0
  0
LINE
  5
BB13639EED91D7BF
330
BB13639EED91DB2A
100
AcDbEntity
  8
0
100
AcDbLine
 10
-2.224024950313541
 20
4.166817899955733
 30
0.0
 11
-2.65402495031354
 21
4.166817899955733
 31
0.0
  0
LINE
  5
BB13639EED91D7C0
330
BB13639EED91DB2A
100
AcDbEntity
  8
0
100
AcDbLine
 10
-2.22802495031354
 20
4.414817899955732
 30
0.0
 11
-2.65402495031354
 21
4.414817899955732
 31
0.0
  0
CIRCLE
  5
BB13639EED91D7C2
330
BB13639EED91DB2A
100
AcDbEntity
  8
0
100
AcDbCircle
 10
-2.540024950313541
 20
4.295817899955732
 30
0.0
 40
0.0389999999999999
  0
LINE
  5
BB13639EED91D7C3
330
BB13639EED91DB2A
100
AcDbEntity
  8
0
100
AcDbLine
 10
-2.65402495031354
 20
4.166817899955733
 30
0.0
 11
-2.65402495031354
 21
4.497817899955732
 31
0.0
  0
CIRCLE
  5
BB13639EED91D7C5
330
BB13639EED91DB2A
100
AcDbEntity
  8
0
100
AcDbCircle
 10
-2.34002495031354
 20
4.295817899955732
 30
0.0
 40
0.0389999999999999
  0
LINE
  5
BB13639EED91D7C6
330
BB13639EED91DB2A
100
AcDbEntity
  8
0
100
AcDbLine
 10
-2.22802495031354
 20
4.166817899955733
 30
0.0
 11
-2.22802495031354
 21
4.497817899955732
 31
0.0
  0
LINE
  5
BB13639EED91D7C7
330
BB13639EED91DB2A
100
AcDbEntity
  8
0
100
AcDbLine
 10
-2.531024950313541
 20
4.333817899955733
 30
0.0
 11
-2.531024950313541
 21
4.257817899955733
 31
0.0
  0
LINE
  5
BB13639EED91D7C8
330
BB13639EED91DB2A
100
AcDbEntity
  8
0
100
AcDbLine
 10
-2.549024950313541
 20
4.333817899955733
 30
0.0
 11
-2.549024950313541
 21
4.257817899955733
 31
0.0
  0
LINE
  5
BB13639EED91D7C9
330
BB13639EED91DB2A
100
AcDbEntity
  8
0
100
AcDbLine
 10
-1.340024950313542
 20
4.333817899955733
 30
0.0
 11
-1.340024950313542
 21
4.257817899955733
 31
0.0
  0
LINE
  5
BB13639EED91D7CA
330
BB13639EED91DB2A
100
AcDbEntity
  8
0
100
AcDbLine
 10
-1.358024950313542
 20
4.333817899955733
 30
0.0
 11
-1.358024950313542
 21
4.257817899955733
 31
0.0
  0
LINE
  5
BB13639EED91D7CB
330
BB13639EED91DB2A
100
AcDbEntity
  8
0
100
AcDbLine
 10
-2.331024950313541
 20
4.333817899955733
 30
0.0
 11
-2.331024950313541
 21
4.257817899955733
 31
0.0
  0
LINE
  5
BB13639EED91D7CC
330
BB13639EED91DB2A
100
AcDbEntity
  8
0
100
AcDbLine
 10
-2.349024950313541
 20
4.333817899955733
 30
0.0
 11
-2.349024950313541
 21
4.257817899955733
 31
0.0
  0
LINE
  5
BB13639EED91D7CD
330
BB13639EED91DB2A
100
AcDbEntity
  8
0
100
AcDbLine
 10
-1.203024950313542
 20
4.333817899955733
 30
0.0
 11
-1.203024950313542
 21
4.257817899955733
 31
0.0
  0
LINE
  5
BB13639EED91D7CE
330
BB13639EED91DB2A
100
AcDbEntity
  8
0
100
AcDbLine
 10
-1.221024950313542
 20
4.333817899955733
 30
0.0
 11
-1.221024950313542
 21
4.257817899955733
 31
0.0
  0
LINE
  5
BB13639EED91D7CF
330
BB13639EED91DB2A
100
AcDbEntity
  8
0
100
AcDbLine
 10
-0.9290249503135431
 20
4.333817899955733
 30
0.0
 11
-0.9290249503135431
 21
4.257817899955733
 31
0.0
  0
LINE
  5
BB13639EED91D7D0
330
BB13639EED91DB2A
100
AcDbEntity
  8
0
100
AcDbLine
 10
-0.9470249503135432
 20
4.333817899955733
 30
0.0
 11
-0.9470249503135432
 21
4.257817899955733
 31
0.0
  0
LINE
  5
BB13639EED91D7D1
330
BB13639EED91DB2A
100
AcDbEntity
  8
0
100
AcDbLine
 10
-0.7920249503135426
 20
4.333817899955733
 30
0.0
 11
-0.7920249503135426
 21
4.257817899955733
 31
0.0
  0
LINE
  5
BB13639EED91D7D2
330
BB13639EED91DB2A
100
AcDbEntity
  8
0
100
AcDbLine
 10
-0.8100249503135428
 20
4.333817899955733
 30
0.0
 11
-0.8100249503135428
 21
4.257817899955733
 31
0.0
  0
LINE
  5
BB13639EED91D7D3
330
BB13639EED91DB2A
100
AcDbEntity
  8
0
100
AcDbLine
 10
-0.5180249503135417
 20
4.333817899955733
 30
0.0
 11
-0.5180249503135417
 21
4.257817899955733
 31
0.0
  0
LINE
  5
BB13639EED91D7D4
330
BB13639EED91DB2A
100
AcDbEntity
  8
0
100
AcDbLine
 10
-0.536024950313542
 20
4.333817899955733
 30
0.0
 11
-0.536024950313542
 21
4.257817899955733
 31
0.0
  0
LINE
  5
BB13639EED91D7D5
330
BB13639EED91DB2A
100
AcDbEntity
  8
0
100
AcDbLine
 10
-0.6550249503135422
 20
4.333817899955733
 30
0.0
 11
-0.6550249503135422
 21
4.257817899955733
 31
0.0
  0
LINE
  5
BB13639EED91D7D6
330
BB13639EED91DB2A
100
AcDbEntity
  8
0
100
AcDbLine
 10
-0.6730249503135424
 20
4.333817899955733
 30
0.0
 11
-0.6730249503135424
 21
4.257817899955733
 31
0.0
  0
LINE
  5
BB13639EED91D7D7
330
BB13639EED91DB2A
100
AcDbEntity
  8
0
100
AcDbLine
 10
-0.381024950313543
 20
4.333817899955733
 30
0.0
 11
-0.381024950313543
 21
4.257817899955733
 31
0.0
  0
LINE
  5
BB13639EED91D7D8
330
BB13639EED91DB2A
100
AcDbEntity
  8
0
100
AcDbLine
 10
-0.3990249503135432
 20
4.333817899955733
 30
0.0
 11
-0.3990249503135432
 21
4.257817899955733
 31
0.0
  0
LINE
  5
BB13639EED91D7D9
330
BB13639EED91DB2A
100
AcDbEntity
  8
0
100
AcDbLine
 10
-0.2440249503135425
 20
4.333817899955733
 30
0.0
 11
-0.2440249503135425
 21
4.257817899955733
 31
0.0
  0
LINE
  5
BB13639EED91D7DA
330
BB13639EED91DB2A
100
AcDbEntity
  8
0
100
AcDbLine
 10
-0.2620249503135428
 20
4.333817899955733
 30
0.0
 11
-0.2620249503135428
 21
4.257817899955733
 31
0.0
  0
LINE
  5
BB13639EED91D7DB
330
BB13639EED91DB2A
100
AcDbEntity
  8
0
100
AcDbLine
 10
0.0309750496864578
 20
4.333817899955733
 30
0.0
 11
0.0309750496864578
 21
4.257817899955733
 31
0.0
  0
LINE
  5
BB13639EED91D7DC
330
BB13639EED91DB2A
100
AcDbEntity
  8
0
100
AcDbLine
 10
0.0129750496864576
 20
4.333817899955733
 30
0.0
 11
0.0129750496864576
 21
4.257817899955733
 31
0.0
  0
LINE
  5
BB13639EED91D7DD
330
BB13639EED91DB2A
100
AcDbEntity
  8
0
100
AcDbLine
 10
-0.1070249503135421
 20
4.333817899955733
 30
0.0
 11
-0.1070249503135421
 21
4.257817899955733
 31
0.0
  0
LINE
  5
BB13639EED91D7DE
330
BB13639EED91DB2A
100
AcDbEntity
  8
0
100
AcDbLine
 10
-0.1250249503135423
 20
4.333817899955733
 30
0.0
 11
-0.1250249503135423
 21
4.257817899955733
 31
0.0
  0
LINE
  5
BB13639EED91D7DF
330
BB13639EED91DB2A
100
AcDbEntity
  8
0
100
AcDbLine
 10
0.3019750496864568
 20
4.333817899955733
 30
0.0
 11
0.3019750496864568
 21
4.257817899955733
 31
0.0
  0
LINE
  5
BB13639EED91D7E0
330
BB13639EED91DB2A
100
AcDbEntity
  8
0
100
AcDbLine
 10
0.2839750496864566
 20
4.333817899955733
 30
0.0
 11
0.2839750496864566
 21
4.257817899955733
 31
0.0
  0
LINE
  5
BB13639EED91D7E1
330
BB13639EED91DB2A
100
AcDbEntity
  8
0
100
AcDbLine
 10
0.7149750496864589
 20
4.333817899955733
 30
0.0
 11
0.7149750496864589
 21
4.257817899955733
 31
0.0
  0
LINE
  5
BB13639EED91D7E2
330
BB13639EED91DB2A
100
AcDbEntity
  8
0
100
AcDbLine
 10
0.6969750496864587
 20
4.333817899955733
 30
0.0
 11
0.6969750496864587
 21
4.257817899955733
 31
0.0
  0
LINE
  5
BB13639EED91D7E3
330
BB13639EED91DB2A
100
AcDbEntity
  8
0
100
AcDbLine
 10
0.440975049686458
 20
4.333817899955733
 30
0.0
 11
0.440975049686458
 21
4.257817899955733
 31
0.0
  0
LINE
  5
BB13639EED91D7E4
330
BB13639EED91DB2A
100
AcDbEntity
  8
0
100
AcDbLine
 10
0.4229750496864578
 20
4.333817899955733
 30
0.0
 11
0.4229750496864578
 21
4.257817899955733
 31
0.0
  0
LINE
  5
BB13639EED91D7E5
330
BB13639EED91DB2A
100
AcDbEntity
  8
0
100
AcDbLine
 10
0.5779750496864567
 20
4.333817899955733
 30
0.0
 11
0.5779750496864567
 21
4.257817899955733
 31
0.0
  0
LINE
  5
BB13639EED91D7E6
330
BB13639EED91DB2A
100
AcDbEntity
  8
0
100
AcDbLine
 10
0.5599750496864564
 20
4.333817899955733
 30
0.0
 11
0.5599750496864564
 21
4.257817899955733
 31
0.0
  0
LINE
  5
BB13639EED91DB5A
330
BB13639EED91DB2A
100
AcDbEntity
  8
0
100
AcDbLine
 10
0.1449750496864555
 20
4.333817899955733
 30
0.0
 11
0.1449750496864555
 21
4.257817899955733
 31
0.0
  0
LINE
  5
BB13639EED91DB5B
330
BB13639EED91DB2A
100
AcDbEntity
  8
0
100
AcDbLine
 10
0.1629750496864557
 20
4.333817899955733
 30
0.0
 11
0.1629750496864557
 21
4.257817899955733
 31
0.0
  0
CIRCLE
  5
BB13639EED91DB5C
330
BB13639EED91DB2A
100
AcDbEntity
  8
0
100
AcDbCircle
 10
0.1539750496864563
 20
4.295817899955732
 30
0.0
 40
0.0389999999999999
  0
LINE
  5
BB13639EED91DB5D
330
BB13639EED91DB2A
100
AcDbEntity
  8
0
100
AcDbLine
 10
-1.084024950313543
 20
4.333817899955733
 30
0.0
 11
-1.084024950313543
 21
4.257817899955733
 31
0.0
  0
LINE
  5
BB13639EED91DB5E
330
BB13639EED91DB2A
100
AcDbEntity
  8
0
100
AcDbLine
 10
-1.066024950313543
 20
4.333817899955733
 30
0.0
 11
-1.066024950313543
 21
4.257817899955733
 31
0.0
  0
CIRCLE
  5
BB13639EED91DB5F
330
BB13639EED91DB2A
100
AcDbEntity
  8
0
100
AcDbCircle
 10
-1.075024950313542
 20
4.295817899955732
 30
0.0
 40
0.0389999999999999
  0
ENDSEC
  0
SECTION
  2
OBJECTS
  0
DICTIONARY
  5
BB13639EED91DB18
330
0
100
AcDbDictionary
281
     1
  3
ACAD_GROUP
350
BB13639EED91DB19
  3
ACAD_LAYOUT
350
BB13639EED91DB25
  3
ACAD_MLINESTYLE
350
BB13639EED91DB22
  3
ACAD_PLOTSETTINGS
350
BB13639EED91DB24
  3
ACAD_PLOTSTYLENAME
350
BB13639EED91DB1A
  0
DICTIONARY
  5
BB13639EED91DB19
102
{ACAD_REACTORS
330
BB13639EED91DB18
102
}
330
BB13639EED91DB18
100
AcDbDictionary
281
     1
  0
DICTIONARY
  5
BB13639EED91DB25
102
{ACAD_REACTORS
330
BB13639EED91DB18
102
}
330
BB13639EED91DB18
100
AcDbDictionary
281
     1
  3
Layout1
350
BB13639EED91DB29
  3
Model
350
BB13639EED91DB2D
  0
DICTIONARY
  5
BB13639EED91DB22
102
{ACAD_REACTORS
330
BB13639EED91DB18
102
}
330
BB13639EED91DB18
100
AcDbDictionary
281
     1
  3
Standard
350
BB13639EED91DB23
  0
DICTIONARY
  5
BB13639EED91DB24
102
{ACAD_REACTORS
330
BB13639EED91DB18
102
}
330
BB13639EED91DB18
100
AcDbDictionary
281
     1
  0
ACDBDICTIONARYWDFLT
  5
BB13639EED91DB1A
102
{ACAD_REACTORS
330
BB13639EED91DB18
102
}
330
BB13639EED91DB18
100
AcDbDictionary
281
     1
  3
Normal
350
BB13639EED91DB1B
100
AcDbDictionaryWithDefault
340
BB13639EED91DB1B
  0
LAYOUT
  5
BB13639EED91DB29
102
{ACAD_REACTORS
330
BB13639EED91DB25
102
}
330
BB13639EED91DB25
100
AcDbPlotSettings
  1

  2
\\ENGPRINTSERV\QMS 2425 Eng Printer
  4

  6

 40
0.0
 41
0.0
 42
0.0
 43
0.0
 44
0.0
 45
0.0
 46
0.0
 47
0.0
 48
0.0
 49
0.0
140
0.0
141
0.0
142
1.0
143
1.0
 70
   688
 72
     0
 73
     0
 74
     5
  7

 75
    16
147
1.0
148
0.0
149
0.0
100
AcDbLayout
  1
Layout1
 70
     0
 71
     1
 10
0.0
 20
0.0
 11
12.0
 21
9.0
 12
0.0
 22
0.0
 32
0.0
 14
1.000000000000000E+20
 24
1.000000000000000E+20
 34
1.000000000000000E+20
 15
-1.000000000000000E+20
 25
-1.000000000000000E+20
 35
-1.000000000000000E+20
146
0.0
 13
0.0
 23
0.0
 33
0.0
 16
1.0
 26
0.0
 36
0.0
 17
0.0
 27
1.0
 37
0.0
 76
     0
330
BB13639EED91DB26
  0
LAYOUT
  5
BB13639EED91DB2D
102
{ACAD_REACTORS
330
BB13639EED91DB25
102
}
330
BB13639EED91DB25
100
AcDbPlotSettings
  1

  2
none_device
  4
Letter_(8.50_x_11.00_Inches)
  6

 40
6.349999904632568
 41
6.349999904632568
 42
6.350006103515625
 43
6.350006103515625
 44
215.8999938964843
 45
279.3999938964843
 46
0.0
 47
0.0
 48
0.0
 49
0.0
140
0.0
141
0.0
142
1.0
143
1.0
 70
 11952
 72
     0
 73
     1
 74
     0
  7

 75
     0
147
1.0
148
52.75397936831695
149
-68.93607437530345
100
AcDbLayout
  1
Model
 70
     1
 71
     0
 10
0.0
 20
0.0
 11
12.0
 21
9.0
 12
0.0
 22
0.0
 32
0.0
 14
0.0
 24
0.0
 34
0.0
 15
0.0
 25
0.0
 35
0.0
146
0.0
 13
0.0
 23
0.0
 33
0.0
 16
1.0
 26
0.0
 36
0.0
 17
0.0
 27
1.0
 37
0.0
 76
     0
330
BB13639EED91DB2A
  0
MLINESTYLE
  5
BB13639EED91DB23
102
{ACAD_REACTORS
330
BB13639EED91DB22
102
}
330
BB13639EED91DB22
100
AcDbMlineStyle
  2
STANDARD
 70
     0
  3

 62
   256
 51
90.0
 52
90.0
 71
     2
 49
0.5
 62
   256
  6
BYLAYER
 49
-0.5
 62
   256
  6
BYLAYER
  0
ACDBPLACEHOLDER
  5
BB13639EED91DB1B
102
{ACAD_REACTORS
330
BB13639EED91DB1A
102
}
330
BB13639EED91DB1A
  0
ENDSEC
  0
EOF
