  0
SECTION
  2
HEADER
  9
$ACADVER
  1
AC1015
  9
$ACADMAINTVER
 70
    10
  9
$DWGCODEPAGE
  3
ANSI_1252
  9
$INSBASE
 10
0.0
 20
0.0
 30
0.0
  9
$EXTMIN
 10
16.0555
 20
3.125999999999999
 30
0.0
  9
$EXTMAX
 10
22.2365
 20
6.841
 30
0.0
  9
$LIMMIN
 10
5.185000000000001
 20
4.510000000000001
  9
$LIMMAX
 10
15.715
 20
12.53
  9
$ORTHOMODE
 70
     1
  9
$REGENMODE
 70
     1
  9
$FILLMODE
 70
     1
  9
$QTEXTMODE
 70
     0
  9
$MIRRTEXT
 70
     1
  9
$LTSCALE
 40
1.0
  9
$ATTMODE
 70
     1
  9
$TEXTSIZE
 40
0.2
  9
$TRACEWID
 40
0.05
  9
$TEXTSTYLE
  7
STANDARD
  9
$CLAYER
  8
DIMS
  9
$CELTYPE
  6
ByLayer
  9
$CECOLOR
 62
   256
  9
$CELTSCALE
 40
1.0
  9
$DISPSILH
 70
     0
  9
$DIMSCALE
 40
1.0
  9
$DIMASZ
 40
0.18
  9
$DIMEXO
 40
0.0625
  9
$DIMDLI
 40
0.38
  9
$DIMRND
 40
0.0
  9
$DIMDLE
 40
0.0
  9
$DIMEXE
 40
0.18
  9
$DIMTP
 40
0.0
  9
$DIMTM
 40
0.0
  9
$DIMTXT
 40
0.12
  9
$DIMCEN
 40
0.09
  9
$DIMTSZ
 40
0.0
  9
$DIMTOL
 70
     0
  9
$DIMLIM
 70
     0
  9
$DIMTIH
 70
     1
  9
$DIMTOH
 70
     1
  9
$DIMSE1
 70
     0
  9
$DIMSE2
 70
     0
  9
$DIMTAD
 70
     0
  9
$DIMZIN
 70
     0
  9
$DIMBLK
  1

  9
$DIMASO
 70
     1
  9
$DIMSHO
 70
     1
  9
$DIMPOST
  1

  9
$DIMAPOST
  1

  9
$DIMALT
 70
     0
  9
$DIMALTD
 70
     2
  9
$DIMALTF
 40
25.4
  9
$DIMLFAC
 40
1.0
  9
$DIMTOFL
 70
     0
  9
$DIMTVP
 40
0.0
  9
$DIMTIX
 70
     0
  9
$DIMSOXD
 70
     0
  9
$DIMSAH
 70
     0
  9
$DIMBLK1
  1

  9
$DIMBLK2
  1

  9
$DIMSTYLE
  2
Standard
  9
$DIMCLRD
 70
     0
  9
$DIMCLRE
 70
     0
  9
$DIMCLRT
 70
     0
  9
$DIMTFAC
 40
1.5
  9
$DIMGAP
 40
0.09
  9
$DIMJUST
 70
     0
  9
$DIMSD1
 70
     0
  9
$DIMSD2
 70
     0
  9
$DIMTOLJ
 70
     1
  9
$DIMTZIN
 70
     0
  9
$DIMALTZ
 70
     0
  9
$DIMALTTZ
 70
     0
  9
$DIMUPT
 70
     0
  9
$DIMDEC
 70
     4
  9
$DIMTDEC
 70
     4
  9
$DIMALTU
 70
     2
  9
$DIMALTTD
 70
     2
  9
$DIMTXSTY
  7
STANDARD
  9
$DIMAUNIT
 70
     0
  9
$DIMADEC
 70
     0
  9
$DIMALTRND
 40
0.0
  9
$DIMAZIN
 70
     0
  9
$DIMDSEP
 70
    46
  9
$DIMATFIT
 70
     3
  9
$DIMFRAC
 70
     0
  9
$DIMLDRBLK
  1

  9
$DIMLUNIT
 70
     2
  9
$DIMLWD
 70
    -2
  9
$DIMLWE
 70
    -2
  9
$DIMTMOVE
 70
     2
  9
$LUNITS
 70
     2
  9
$LUPREC
 70
     4
  9
$SKETCHINC
 40
0.1
  9
$FILLETRAD
 40
0.5
  9
$AUNITS
 70
     0
  9
$AUPREC
 70
     0
  9
$MENU
  1
acad
  9
$ELEVATION
 40
0.0
  9
$PELEVATION
 40
0.0
  9
$THICKNESS
 40
0.0
  9
$LIMCHECK
 70
     0
  9
$CHAMFERA
 40
0.5
  9
$CHAMFERB
 40
0.5
  9
$CHAMFERC
 40
0.0
  9
$CHAMFERD
 40
0.0
  9
$SKPOLY
 70
     0
  9
$TDCREATE
 40
2452472.651303588
  9
$TDUCREATE
 40
2452472.984636921
  9
$TDUPDATE
 40
2453692.456301493
  9
$TDUUPDATE
 40
2453692.789634827
  9
$TDINDWG
 40
0.4396978125
  9
$TDUSRTIMER
 40
0.4396978125
  9
$USRTIMER
 70
     1
  9
$ANGBASE
 50
0.0
  9
$ANGDIR
 70
     0
  9
$PDMODE
 70
     0
  9
$PDSIZE
 40
0.0
  9
$PLINEWID
 40
0.0
  9
$SPLFRAME
 70
     0
  9
$SPLINETYPE
 70
     6
  9
$SPLINESEGS
 70
     8
  9
$HANDSEED
  5
242A
  9
$SURFTAB1
 70
     6
  9
$SURFTAB2
 70
     6
  9
$SURFTYPE
 70
     6
  9
$SURFU
 70
     6
  9
$SURFV
 70
     6
  9
$UCSBASE
  2

  9
$UCSNAME
  2

  9
$UCSORG
 10
22.14099999999999
 20
5.964
 30
0.0
  9
$UCSXDIR
 10
1.0
 20
0.0
 30
0.0
  9
$UCSYDIR
 10
0.0
 20
1.0
 30
0.0
  9
$UCSORTHOREF
  2

  9
$UCSORTHOVIEW
 70
     0
  9
$UCSORGTOP
 10
0.0
 20
0.0
 30
0.0
  9
$UCSORGBOTTOM
 10
0.0
 20
0.0
 30
0.0
  9
$UCSORGLEFT
 10
0.0
 20
0.0
 30
0.0
  9
$UCSORGRIGHT
 10
0.0
 20
0.0
 30
0.0
  9
$UCSORGFRONT
 10
0.0
 20
0.0
 30
0.0
  9
$UCSORGBACK
 10
0.0
 20
0.0
 30
0.0
  9
$PUCSBASE
  2

  9
$PUCSNAME
  2

  9
$PUCSORG
 10
0.0
 20
0.0
 30
0.0
  9
$PUCSXDIR
 10
1.0
 20
0.0
 30
0.0
  9
$PUCSYDIR
 10
0.0
 20
1.0
 30
0.0
  9
$PUCSORTHOREF
  2

  9
$PUCSORTHOVIEW
 70
     0
  9
$PUCSORGTOP
 10
0.0
 20
0.0
 30
0.0
  9
$PUCSORGBOTTOM
 10
0.0
 20
0.0
 30
0.0
  9
$PUCSORGLEFT
 10
0.0
 20
0.0
 30
0.0
  9
$PUCSORGRIGHT
 10
0.0
 20
0.0
 30
0.0
  9
$PUCSORGFRONT
 10
0.0
 20
0.0
 30
0.0
  9
$PUCSORGBACK
 10
0.0
 20
0.0
 30
0.0
  9
$USERI1
 70
     0
  9
$USERI2
 70
     0
  9
$USERI3
 70
     0
  9
$USERI4
 70
     0
  9
$USERI5
 70
     0
  9
$USERR1
 40
0.0
  9
$USERR2
 40
0.0
  9
$USERR3
 40
0.0
  9
$USERR4
 40
0.0
  9
$USERR5
 40
0.0
  9
$WORLDVIEW
 70
     1
  9
$SHADEDGE
 70
     3
  9
$SHADEDIF
 70
    70
  9
$TILEMODE
 70
     1
  9
$MAXACTVP
 70
    16
  9
$PINSBASE
 10
0.0
 20
0.0
 30
0.0
  9
$PLIMCHECK
 70
     0
  9
$PEXTMIN
 10
1.000000000000000E+20
 20
1.000000000000000E+20
 30
1.000000000000000E+20
  9
$PEXTMAX
 10
-1.000000000000000E+20
 20
-1.000000000000000E+20
 30
-1.000000000000000E+20
  9
$PLIMMIN
 10
0.0
 20
0.0
  9
$PLIMMAX
 10
12.0
 20
9.0
  9
$UNITMODE
 70
     0
  9
$VISRETAIN
 70
     0
  9
$PLINEGEN
 70
     0
  9
$PSLTSCALE
 70
     0
  9
$TREEDEPTH
 70
  3020
  9
$CMLSTYLE
  2
Standard
  9
$CMLJUST
 70
     0
  9
$CMLSCALE
 40
1.0
  9
$PROXYGRAPHICS
 70
     1
  9
$MEASUREMENT
 70
     0
  9
$CELWEIGHT
370
    -1
  9
$ENDCAPS
280
     0
  9
$JOINSTYLE
280
     0
  9
$LWDISPLAY
290
     0
  9
$INSUNITS
 70
     0
  9
$HYPERLINKBASE
  1

  9
$STYLESHEET
  1

  9
$XEDIT
290
     1
  9
$CEPSNTYPE
380
     0
  9
$PSTYLEMODE
290
     1
  9
$FINGERPRINTGUID
  2
{65A2EF40-6E70-45E6-9FCD-8EA1D572A183}
  9
$VERSIONGUID
  2
{C1E3D4FB-E73E-44FA-8757-622C8A10A634}
  9
$EXTNAMES
290
     1
  9
$PSVPSCALE
 40
0.0
  9
$OLESTARTUP
290
     0
  0
ENDSEC
  0
SECTION
  2
CLASSES
  0
CLASS
  1
ACDBDICTIONARYWDFLT
  2
AcDbDictionaryWithDefault
  3
AutoCAD 2000
 90
        0
280
     0
281
     0
  0
CLASS
  1
ACDBPLACEHOLDER
  2
AcDbPlaceHolder
  3
AutoCAD 2000
 90
        0
280
     0
281
     0
  0
CLASS
  1
LAYOUT
  2
AcDbLayout
  3
AutoCAD 2000
 90
        0
280
     0
281
     0
  0
ENDSEC
  0
SECTION
  2
TABLES
  0
TABLE
  2
VPORT
  5
8
330
0
100
AcDbSymbolTable
 70
     2
  0
VPORT
  5
2429
330
8
100
AcDbSymbolTableRecord
100
AcDbViewportTableRecord
  2
*Active
 70
     0
 10
0.0
 20
0.0
 11
1.0
 21
1.0
 12
18.95933167697064
 22
6.525514584971102
 13
0.0
 23
0.0
 14
0.001
 24
0.001
 15
0.001
 25
0.001
 16
0.0
 26
0.0
 36
1.0
 17
0.0
 27
0.0
 37
0.0
 40
16.72869531568095
 41
1.767754318618042
 42
50.0
 43
0.0
 44
0.0
 50
0.0
 51
0.0
 71
     0
 72
   100
 73
     1
 74
     0
 75
     1
 76
     1
 77
     0
 78
     0
281
     0
 65
     1
110
22.14099999999999
120
5.964
130
0.0
111
1.0
121
0.0
131
0.0
112
0.0
122
1.0
132
0.0
 79
     0
146
0.0
  0
ENDTAB
  0
TABLE
  2
LTYPE
  5
5
330
0
100
AcDbSymbolTable
 70
     1
  0
LTYPE
  5
13
330
5
100
AcDbSymbolTableRecord
100
AcDbLinetypeTableRecord
  2
ByBlock
 70
     0
  3

 72
    65
 73
     0
 40
0.0
  0
LTYPE
  5
14
330
5
100
AcDbSymbolTableRecord
100
AcDbLinetypeTableRecord
  2
ByLayer
 70
     0
  3

 72
    65
 73
     0
 40
0.0
  0
LTYPE
  5
15
330
5
100
AcDbSymbolTableRecord
100
AcDbLinetypeTableRecord
  2
CONTINUOUS
 70
     0
  3
Solid line
 72
    65
 73
     0
 40
0.0
  0
ENDTAB
  0
TABLE
  2
LAYER
  5
2
330
0
100
AcDbSymbolTable
 70
     5
  0
LAYER
  5
10
330
2
100
AcDbSymbolTableRecord
100
AcDbLayerTableRecord
  2
0
 70
     0
 62
     7
  6
CONTINUOUS
370
    -3
390
F
  0
LAYER
  5
29
330
2
100
AcDbSymbolTableRecord
100
AcDbLayerTableRecord
  2
DEFPOINTS
 70
     0
 62
     7
  6
CONTINUOUS
290
     0
370
    -3
390
F
  0
LAYER
  5
2A
330
2
100
AcDbSymbolTableRecord
100
AcDbLayerTableRecord
  2
DIMS
 70
     0
 62
     7
  6
CONTINUOUS
370
    -3
390
F
  0
LAYER
  5
2406
330
2
100
AcDbSymbolTableRecord
100
AcDbLayerTableRecord
  2
CASE
 70
     0
 62
     7
  6
CONTINUOUS
370
    -3
390
F
  0
LAYER
  5
2407
330
2
100
AcDbSymbolTableRecord
100
AcDbLayerTableRecord
  2
LABEL
 70
     0
 62
     7
  6
CONTINUOUS
370
    -3
390
F
  0
ENDTAB
  0
TABLE
  2
STYLE
  5
3
330
0
100
AcDbSymbolTable
 70
     1
  0
STYLE
  5
11
330
3
100
AcDbSymbolTableRecord
100
AcDbTextStyleTableRecord
  2
STANDARD
 70
     0
 40
0.0
 41
1.0
 50
0.0
 71
     0
 42
0.2
  3
txt
  4

  0
ENDTAB
  0
TABLE
  2
VIEW
  5
6
330
0
100
AcDbSymbolTable
 70
     0
  0
ENDTAB
  0
TABLE
  2
UCS
  5
7
330
0
100
AcDbSymbolTable
 70
     0
  0
ENDTAB
  0
TABLE
  2
APPID
  5
9
330
0
100
AcDbSymbolTable
 70
     1
  0
APPID
  5
12
330
9
100
AcDbSymbolTableRecord
100
AcDbRegAppTableRecord
  2
ACAD
 70
     0
  0
ENDTAB
  0
TABLE
  2
DIMSTYLE
  5
A
330
0
100
AcDbSymbolTable
 70
     2
100
AcDbDimStyleTable
 71
     1
340
166
  0
DIMSTYLE
105
166
330
A
100
AcDbSymbolTableRecord
100
AcDbDimStyleTableRecord
  2
Standard
 70
     0
340
11
  0
DIMSTYLE
105
2408
330
A
100
AcDbSymbolTableRecord
100
AcDbDimStyleTableRecord
  2
FULL
 70
     0
 41
0.15
 42
0.075
 43
0.5
 44
0.075
 47
0.01
 48
0.01
 78
     4
140
0.125
141
0.125
147
0.075
176
   135
177
   135
178
     4
279
     2
340
11
  0
ENDTAB
  0
TABLE
  2
BLOCK_RECORD
  5
1
330
0
100
AcDbSymbolTable
 70
     1
  0
BLOCK_RECORD
  5
1E
330
1
100
AcDbSymbolTableRecord
100
AcDbBlockTableRecord
  2
*Model_Space
340
21
  0
BLOCK_RECORD
  5
1A
330
1
100
AcDbSymbolTableRecord
100
AcDbBlockTableRecord
  2
*Paper_Space
340
1D
  0
BLOCK_RECORD
  5
23F7
330
1
100
AcDbSymbolTableRecord
100
AcDbBlockTableRecord
  2
ACAD3F23
340
0
  0
ENDTAB
  0
ENDSEC
  0
SECTION
  2
BLOCKS
  0
BLOCK
  5
2E
330
1E
100
AcDbEntity
  8
0
100
AcDbBlockBegin
  2
*Model_Space
 70
     0
 10
0.0
 20
0.0
 30
0.0
  3
*Model_Space
  1

  0
ENDBLK
  5
2F
330
1E
100
AcDbEntity
  8
0
100
AcDbBlockEnd
  0
BLOCK
  5
2C
330
1A
100
AcDbEntity
 67
     1
  8
0
100
AcDbBlockBegin
  2
*Paper_Space
 70
     0
 10
0.0
 20
0.0
 30
0.0
  3
*Paper_Space
  1

  0
ENDBLK
  5
2D
330
1A
100
AcDbEntity
 67
     1
  8
0
100
AcDbBlockEnd
  0
BLOCK
  5
2404
330
23F7
100
AcDbEntity
  8
0
100
AcDbBlockBegin
  2
ACAD3F23
 70
     0
 10
0.0
 20
0.0
 30
0.0
  3
ACAD3F23
  1

  0
LINE
  5
23F8
330
23F7
100
AcDbEntity
  8
CASE
100
AcDbLine
 10
0.0631013937893692
 20
-0.0000000000000009
 30
0.0
 11
-0.063075606210631
 21
-0.0000000000000009
 31
0.0
  0
CIRCLE
  5
23F9
330
23F7
100
AcDbEntity
  8
CASE
100
AcDbCircle
 10
0.0000133937893687
 20
-0.4920139999999984
 30
0.0
 40
0.0625
  0
LINE
  5
23FA
330
23F7
100
AcDbEntity
  8
CASE
100
AcDbLine
 10
0.2150133937893686
 20
-0.2342030000000017
 30
0.0
 11
0.2150133937893686
 21
0.2340000000000009
 31
0.0
  0
LINE
  5
23FB
330
23F7
100
AcDbEntity
  8
CASE
100
AcDbLine
 10
-0.2139866062106317
 20
0.2645380000000008
 30
0.0
 11
-0.2139866062106317
 21
-0.2655389999999977
 31
0.0
  0
ARC
  5
23FC
330
23F7
100
AcDbEntity
  8
CASE
100
AcDbCircle
 10
-0.0894866632643967
 20
-0.2655390949515395
 30
0.0
 40
0.1249999429462717
100
AcDbArc
 50
179.9999564773993
 51
280.0000208295727
  0
ARC
  5
23FD
330
23F7
100
AcDbEntity
  8
CASE
100
AcDbCircle
 10
0.0905133026561385
 20
-0.2342029504876821
 30
0.0
 40
0.1250000911332398
100
AcDbArc
 50
280.0000247145827
 51
359.999977305241
  0
LINE
  5
23FE
330
23F7
100
AcDbEntity
  8
CASE
100
AcDbLine
 10
-0.0677806062106323
 20
-0.3886399999999996
 30
0.0
 11
0.1122193937893692
 21
-0.3573040000000001
 31
0.0
  0
LINE
  5
23FF
330
23F7
100
AcDbEntity
  8
CASE
100
AcDbLine
 10
0.0000133937893687
 20
0.0630890000000006
 30
0.0
 11
0.0000133937893687
 21
-0.0630889999999989
 31
0.0
  0
ARC
  5
2400
330
23F7
100
AcDbEntity
  8
CASE
100
AcDbCircle
 10
-0.0884866632643973
 20
0.2645380949515426
 30
0.0
 40
0.1249999429462689
100
AcDbArc
 50
79.99997917042621
 51
180.0000435226006
  0
CIRCLE
  5
2401
330
23F7
100
AcDbEntity
  8
CASE
100
AcDbCircle
 10
0.0000133937893687
 20
0.4919859999999999
 30
0.0
 40
0.0625
  0
ARC
  5
2402
330
23F7
100
AcDbEntity
  8
CASE
100
AcDbCircle
 10
0.089513302656139
 20
0.2342029504876804
 30
0.0
 40
0.1250000911332405
100
AcDbArc
 50
0.000022694759032
 51
79.99997528541725
  0
LINE
  5
2403
330
23F7
100
AcDbEntity
  8
CASE
100
AcDbLine
 10
0.1112193937893697
 20
0.3573039999999983
 30
0.0
 11
-0.0667806062106311
 21
0.3876389999999992
 31
0.0
  0
ENDBLK
  5
2405
330
23F7
100
AcDbEntity
  8
0
100
AcDbBlockEnd
  0
ENDSEC
  0
SECTION
  2
ENTITIES
  0
LINE
  5
61
330
1E
100
AcDbEntity
  8
0
100
AcDbLine
 10
22.157
 20
4.321499999999998
 30
0.0
 11
22.157
 21
5.9815
 31
0.0
  0
LINE
  5
62
330
1E
100
AcDbEntity
  8
0
100
AcDbLine
 10
22.2365
 20
4.232499999999999
 30
0.0
 11
22.2365
 21
6.0655
 31
0.0
  0
LINE
  5
63
330
1E
100
AcDbEntity
  8
0
100
AcDbLine
 10
16.13499999999999
 20
5.9815
 30
0.0
 11
16.13499999999999
 21
4.321499999999998
 31
0.0
  0
LINE
  5
64
330
1E
100
AcDbEntity
  8
0
100
AcDbLine
 10
16.0555
 20
6.0655
 30
0.0
 11
16.0555
 21
4.232499999999999
 31
0.0
  0
LINE
  5
65
330
1E
100
AcDbEntity
  8
0
100
AcDbLine
 10
16.13499999999999
 20
4.321499999999998
 30
0.0
 11
22.157
 21
4.321499999999998
 31
0.0
  0
LINE
  5
66
330
1E
100
AcDbEntity
  8
0
100
AcDbLine
 10
16.0555
 20
4.232499999999999
 30
0.0
 11
22.2365
 21
4.232499999999999
 31
0.0
  0
LINE
  5
67
330
1E
100
AcDbEntity
  8
0
100
AcDbLine
 10
22.2365
 20
3.9565
 30
0.0
 11
16.0555
 21
3.9565
 31
0.0
  0
LINE
  5
68
330
1E
100
AcDbEntity
  8
0
100
AcDbLine
 10
22.2365
 20
3.456999999999999
 30
0.0
 11
16.0555
 21
3.456999999999999
 31
0.0
  0
LINE
  5
69
330
1E
100
AcDbEntity
  8
0
100
AcDbLine
 10
16.0555
 20
3.456999999999999
 30
0.0
 11
16.0555
 21
4.232499999999999
 31
0.0
  0
LINE
  5
6A
330
1E
100
AcDbEntity
  8
0
100
AcDbLine
 10
22.2365
 20
4.232499999999999
 30
0.0
 11
22.2365
 21
3.456999999999999
 31
0.0
  0
LINE
  5
6B
330
1E
100
AcDbEntity
  8
0
100
AcDbLine
 10
22.157
 20
5.9815
 30
0.0
 11
16.13499999999999
 21
5.9815
 31
0.0
  0
LINE
  5
6C
330
1E
100
AcDbEntity
  8
0
100
AcDbLine
 10
22.2365
 20
6.0655
 30
0.0
 11
16.0555
 21
6.0655
 31
0.0
  0
LINE
  5
6D
330
1E
100
AcDbEntity
  8
0
100
AcDbLine
 10
16.0555
 20
6.3405
 30
0.0
 11
22.2365
 21
6.3405
 31
0.0
  0
LINE
  5
6E
330
1E
100
AcDbEntity
  8
0
100
AcDbLine
 10
16.0555
 20
6.0655
 30
0.0
 11
16.0555
 21
6.841
 31
0.0
  0
LINE
  5
6F
330
1E
100
AcDbEntity
  8
0
100
AcDbLine
 10
16.0555
 20
6.841
 30
0.0
 11
22.2365
 21
6.841
 31
0.0
  0
LINE
  5
70
330
1E
100
AcDbEntity
  8
0
100
AcDbLine
 10
22.2365
 20
6.841
 30
0.0
 11
22.2365
 21
6.0655
 31
0.0
  0
CIRCLE
  5
E5
330
1E
100
AcDbEntity
  8
0
100
AcDbCircle
 10
18.06701339378937
 20
4.726986000000004
 30
0.0
 40
0.0625
  0
LINE
  5
E6
330
1E
100
AcDbEntity
  8
0
100
AcDbLine
 10
18.28201339378937
 20
4.984797000000001
 30
0.0
 11
18.28201339378937
 21
5.453000000000003
 31
0.0
  0
LINE
  5
E7
330
1E
100
AcDbEntity
  8
0
100
AcDbLine
 10
17.85301339378936
 20
5.483538000000003
 30
0.0
 11
17.85301339378936
 21
4.953461000000005
 31
0.0
  0
ARC
  5
E8
330
1E
100
AcDbEntity
  8
0
100
AcDbCircle
 10
17.9775133367356
 20
4.953460905048463
 30
0.0
 40
0.1249999429462717
100
AcDbArc
 50
179.9999564773993
 51
280.0000208295727
  0
ARC
  5
E9
330
1E
100
AcDbEntity
  8
0
100
AcDbCircle
 10
18.15751330265613
 20
4.98479704951232
 30
0.0
 40
0.1250000911332398
100
AcDbArc
 50
280.0000247145827
 51
359.999977305241
  0
LINE
  5
EA
330
1E
100
AcDbEntity
  8
0
100
AcDbLine
 10
17.99921939378936
 20
4.830360000000003
 30
0.0
 11
18.17921939378937
 21
4.861696000000002
 31
0.0
  0
ARC
  5
EB
330
1E
100
AcDbEntity
  8
0
100
AcDbCircle
 10
17.9785133367356
 20
5.483538094951545
 30
0.0
 40
0.1249999429462689
100
AcDbArc
 50
79.99997917042621
 51
180.0000435226006
  0
CIRCLE
  5
EC
330
1E
100
AcDbEntity
  8
0
100
AcDbCircle
 10
18.06701339378937
 20
5.710986000000002
 30
0.0
 40
0.0625
  0
ARC
  5
ED
330
1E
100
AcDbEntity
  8
0
100
AcDbCircle
 10
18.15651330265614
 20
5.453202950487683
 30
0.0
 40
0.1250000911332405
100
AcDbArc
 50
0.000022694759032
 51
79.99997528541725
  0
LINE
  5
EE
330
1E
100
AcDbEntity
  8
0
100
AcDbLine
 10
18.17821939378936
 20
5.576304000000001
 30
0.0
 11
18.00021939378936
 21
5.606639000000002
 31
0.0
  0
CIRCLE
  5
F9
330
1E
100
AcDbEntity
  8
0
100
AcDbCircle
 10
17.32201339378936
 20
4.726986000000004
 30
0.0
 40
0.0625
  0
LINE
  5
FA
330
1E
100
AcDbEntity
  8
0
100
AcDbLine
 10
17.53701339378936
 20
4.984797000000001
 30
0.0
 11
17.53701339378936
 21
5.453000000000003
 31
0.0
  0
LINE
  5
FB
330
1E
100
AcDbEntity
  8
0
100
AcDbLine
 10
17.10801339378936
 20
5.483538000000003
 30
0.0
 11
17.10801339378936
 21
4.953461000000005
 31
0.0
  0
ARC
  5
FC
330
1E
100
AcDbEntity
  8
0
100
AcDbCircle
 10
17.2325133367356
 20
4.953460905048463
 30
0.0
 40
0.1249999429462717
100
AcDbArc
 50
179.9999564773993
 51
280.0000208295727
  0
ARC
  5
FD
330
1E
100
AcDbEntity
  8
0
100
AcDbCircle
 10
17.41251330265613
 20
4.98479704951232
 30
0.0
 40
0.1250000911332398
100
AcDbArc
 50
280.0000247145827
 51
359.999977305241
  0
LINE
  5
FE
330
1E
100
AcDbEntity
  8
0
100
AcDbLine
 10
17.25421939378936
 20
4.830360000000003
 30
0.0
 11
17.43421939378936
 21
4.861696000000002
 31
0.0
  0
ARC
  5
FF
330
1E
100
AcDbEntity
  8
0
100
AcDbCircle
 10
17.23351333673559
 20
5.483538094951545
 30
0.0
 40
0.1249999429462689
100
AcDbArc
 50
79.99997917042621
 51
180.0000435226006
  0
CIRCLE
  5
100
330
1E
100
AcDbEntity
  8
0
100
AcDbCircle
 10
17.32201339378936
 20
5.710986000000002
 30
0.0
 40
0.0625
  0
ARC
  5
101
330
1E
100
AcDbEntity
  8
0
100
AcDbCircle
 10
17.41151330265613
 20
5.453202950487683
 30
0.0
 40
0.1250000911332405
100
AcDbArc
 50
0.000022694759032
 51
79.99997528541725
  0
LINE
  5
102
330
1E
100
AcDbEntity
  8
0
100
AcDbLine
 10
17.43321939378936
 20
5.576304000000001
 30
0.0
 11
17.25521939378936
 21
5.606639000000002
 31
0.0
  0
CIRCLE
  5
10B
330
1E
100
AcDbEntity
  8
0
100
AcDbCircle
 10
17.265
 20
5.11
 30
0.0
 40
0.0420000000000016
  0
CIRCLE
  5
10C
330
1E
100
AcDbEntity
  8
0
100
AcDbCircle
 10
17.377
 20
5.163999999999998
 30
0.0
 40
0.0420000000000016
  0
CIRCLE
  5
10D
330
1E
100
AcDbEntity
  8
0
100
AcDbCircle
 10
17.377
 20
5.055
 30
0.0
 40
0.0420000000000016
  0
CIRCLE
  5
10E
330
1E
100
AcDbEntity
  8
0
100
AcDbCircle
 10
17.265
 20
5.219
 30
0.0
 40
0.0420000000000016
  0
CIRCLE
  5
10F
330
1E
100
AcDbEntity
  8
0
100
AcDbCircle
 10
17.265
 20
5.328
 30
0.0
 40
0.0420000000000016
  0
CIRCLE
  5
110
330
1E
100
AcDbEntity
  8
0
100
AcDbCircle
 10
17.265
 20
5.437
 30
0.0
 40
0.0420000000000016
  0
CIRCLE
  5
111
330
1E
100
AcDbEntity
  8
0
100
AcDbCircle
 10
17.377
 20
5.273
 30
0.0
 40
0.0420000000000016
  0
CIRCLE
  5
112
330
1E
100
AcDbEntity
  8
0
100
AcDbCircle
 10
17.377
 20
5.381999999999998
 30
0.0
 40
0.0420000000000016
  0
CIRCLE
  5
113
330
1E
100
AcDbEntity
  8
0
100
AcDbCircle
 10
18.01
 20
5.437
 30
0.0
 40
0.0420000000000016
  0
CIRCLE
  5
114
330
1E
100
AcDbEntity
  8
0
100
AcDbCircle
 10
18.01
 20
5.328
 30
0.0
 40
0.0420000000000016
  0
CIRCLE
  5
115
330
1E
100
AcDbEntity
  8
0
100
AcDbCircle
 10
18.01
 20
5.219
 30
0.0
 40
0.0420000000000016
  0
CIRCLE
  5
116
330
1E
100
AcDbEntity
  8
0
100
AcDbCircle
 10
18.01
 20
5.11
 30
0.0
 40
0.0420000000000016
  0
CIRCLE
  5
117
330
1E
100
AcDbEntity
  8
0
100
AcDbCircle
 10
18.12199999999999
 20
5.163999999999998
 30
0.0
 40
0.0420000000000016
  0
CIRCLE
  5
118
330
1E
100
AcDbEntity
  8
0
100
AcDbCircle
 10
18.12199999999999
 20
5.055
 30
0.0
 40
0.0420000000000016
  0
CIRCLE
  5
119
330
1E
100
AcDbEntity
  8
0
100
AcDbCircle
 10
18.12199999999999
 20
5.381999999999998
 30
0.0
 40
0.0420000000000016
  0
CIRCLE
  5
11A
330
1E
100
AcDbEntity
  8
0
100
AcDbCircle
 10
18.12199999999999
 20
5.273
 30
0.0
 40
0.0420000000000016
  0
LINE
  5
121
330
1E
100
AcDbEntity
  8
0
100
AcDbLine
 10
17.227
 20
5.038999999999999
 30
0.0
 11
17.303
 21
5.038999999999999
 31
0.0
  0
LINE
  5
122
330
1E
100
AcDbEntity
  8
0
100
AcDbLine
 10
17.303
 20
5.038999999999999
 30
0.0
 11
17.303
 21
4.963
 31
0.0
  0
LINE
  5
123
330
1E
100
AcDbEntity
  8
0
100
AcDbLine
 10
17.303
 20
4.963
 30
0.0
 11
17.227
 21
4.963
 31
0.0
  0
LINE
  5
124
330
1E
100
AcDbEntity
  8
0
100
AcDbLine
 10
17.227
 20
4.963
 30
0.0
 11
17.227
 21
5.038999999999999
 31
0.0
  0
LINE
  5
125
330
1E
100
AcDbEntity
  8
0
100
AcDbLine
 10
18.048
 20
5.038999999999999
 30
0.0
 11
18.048
 21
4.963
 31
0.0
  0
LINE
  5
126
330
1E
100
AcDbEntity
  8
0
100
AcDbLine
 10
18.048
 20
4.963
 30
0.0
 11
17.972
 21
4.963
 31
0.0
  0
LINE
  5
127
330
1E
100
AcDbEntity
  8
0
100
AcDbLine
 10
17.972
 20
4.963
 30
0.0
 11
17.972
 21
5.038999999999999
 31
0.0
  0
LINE
  5
128
330
1E
100
AcDbEntity
  8
0
100
AcDbLine
 10
17.972
 20
5.038999999999999
 30
0.0
 11
18.048
 21
5.038999999999999
 31
0.0
  0
LINE
  5
1D44
330
1E
100
AcDbEntity
  8
0
100
AcDbLine
 10
20.00596167908315
 20
3.429999999999999
 30
0.0
 11
20.40547944343821
 21
3.429999999999999
 31
0.0
  0
LINE
  5
1D45
330
1E
100
AcDbEntity
  8
0
100
AcDbLine
 10
20.22372944343821
 20
3.390999999999999
 30
0.0
 11
20.29522944343821
 21
3.390999999999999
 31
0.0
  0
LINE
  5
1D46
330
1E
100
AcDbEntity
  8
0
100
AcDbLine
 10
20.32472944343821
 20
3.429999999999999
 30
0.0
 11
20.32472944343821
 21
3.390999999999999
 31
0.0
  0
LINE
  5
1D47
330
1E
100
AcDbEntity
  8
0
100
AcDbLine
 10
20.32472944343821
 20
3.390999999999999
 30
0.0
 11
20.39622944343821
 21
3.390999999999999
 31
0.0
  0
LINE
  5
1D48
330
1E
100
AcDbEntity
  8
0
100
AcDbLine
 10
20.39622944343821
 20
3.429999999999999
 30
0.0
 11
20.39622944343821
 21
3.390999999999999
 31
0.0
  0
LINE
  5
1D49
330
1E
100
AcDbEntity
  8
0
100
AcDbLine
 10
20.29522944343821
 20
3.429999999999999
 30
0.0
 11
20.29522944343821
 21
3.390999999999999
 31
0.0
  0
LINE
  5
1D4A
330
1E
100
AcDbEntity
  8
0
100
AcDbLine
 10
20.40547944343821
 20
3.429999999999999
 30
0.0
 11
20.40547944343821
 21
3.456999999999999
 31
0.0
  0
LINE
  5
1D4B
330
1E
100
AcDbEntity
  8
0
100
AcDbLine
 10
20.19322944343821
 20
3.429999999999999
 30
0.0
 11
20.19322944343821
 21
3.390999999999999
 31
0.0
  0
LINE
  5
1D4C
330
1E
100
AcDbEntity
  8
0
100
AcDbLine
 10
20.12172944343821
 20
3.390999999999999
 30
0.0
 11
20.19322944343821
 21
3.390999999999999
 31
0.0
  0
LINE
  5
1D4D
330
1E
100
AcDbEntity
  8
0
100
AcDbLine
 10
20.12172944343821
 20
3.429999999999999
 30
0.0
 11
20.12172944343821
 21
3.390999999999999
 31
0.0
  0
LINE
  5
1D4E
330
1E
100
AcDbEntity
  8
0
100
AcDbLine
 10
20.22372944343821
 20
3.429999999999999
 30
0.0
 11
20.22372944343821
 21
3.390999999999999
 31
0.0
  0
LINE
  5
1D51
330
1E
100
AcDbEntity
  8
0
100
AcDbLine
 10
20.02072944343821
 20
3.390999999999999
 30
0.0
 11
20.09222944343821
 21
3.390999999999999
 31
0.0
  0
LINE
  5
1D52
330
1E
100
AcDbEntity
  8
0
100
AcDbLine
 10
20.02072944343821
 20
3.429999999999999
 30
0.0
 11
20.02072944343821
 21
3.390999999999999
 31
0.0
  0
LINE
  5
1D53
330
1E
100
AcDbEntity
  8
0
100
AcDbLine
 10
20.09222944343821
 20
3.429999999999999
 30
0.0
 11
20.09222944343821
 21
3.390999999999999
 31
0.0
  0
LINE
  5
1D5D
330
1E
100
AcDbEntity
  8
0
100
AcDbLine
 10
20.00596167908315
 20
3.456999999999999
 30
0.0
 11
20.00596167908315
 21
3.429999999999999
 31
0.0
  0
LINE
  5
1D9A
330
1E
100
AcDbEntity
  8
0
100
AcDbLine
 10
21.72237263131961
 20
3.373999999999997
 30
0.0
 11
21.25447944343821
 21
3.373999999999998
 31
0.0
  0
LINE
  5
1D9B
330
1E
100
AcDbEntity
  8
0
100
AcDbLine
 10
21.72237263131961
 20
3.125999999999999
 30
0.0
 11
21.25547944343821
 21
3.126
 31
0.0
  0
LINE
  5
1D9C
330
1E
100
AcDbEntity
  8
0
100
AcDbLine
 10
21.72237263131961
 20
3.456999999999999
 30
0.0
 11
21.72237263131961
 21
3.125999999999999
 31
0.0
  0
CIRCLE
  5
1D9D
330
1E
100
AcDbEntity
  8
0
100
AcDbCircle
 10
21.6084794434382
 20
3.254999999999998
 30
0.0
 40
0.0389999999999999
  0
LINE
  5
1D9E
330
1E
100
AcDbEntity
  8
0
100
AcDbLine
 10
21.5994794434382
 20
3.292999999999998
 30
0.0
 11
21.5994794434382
 21
3.216999999999998
 31
0.0
  0
LINE
  5
1D9F
330
1E
100
AcDbEntity
  8
0
100
AcDbLine
 10
21.6174794434382
 20
3.292999999999998
 30
0.0
 11
21.6174794434382
 21
3.216999999999998
 31
0.0
  0
LINE
  5
1DA0
330
1E
100
AcDbEntity
  8
0
100
AcDbLine
 10
21.4804794434382
 20
3.292999999999998
 30
0.0
 11
21.4804794434382
 21
3.216999999999998
 31
0.0
  0
LINE
  5
1DA1
330
1E
100
AcDbEntity
  8
0
100
AcDbLine
 10
21.4624794434382
 20
3.292999999999998
 30
0.0
 11
21.4624794434382
 21
3.216999999999998
 31
0.0
  0
CIRCLE
  5
1DA2
330
1E
100
AcDbEntity
  8
0
100
AcDbCircle
 10
21.4714794434382
 20
3.254999999999998
 30
0.0
 40
0.0389999999999999
  0
LINE
  5
1DA3
330
1E
100
AcDbEntity
  8
0
100
AcDbLine
 10
21.3254794434382
 20
3.292999999999998
 30
0.0
 11
21.3254794434382
 21
3.216999999999998
 31
0.0
  0
LINE
  5
1DA4
330
1E
100
AcDbEntity
  8
0
100
AcDbLine
 10
21.3434794434382
 20
3.292999999999998
 30
0.0
 11
21.3434794434382
 21
3.216999999999998
 31
0.0
  0
CIRCLE
  5
1DA5
330
1E
100
AcDbEntity
  8
0
100
AcDbCircle
 10
21.3344794434382
 20
3.254999999999998
 30
0.0
 40
0.0389999999999999
  0
LINE
  5
1DC4
330
1E
100
AcDbEntity
  8
0
100
AcDbLine
 10
21.20047944343821
 20
3.126
 30
0.0
 11
21.20047944343821
 21
3.457
 31
0.0
  0
LINE
  5
1E07
330
1E
100
AcDbEntity
  8
0
100
AcDbLine
 10
21.20047944343821
 20
3.125999999999999
 30
0.0
 11
20.48847944343821
 21
3.126
 31
0.0
  0
LINE
  5
1E08
330
1E
100
AcDbEntity
  8
0
100
AcDbLine
 10
21.20047944343821
 20
3.373999999999997
 30
0.0
 11
20.48847944343821
 21
3.373999999999998
 31
0.0
  0
LINE
  5
1E0A
330
1E
100
AcDbEntity
  8
0
100
AcDbLine
 10
20.48847944343821
 20
3.126
 30
0.0
 11
20.48847944343821
 21
3.457
 31
0.0
  0
CIRCLE
  5
1E12
330
1E
100
AcDbEntity
  8
0
100
AcDbCircle
 10
20.577
 20
3.254999999999998
 30
0.0
 40
0.0389999999999999
  0
CIRCLE
  5
1E20
330
1E
100
AcDbEntity
  8
0
100
AcDbCircle
 10
20.851
 20
3.254999999999998
 30
0.0
 40
0.0389999999999999
  0
CIRCLE
  5
1E21
330
1E
100
AcDbEntity
  8
0
100
AcDbCircle
 10
20.714
 20
3.254999999999998
 30
0.0
 40
0.0389999999999999
  0
LINE
  5
1E22
330
1E
100
AcDbEntity
  8
0
100
AcDbLine
 10
20.58599999999999
 20
3.292999999999998
 30
0.0
 11
20.58599999999999
 21
3.216999999999998
 31
0.0
  0
LINE
  5
1E23
330
1E
100
AcDbEntity
  8
0
100
AcDbLine
 10
20.705
 20
3.292999999999998
 30
0.0
 11
20.705
 21
3.216999999999998
 31
0.0
  0
LINE
  5
1E24
330
1E
100
AcDbEntity
  8
0
100
AcDbLine
 10
20.56799999999999
 20
3.292999999999998
 30
0.0
 11
20.56799999999999
 21
3.216999999999998
 31
0.0
  0
LINE
  5
1E25
330
1E
100
AcDbEntity
  8
0
100
AcDbLine
 10
20.842
 20
3.292999999999998
 30
0.0
 11
20.842
 21
3.216999999999998
 31
0.0
  0
LINE
  5
1E26
330
1E
100
AcDbEntity
  8
0
100
AcDbLine
 10
20.85999999999999
 20
3.292999999999998
 30
0.0
 11
20.85999999999999
 21
3.216999999999998
 31
0.0
  0
LINE
  5
1E27
330
1E
100
AcDbEntity
  8
0
100
AcDbLine
 10
20.72299999999999
 20
3.292999999999998
 30
0.0
 11
20.72299999999999
 21
3.216999999999998
 31
0.0
  0
CIRCLE
  5
1E28
330
1E
100
AcDbEntity
  8
0
100
AcDbCircle
 10
20.988
 20
3.254999999999998
 30
0.0
 40
0.0389999999999999
  0
LINE
  5
1E29
330
1E
100
AcDbEntity
  8
0
100
AcDbLine
 10
20.979
 20
3.292999999999998
 30
0.0
 11
20.979
 21
3.216999999999998
 31
0.0
  0
LINE
  5
1E2A
330
1E
100
AcDbEntity
  8
0
100
AcDbLine
 10
20.99699999999999
 20
3.292999999999998
 30
0.0
 11
20.99699999999999
 21
3.216999999999998
 31
0.0
  0
LINE
  5
1E2B
330
1E
100
AcDbEntity
  8
0
100
AcDbLine
 10
21.116
 20
3.292999999999998
 30
0.0
 11
21.116
 21
3.216999999999998
 31
0.0
  0
LINE
  5
1E2C
330
1E
100
AcDbEntity
  8
0
100
AcDbLine
 10
21.13399999999999
 20
3.292999999999998
 30
0.0
 11
21.13399999999999
 21
3.216999999999998
 31
0.0
  0
CIRCLE
  5
1E2D
330
1E
100
AcDbEntity
  8
0
100
AcDbCircle
 10
21.125
 20
3.254999999999998
 30
0.0
 40
0.0389999999999999
  0
LINE
  5
1E2E
330
1E
100
AcDbEntity
  8
0
100
AcDbLine
 10
21.25547944343821
 20
3.456999999999999
 30
0.0
 11
21.25547944343821
 21
3.125999999999999
 31
0.0
  0
LINE
  5
20E3
330
1E
100
AcDbEntity
  8
0
100
AcDbLine
 10
16.09547944343821
 20
6.360848100017356
 30
0.0
 11
22.21547944343821
 21
6.360848100017355
 31
0.0
  0
LINE
  5
20E4
330
1E
100
AcDbEntity
  8
0
100
AcDbLine
 10
22.21547944343821
 20
6.820848100017355
 30
0.0
 11
16.09547944343821
 21
6.820848100017356
 31
0.0
  0
LINE
  5
20EA
330
1E
100
AcDbEntity
  8
0
100
AcDbLine
 10
16.09547944343821
 20
6.360848100017356
 30
0.0
 11
16.09547944343821
 21
6.820848100017356
 31
0.0
  0
TEXT
  5
20F0
330
1E
100
AcDbEntity
  8
0
100
AcDbText
 10
17.38281277677154
 20
6.718848100017357
 30
0.0
 40
0.05
  1
TX
 72
     1
 11
17.42447944343821
 21
6.718848100017357
 31
0.0
100
AcDbText
  0
TEXT
  5
20F1
330
1E
100
AcDbEntity
  8
0
100
AcDbText
 10
17.65781277677153
 20
6.718848100017357
 30
0.0
 40
0.05
  1
CTS
 72
     1
 11
17.7244794434382
 21
6.718848100017357
 31
0.0
100
AcDbText
  0
TEXT
  5
20F2
330
1E
100
AcDbEntity
  8
0
100
AcDbText
 10
17.08281277677154
 20
6.718848100017357
 30
0.0
 40
0.05
  1
CD
 72
     1
 11
17.1244794434382
 21
6.718848100017357
 31
0.0
100
AcDbText
  0
CIRCLE
  5
20F9
330
1E
100
AcDbEntity
  8
0
100
AcDbCircle
 10
17.12447944343821
 20
6.616848100017357
 30
0.0
 40
0.0350000000000002
  0
CIRCLE
  5
20FA
330
1E
100
AcDbEntity
  8
0
100
AcDbCircle
 10
17.72447944343821
 20
6.616848100017357
 30
0.0
 40
0.0350000000000002
  0
CIRCLE
  5
20FB
330
1E
100
AcDbEntity
  8
0
100
AcDbCircle
 10
17.42447944343821
 20
6.616848100017357
 30
0.0
 40
0.0350000000000002
  0
LINE
  5
2105
330
1E
100
AcDbEntity
  8
0
100
AcDbLine
 10
22.21547944343821
 20
6.360848100017355
 30
0.0
 11
22.21547944343821
 21
6.820848100017355
 31
0.0
  0
TEXT
  5
210A
330
1E
100
AcDbEntity
  8
0
100
AcDbText
 10
21.44947944343821
 20
6.718848100017356
 30
0.0
 40
0.05
  1
POWER
 72
     1
 11
21.57447944343821
 21
6.718848100017356
 31
0.0
100
AcDbText
  0
TEXT
  5
2112
330
1E
100
AcDbEntity
  8
0
100
AcDbText
 10
19.56533333333333
 20
3.524848100017355
 30
0.0
 40
0.05
  1
RS-485
 72
     4
 11
19.70699999999999
 21
3.549848100017355
 31
0.0
100
AcDbText
  0
TEXT
  5
211D
330
1E
100
AcDbEntity
  8
0
100
AcDbText
 10
19.56533333333333
 20
3.624848100017354
 30
0.0
 40
0.05
  1
RS-422
 72
     4
 11
19.70699999999999
 21
3.649848100017354
 31
0.0
100
AcDbText
  0
TEXT
  5
211E
330
1E
100
AcDbEntity
  8
0
100
AcDbText
 10
19.56533333333333
 20
3.724848100017355
 30
0.0
 40
0.05
  1
RS-232
 72
     4
 11
19.70699999999999
 21
3.749848100017355
 31
0.0
100
AcDbText
  0
LINE
  5
211F
330
1E
100
AcDbEntity
  8
0
100
AcDbLine
 10
22.206
 20
3.934848100017354
 30
0.0
 11
16.086
 21
3.934848100017354
 31
0.0
  0
LINE
  5
2120
330
1E
100
AcDbEntity
  8
0
100
AcDbLine
 10
16.086
 20
3.474848100017355
 30
0.0
 11
22.206
 21
3.474848100017355
 31
0.0
  0
LINE
  5
2127
330
1E
100
AcDbEntity
  8
0
100
AcDbLine
 10
16.086
 20
3.934848100017354
 30
0.0
 11
16.086
 21
3.474848100017355
 31
0.0
  0
LWPOLYLINE
  5
212A
330
1E
100
AcDbEntity
  8
0
100
AcDbPolyline
 90
        3
 70
     0
 43
0.02
 10
19.4794794434382
 20
3.739958650722294
 10
19.4794794434382
 20
3.855958650722294
 10
19.557
 20
3.855958650722294
  0
TEXT
  5
212B
330
1E
100
AcDbEntity
  8
0
100
AcDbText
 10
18.81799999999999
 20
3.574848100017355
 30
0.0
 40
0.05
  1
= SWITCH OFF
 72
     4
 11
19.10966666666666
 21
3.599848100017355
 31
0.0
100
AcDbText
  0
LWPOLYLINE
  5
212C
330
1E
100
AcDbEntity
  8
0
100
AcDbPolyline
 90
        2
 70
     1
 43
0.005
 10
18.70849999999999
 20
3.600848100017355
 42
1.0
 10
18.7535
 20
3.600848100017355
 42
1.0
  0
LWPOLYLINE
  5
212D
330
1E
100
AcDbEntity
  8
0
100
AcDbPolyline
 90
        2
 70
     1
 43
0.025
 10
18.7195
 20
3.749848100017355
 42
1.0
 10
18.74449999999999
 20
3.749848100017355
 42
1.0
  0
TEXT
  5
212E
330
1E
100
AcDbEntity
  8
0
100
AcDbText
 10
18.81833333333333
 20
3.726848100017355
 30
0.0
 40
0.05
  1
= SWITCH ON
 72
     4
 11
19.08499999999999
 21
3.751848100017355
 31
0.0
100
AcDbText
  0
LINE
  5
2131
330
1E
100
AcDbEntity
  8
0
100
AcDbLine
 10
22.206
 20
3.934848100017354
 30
0.0
 11
22.206
 21
3.474848100017355
 31
0.0
  0
LWPOLYLINE
  5
2132
330
1E
100
AcDbEntity
  8
0
100
AcDbPolyline
 90
        3
 70
     0
 43
0.02
 10
21.20372080895492
 20
3.740958650722293
 10
21.20372080895492
 20
3.856958650722293
 10
21.12472080895491
 20
3.856958650722293
  0
LWPOLYLINE
  5
2133
330
1E
100
AcDbEntity
  8
0
100
AcDbPolyline
 90
        3
 70
     0
 43
0.02
 10
20.49972080895491
 20
3.739958650722294
 10
20.49972080895491
 20
3.855958650722294
 10
20.57672080895491
 20
3.855958650722294
  0
LWPOLYLINE
  5
2134
330
1E
100
AcDbEntity
  8
0
100
AcDbPolyline
 90
        3
 70
     0
 43
0.02
 10
21.25722080895492
 20
3.739958650722294
 10
21.25722080895492
 20
3.855958650722294
 10
21.32177968643355
 20
3.855958650722294
  0
LWPOLYLINE
  5
2135
330
1E
100
AcDbEntity
  8
0
100
AcDbPolyline
 90
        3
 70
     0
 43
0.02
 10
21.68622080895492
 20
3.740958650722293
 10
21.68622080895492
 20
3.856958650722293
 10
21.60377968643356
 20
3.856958650722293
  0
LINE
  5
2136
330
1E
100
AcDbEntity
  8
0
100
AcDbLine
 10
19.999
 20
3.749848100017355
 30
0.0
 11
19.89099999999999
 21
3.749848100017355
 31
0.0
  0
LINE
  5
2137
330
1E
100
AcDbEntity
  8
0
100
AcDbLine
 10
19.999
 20
3.649848100017354
 30
0.0
 11
19.89099999999999
 21
3.649848100017354
 31
0.0
  0
LINE
  5
2138
330
1E
100
AcDbEntity
  8
0
100
AcDbLine
 10
19.999
 20
3.549848100017355
 30
0.0
 11
19.89099999999999
 21
3.549848100017355
 31
0.0
  0
LWPOLYLINE
  5
2139
330
1E
100
AcDbEntity
  8
0
100
AcDbPolyline
 90
        2
 70
     1
 43
0.025
 10
20.2485
 20
3.549848100017355
 42
1.0
 10
20.2735
 20
3.549848100017355
 42
1.0
  0
LWPOLYLINE
  5
213A
330
1E
100
AcDbEntity
  8
0
100
AcDbPolyline
 90
        2
 70
     1
 43
0.025
 10
20.3485
 20
3.549848100017355
 42
1.0
 10
20.37349999999999
 20
3.549848100017355
 42
1.0
  0
LWPOLYLINE
  5
213B
330
1E
100
AcDbEntity
  8
0
100
AcDbPolyline
 90
        2
 70
     1
 43
0.025
 10
20.0485
 20
3.549848100017355
 42
1.0
 10
20.0735
 20
3.549848100017355
 42
1.0
  0
LWPOLYLINE
  5
213C
330
1E
100
AcDbEntity
  8
0
100
AcDbPolyline
 90
        2
 70
     1
 43
0.025
 10
20.1485
 20
3.549848100017355
 42
1.0
 10
20.17349999999999
 20
3.549848100017355
 42
1.0
  0
LWPOLYLINE
  5
213D
330
1E
100
AcDbEntity
  8
0
100
AcDbPolyline
 90
        2
 70
     1
 43
0.025
 10
20.1485
 20
3.649848100017354
 42
1.0
 10
20.17349999999999
 20
3.649848100017354
 42
1.0
  0
LWPOLYLINE
  5
213E
330
1E
100
AcDbEntity
  8
0
100
AcDbPolyline
 90
        2
 70
     1
 43
0.005
 10
20.23849999999999
 20
3.649848100017354
 42
1.0
 10
20.2835
 20
3.649848100017354
 42
1.0
  0
LWPOLYLINE
  5
213F
330
1E
100
AcDbEntity
  8
0
100
AcDbPolyline
 90
        2
 70
     1
 43
0.005
 10
20.33849999999999
 20
3.649848100017354
 42
1.0
 10
20.38349999999999
 20
3.649848100017354
 42
1.0
  0
LWPOLYLINE
  5
2140
330
1E
100
AcDbEntity
  8
0
100
AcDbPolyline
 90
        2
 70
     1
 43
0.005
 10
20.03849999999999
 20
3.749848100017355
 42
1.0
 10
20.08349999999999
 20
3.749848100017355
 42
1.0
  0
LWPOLYLINE
  5
2141
330
1E
100
AcDbEntity
  8
0
100
AcDbPolyline
 90
        2
 70
     1
 43
0.005
 10
20.13849999999999
 20
3.749848100017355
 42
1.0
 10
20.18349999999999
 20
3.749848100017355
 42
1.0
  0
LWPOLYLINE
  5
2142
330
1E
100
AcDbEntity
  8
0
100
AcDbPolyline
 90
        2
 70
     1
 43
0.005
 10
20.23849999999999
 20
3.749848100017355
 42
1.0
 10
20.2835
 20
3.749848100017355
 42
1.0
  0
LWPOLYLINE
  5
2143
330
1E
100
AcDbEntity
  8
0
100
AcDbPolyline
 90
        2
 70
     1
 43
0.005
 10
20.33849999999999
 20
3.749848100017355
 42
1.0
 10
20.38349999999999
 20
3.749848100017355
 42
1.0
  0
LWPOLYLINE
  5
2144
330
1E
100
AcDbEntity
  8
0
100
AcDbPolyline
 90
        2
 70
     1
 43
0.025
 10
20.0485
 20
3.649848100017354
 42
1.0
 10
20.0735
 20
3.649848100017354
 42
1.0
  0
TEXT
  5
2145
330
1E
100
AcDbEntity
  8
0
100
AcDbText
 10
21.10705414228825
 20
3.72242405000867
 30
0.0
 40
0.05
  1
C
 72
     1
 11
21.12372080895491
 21
3.72242405000867
 31
0.0
100
AcDbText
  0
TEXT
  5
2146
330
1E
100
AcDbEntity
  8
0
100
AcDbText
 10
20.69733333333333
 20
3.72242405000867
 30
0.0
 40
0.05
  1
-
 72
     1
 11
20.714
 21
3.72242405000867
 31
0.0
100
AcDbText
  0
TEXT
  5
2147
330
1E
100
AcDbEntity
  8
0
100
AcDbText
 10
20.56033333333334
 20
3.72242405000867
 30
0.0
 40
0.05
  1
+
 72
     1
 11
20.577
 21
3.72242405000867
 31
0.0
100
AcDbText
  0
TEXT
  5
2148
330
1E
100
AcDbEntity
  8
0
100
AcDbText
 10
20.83433333333333
 20
3.72242405000867
 30
0.0
 40
0.05
  1
+
 72
     1
 11
20.851
 21
3.72242405000867
 31
0.0
100
AcDbText
  0
LINE
  5
2149
330
1E
100
AcDbEntity
  8
0
100
AcDbLine
 10
21.125
 20
3.599424050008669
 30
0.0
 11
21.125
 21
3.476424050008669
 31
0.0
  0
LINE
  5
214A
330
1E
100
AcDbEntity
  8
0
100
AcDbLine
 10
20.988
 20
3.599424050008669
 30
0.0
 11
20.988
 21
3.476424050008669
 31
0.0
  0
LINE
  5
214B
330
1E
100
AcDbEntity
  8
0
100
AcDbLine
 10
20.851
 20
3.599424050008669
 30
0.0
 11
20.851
 21
3.476424050008669
 31
0.0
  0
LINE
  5
214C
330
1E
100
AcDbEntity
  8
0
100
AcDbLine
 10
20.714
 20
3.599424050008669
 30
0.0
 11
20.714
 21
3.476424050008669
 31
0.0
  0
LINE
  5
214D
330
1E
100
AcDbEntity
  8
0
100
AcDbLine
 10
20.577
 20
3.599424050008669
 30
0.0
 11
20.577
 21
3.476424050008669
 31
0.0
  0
TEXT
  5
214E
330
1E
100
AcDbEntity
  8
0
100
AcDbText
 10
20.97133333333333
 20
3.72242405000867
 30
0.0
 40
0.05
  1
-
 72
     1
 11
20.988
 21
3.72242405000867
 31
0.0
100
AcDbText
  0
LINE
  5
214F
330
1E
100
AcDbEntity
  8
0
100
AcDbLine
 10
21.608
 20
3.599424050008669
 30
0.0
 11
21.608
 21
3.476424050008669
 31
0.0
  0
LINE
  5
2150
330
1E
100
AcDbEntity
  8
0
100
AcDbLine
 10
21.471
 20
3.599424050008669
 30
0.0
 11
21.471
 21
3.476424050008669
 31
0.0
  0
LINE
  5
2151
330
1E
100
AcDbEntity
  8
0
100
AcDbLine
 10
21.33399999999999
 20
3.599424050008669
 30
0.0
 11
21.33399999999999
 21
3.47742405000867
 31
0.0
  0
TEXT
  5
2152
330
1E
100
AcDbEntity
  8
0
100
AcDbText
 10
21.44177968643356
 20
3.70942405000867
 30
0.0
 40
0.075
  1
-
 72
     1
 11
21.46677968643355
 21
3.70942405000867
 31
0.0
100
AcDbText
  0
TEXT
  5
2153
330
1E
100
AcDbEntity
  8
0
100
AcDbText
 10
21.30377968643356
 20
3.70942405000867
 30
0.0
 40
0.075
  1
+
 72
     1
 11
21.32877968643355
 21
3.70942405000867
 31
0.0
100
AcDbText
  0
LINE
  5
2154
330
1E
100
AcDbEntity
  8
0
100
AcDbLine
 10
21.61777968643356
 20
3.76642405000867
 30
0.0
 11
21.61777968643356
 21
3.734424050008669
 31
0.0
  0
LINE
  5
2155
330
1E
100
AcDbEntity
  8
0
100
AcDbLine
 10
21.57777968643356
 20
3.734424050008669
 30
0.0
 11
21.65577968643356
 21
3.734424050008669
 31
0.0
  0
LINE
  5
2156
330
1E
100
AcDbEntity
  8
0
100
AcDbLine
 10
21.57777968643356
 20
3.734424050008669
 30
0.0
 11
21.56177968643356
 21
3.689424050008666
 31
0.0
  0
LINE
  5
2157
330
1E
100
AcDbEntity
  8
0
100
AcDbLine
 10
21.61777968643356
 20
3.734424050008669
 30
0.0
 11
21.60177968643356
 21
3.689424050008666
 31
0.0
  0
LINE
  5
2158
330
1E
100
AcDbEntity
  8
0
100
AcDbLine
 10
21.65577968643356
 20
3.734424050008669
 30
0.0
 11
21.63977968643356
 21
3.689424050008666
 31
0.0
  0
TEXT
  5
2159
330
1E
100
AcDbEntity
  8
0
100
AcDbText
 10
19.77133333333333
 20
3.830958650722293
 30
0.0
 40
0.05
  1
COMM MODE
 72
     1
 11
19.988
 21
3.830958650722293
 31
0.0
100
AcDbText
  0
TEXT
  5
215A
330
1E
100
AcDbEntity
  8
0
100
AcDbText
 10
20.60405414228825
 20
3.830958650722293
 30
0.0
 40
0.05
  1
RX
 72
     1
 11
20.64572080895492
 21
3.830958650722293
 31
0.0
100
AcDbText
  0
LWPOLYLINE
  5
215B
330
1E
100
AcDbEntity
  8
0
100
AcDbPolyline
 90
        3
 70
     0
 43
0.02
 10
20.49272080895491
 20
3.855958650722294
 10
20.49272080895491
 20
3.855958650722294
 10
20.42972080895491
 20
3.855958650722294
  0
TEXT
  5
215C
330
1E
100
AcDbEntity
  8
0
100
AcDbText
 10
20.87805414228824
 20
3.830958650722293
 30
0.0
 40
0.05
  1
TX
 72
     1
 11
20.91972080895491
 21
3.830958650722293
 31
0.0
100
AcDbText
  0
TEXT
  5
2161
330
1E
100
AcDbEntity
  8
0
100
AcDbText
 10
21.33877968643355
 20
3.830424050008669
 30
0.0
 40
0.05
  1
POWER
 72
     1
 11
21.46377968643355
 21
3.830424050008669
 31
0.0
100
AcDbText
  0
CIRCLE
  5
23EA
330
1E
100
AcDbEntity
  8
0
100
AcDbCircle
 10
21.57447944343821
 20
6.616848100017356
 30
0.0
 40
0.0350000000000002
  0
LINE
  5
2416
330
1E
100
AcDbEntity
  8
LABEL
100
AcDbLine
 10
22.14099999999999
 20
5.964
 30
0.0
 11
16.15099999999999
 21
5.964
 31
0.0
  0
LINE
  5
2417
330
1E
100
AcDbEntity
  8
LABEL
100
AcDbLine
 10
16.15099999999999
 20
4.333999999999999
 30
0.0
 11
22.14099999999999
 21
4.333999999999999
 31
0.0
  0
LINE
  5
2418
330
1E
100
AcDbEntity
  8
LABEL
100
AcDbLine
 10
16.15099999999999
 20
5.964
 30
0.0
 11
16.15099999999999
 21
4.333999999999999
 31
0.0
  0
TEXT
  5
2419
330
1E
100
AcDbEntity
  8
LABEL
100
AcDbText
 10
17.89033333333332
 20
4.456500000000001
 30
0.0
 40
0.1
  1
DIAG
 72
     1
 11
18.05699999999999
 21
4.456500000000001
 31
0.0
100
AcDbText
  0
TEXT
  5
241C
330
1E
100
AcDbEntity
  8
LABEL
100
AcDbText
 10
17.13966666666665
 20
4.456500000000001
 30
0.0
 40
0.1
  1
COMM
 72
     1
 11
17.32299999999999
 21
4.456500000000001
 31
0.0
100
AcDbText
  0
LINE
  5
241D
330
1E
100
AcDbEntity
  8
LABEL
100
AcDbLine
 10
22.14099999999999
 20
4.333999999999999
 30
0.0
 11
22.14099999999999
 21
5.964
 31
0.0
  0
TEXT
  5
241E
330
1E
100
AcDbEntity
  8
LABEL
100
AcDbText
 10
20.42899999999999
 20
4.786
 30
0.0
 40
0.1
  1
SCADAFLEX SSR
 72
     1
 11
21.06233333333332
 21
4.786
 31
0.0
100
AcDbText
  0
ENDSEC
  0
SECTION
  2
OBJECTS
  0
DICTIONARY
  5
C
330
0
100
AcDbDictionary
281
     1
  3
ACAD_GROUP
350
D
  3
ACAD_LAYOUT
350
19
  3
ACAD_MLINESTYLE
350
16
  3
ACAD_PLOTSETTINGS
350
18
  3
ACAD_PLOTSTYLENAME
350
E
  0
DICTIONARY
  5
D
102
{ACAD_REACTORS
330
C
102
}
330
C
100
AcDbDictionary
281
     1
  0
DICTIONARY
  5
19
102
{ACAD_REACTORS
330
C
102
}
330
C
100
AcDbDictionary
281
     1
  3
Layout1
350
1D
  3
Model
350
21
  0
DICTIONARY
  5
16
102
{ACAD_REACTORS
330
C
102
}
330
C
100
AcDbDictionary
281
     1
  3
Standard
350
17
  0
DICTIONARY
  5
18
102
{ACAD_REACTORS
330
C
102
}
330
C
100
AcDbDictionary
281
     1
  0
ACDBDICTIONARYWDFLT
  5
E
102
{ACAD_REACTORS
330
C
102
}
330
C
100
AcDbDictionary
281
     1
  3
Normal
350
F
100
AcDbDictionaryWithDefault
340
F
  0
LAYOUT
  5
1D
102
{ACAD_REACTORS
330
19
102
}
330
19
100
AcDbPlotSettings
  1

  2
\\ENGPRINTSERV\QMS 2425 Eng Printer
  4

  6

 40
0.0
 41
0.0
 42
0.0
 43
0.0
 44
0.0
 45
0.0
 46
0.0
 47
0.0
 48
0.0
 49
0.0
140
0.0
141
0.0
142
1.0
143
1.0
 70
   688
 72
     0
 73
     0
 74
     5
  7

 75
    16
147
1.0
148
0.0
149
0.0
100
AcDbLayout
  1
Layout1
 70
     0
 71
     1
 10
0.0
 20
0.0
 11
12.0
 21
9.0
 12
0.0
 22
0.0
 32
0.0
 14
1.000000000000000E+20
 24
1.000000000000000E+20
 34
1.000000000000000E+20
 15
-1.000000000000000E+20
 25
-1.000000000000000E+20
 35
-1.000000000000000E+20
146
0.0
 13
0.0
 23
0.0
 33
0.0
 16
1.0
 26
0.0
 36
0.0
 17
0.0
 27
1.0
 37
0.0
 76
     0
330
1A
  0
LAYOUT
  5
21
102
{ACAD_REACTORS
330
19
102
}
330
19
100
AcDbPlotSettings
  1

  2
none_device
  4
Letter_(8.50_x_11.00_Inches)
  6

 40
6.349999904632568
 41
6.349999904632568
 42
6.350006103515625
 43
6.350006103515625
 44
215.8999938964843
 45
279.3999938964843
 46
0.0
 47
0.0
 48
0.0
 49
0.0
140
0.0
141
0.0
142
1.0
143
1.0
 70
 11952
 72
     0
 73
     1
 74
     0
  7

 75
     0
147
1.0
148
-466.6791472371977
149
137.0183566193923
100
AcDbLayout
  1
Model
 70
     1
 71
     0
 10
0.0
 20
0.0
 11
12.0
 21
9.0
 12
0.0
 22
0.0
 32
0.0
 14
0.0
 24
0.0
 34
0.0
 15
0.0
 25
0.0
 35
0.0
146
0.0
 13
0.0
 23
0.0
 33
0.0
 16
1.0
 26
0.0
 36
0.0
 17
0.0
 27
1.0
 37
0.0
 76
     0
330
1E
  0
MLINESTYLE
  5
17
102
{ACAD_REACTORS
330
16
102
}
330
16
100
AcDbMlineStyle
  2
STANDARD
 70
     0
  3

 62
   256
 51
90.0
 52
90.0
 71
     2
 49
0.5
 62
   256
  6
BYLAYER
 49
-0.5
 62
   256
  6
BYLAYER
  0
ACDBPLACEHOLDER
  5
F
102
{ACAD_REACTORS
330
E
102
}
330
E
  0
ENDSEC
  0
EOF
