  0
SECTION
  2
HEADER
  9
$ACADVER
  1
AC1015
  9
$ACADMAINTVER
 70
    10
  9
$DWGCODEPAGE
  3
ANSI_1252
  9
$INSBASE
 10
0.0
 20
0.0
 30
0.0
  9
$EXTMIN
 10
-2.309000000000005
 20
2.410999999999992
 30
0.0
  9
$EXTMAX
 10
-0.9280000000000054
 20
6.451999999999992
 30
0.0
  9
$LIMMIN
 10
0.0
 20
0.0
  9
$LIMMAX
 10
12.0
 20
9.0
  9
$ORTHOMODE
 70
     1
  9
$REGENMODE
 70
     1
  9
$FILLMODE
 70
     1
  9
$QTEXTMODE
 70
     0
  9
$MIRRTEXT
 70
     1
  9
$LTSCALE
 40
1.0
  9
$ATTMODE
 70
     1
  9
$TEXTSIZE
 40
0.2
  9
$TRACEWID
 40
0.05
  9
$TEXTSTYLE
  7
STANDARD
  9
$CLAYER
  8
DIM3
  9
$CELTYPE
  6
ByLayer
  9
$CECOLOR
 62
   256
  9
$CELTSCALE
 40
1.0
  9
$DISPSILH
 70
     0
  9
$DIMSCALE
 40
1.0
  9
$DIMASZ
 40
0.18
  9
$DIMEXO
 40
0.0625
  9
$DIMDLI
 40
0.38
  9
$DIMRND
 40
0.0
  9
$DIMDLE
 40
0.0
  9
$DIMEXE
 40
0.18
  9
$DIMTP
 40
0.0
  9
$DIMTM
 40
0.0
  9
$DIMTXT
 40
0.18
  9
$DIMCEN
 40
0.09
  9
$DIMTSZ
 40
0.0
  9
$DIMTOL
 70
     0
  9
$DIMLIM
 70
     0
  9
$DIMTIH
 70
     1
  9
$DIMTOH
 70
     1
  9
$DIMSE1
 70
     0
  9
$DIMSE2
 70
     0
  9
$DIMTAD
 70
     0
  9
$DIMZIN
 70
     0
  9
$DIMBLK
  1

  9
$DIMASO
 70
     1
  9
$DIMSHO
 70
     1
  9
$DIMPOST
  1

  9
$DIMAPOST
  1

  9
$DIMALT
 70
     0
  9
$DIMALTD
 70
     2
  9
$DIMALTF
 40
25.4
  9
$DIMLFAC
 40
1.0
  9
$DIMTOFL
 70
     0
  9
$DIMTVP
 40
0.0
  9
$DIMTIX
 70
     0
  9
$DIMSOXD
 70
     0
  9
$DIMSAH
 70
     0
  9
$DIMBLK1
  1

  9
$DIMBLK2
  1

  9
$DIMSTYLE
  2
Standard
  9
$DIMCLRD
 70
     0
  9
$DIMCLRE
 70
     0
  9
$DIMCLRT
 70
     0
  9
$DIMTFAC
 40
1.0
  9
$DIMGAP
 40
0.09
  9
$DIMJUST
 70
     0
  9
$DIMSD1
 70
     0
  9
$DIMSD2
 70
     0
  9
$DIMTOLJ
 70
     1
  9
$DIMTZIN
 70
     0
  9
$DIMALTZ
 70
     0
  9
$DIMALTTZ
 70
     0
  9
$DIMUPT
 70
     0
  9
$DIMDEC
 70
     4
  9
$DIMTDEC
 70
     4
  9
$DIMALTU
 70
     2
  9
$DIMALTTD
 70
     2
  9
$DIMTXSTY
  7
STANDARD
  9
$DIMAUNIT
 70
     0
  9
$DIMADEC
 70
     0
  9
$DIMALTRND
 40
0.0
  9
$DIMAZIN
 70
     0
  9
$DIMDSEP
 70
    46
  9
$DIMATFIT
 70
     3
  9
$DIMFRAC
 70
     0
  9
$DIMLDRBLK
  1

  9
$DIMLUNIT
 70
     2
  9
$DIMLWD
 70
    -2
  9
$DIMLWE
 70
    -2
  9
$DIMTMOVE
 70
     2
  9
$LUNITS
 70
     2
  9
$LUPREC
 70
     4
  9
$SKETCHINC
 40
0.1
  9
$FILLETRAD
 40
0.5
  9
$AUNITS
 70
     0
  9
$AUPREC
 70
     0
  9
$MENU
  1
acad
  9
$ELEVATION
 40
0.0
  9
$PELEVATION
 40
0.0
  9
$THICKNESS
 40
0.0
  9
$LIMCHECK
 70
     0
  9
$CHAMFERA
 40
0.5
  9
$CHAMFERB
 40
0.5
  9
$CHAMFERC
 40
0.0
  9
$CHAMFERD
 40
0.0
  9
$SKPOLY
 70
     0
  9
$TDCREATE
 40
2453186.354408333
  9
$TDUCREATE
 40
2453186.687741666
  9
$TDUPDATE
 40
2453692.457986041
  9
$TDUUPDATE
 40
2453692.791319375
  9
$TDINDWG
 40
0.2123257292
  9
$TDUSRTIMER
 40
0.2123257292
  9
$USRTIMER
 70
     1
  9
$ANGBASE
 50
0.0
  9
$ANGDIR
 70
     0
  9
$PDMODE
 70
     0
  9
$PDSIZE
 40
0.0
  9
$PLINEWID
 40
0.0
  9
$SPLFRAME
 70
     0
  9
$SPLINETYPE
 70
     6
  9
$SPLINESEGS
 70
     8
  9
$HANDSEED
  5
C4387168934A311C
  9
$SURFTAB1
 70
     6
  9
$SURFTAB2
 70
     6
  9
$SURFTYPE
 70
     6
  9
$SURFU
 70
     6
  9
$SURFV
 70
     6
  9
$UCSBASE
  2

  9
$UCSNAME
  2

  9
$UCSORG
 10
-0.9722500000000064
 20
5.638999999999993
 30
0.0
  9
$UCSXDIR
 10
1.0
 20
0.0
 30
0.0
  9
$UCSYDIR
 10
0.0
 20
1.0
 30
0.0
  9
$UCSORTHOREF
  2

  9
$UCSORTHOVIEW
 70
     0
  9
$UCSORGTOP
 10
0.0
 20
0.0
 30
0.0
  9
$UCSORGBOTTOM
 10
0.0
 20
0.0
 30
0.0
  9
$UCSORGLEFT
 10
0.0
 20
0.0
 30
0.0
  9
$UCSORGRIGHT
 10
0.0
 20
0.0
 30
0.0
  9
$UCSORGFRONT
 10
0.0
 20
0.0
 30
0.0
  9
$UCSORGBACK
 10
0.0
 20
0.0
 30
0.0
  9
$PUCSBASE
  2

  9
$PUCSNAME
  2

  9
$PUCSORG
 10
0.0
 20
0.0
 30
0.0
  9
$PUCSXDIR
 10
1.0
 20
0.0
 30
0.0
  9
$PUCSYDIR
 10
0.0
 20
1.0
 30
0.0
  9
$PUCSORTHOREF
  2

  9
$PUCSORTHOVIEW
 70
     0
  9
$PUCSORGTOP
 10
0.0
 20
0.0
 30
0.0
  9
$PUCSORGBOTTOM
 10
0.0
 20
0.0
 30
0.0
  9
$PUCSORGLEFT
 10
0.0
 20
0.0
 30
0.0
  9
$PUCSORGRIGHT
 10
0.0
 20
0.0
 30
0.0
  9
$PUCSORGFRONT
 10
0.0
 20
0.0
 30
0.0
  9
$PUCSORGBACK
 10
0.0
 20
0.0
 30
0.0
  9
$USERI1
 70
     0
  9
$USERI2
 70
     0
  9
$USERI3
 70
     0
  9
$USERI4
 70
     0
  9
$USERI5
 70
     0
  9
$USERR1
 40
0.0
  9
$USERR2
 40
0.0
  9
$USERR3
 40
0.0
  9
$USERR4
 40
0.0
  9
$USERR5
 40
0.0
  9
$WORLDVIEW
 70
     1
  9
$SHADEDGE
 70
     3
  9
$SHADEDIF
 70
    70
  9
$TILEMODE
 70
     1
  9
$MAXACTVP
 70
    16
  9
$PINSBASE
 10
0.0
 20
0.0
 30
0.0
  9
$PLIMCHECK
 70
     0
  9
$PEXTMIN
 10
1.000000000000000E+20
 20
1.000000000000000E+20
 30
1.000000000000000E+20
  9
$PEXTMAX
 10
-1.000000000000000E+20
 20
-1.000000000000000E+20
 30
-1.000000000000000E+20
  9
$PLIMMIN
 10
0.0
 20
0.0
  9
$PLIMMAX
 10
12.0
 20
9.0
  9
$UNITMODE
 70
     0
  9
$VISRETAIN
 70
     0
  9
$PLINEGEN
 70
     0
  9
$PSLTSCALE
 70
     0
  9
$TREEDEPTH
 70
  3020
  9
$CMLSTYLE
  2
Standard
  9
$CMLJUST
 70
     0
  9
$CMLSCALE
 40
1.0
  9
$PROXYGRAPHICS
 70
     1
  9
$MEASUREMENT
 70
     0
  9
$CELWEIGHT
370
    -1
  9
$ENDCAPS
280
     0
  9
$JOINSTYLE
280
     0
  9
$LWDISPLAY
290
     0
  9
$INSUNITS
 70
     0
  9
$HYPERLINKBASE
  1

  9
$STYLESHEET
  1

  9
$XEDIT
290
     1
  9
$CEPSNTYPE
380
     0
  9
$PSTYLEMODE
290
     1
  9
$FINGERPRINTGUID
  2
{F3977501-0CF4-4BEA-93EE-9ED26651D543}
  9
$VERSIONGUID
  2
{14C1EE9D-A48A-4F26-BBD1-B2CFBF69C3E1}
  9
$EXTNAMES
290
     1
  9
$PSVPSCALE
 40
0.0
  9
$OLESTARTUP
290
     0
  0
ENDSEC
  0
SECTION
  2
CLASSES
  0
CLASS
  1
ACDBDICTIONARYWDFLT
  2
AcDbDictionaryWithDefault
  3
AutoCAD 2000
 90
        0
280
     0
281
     0
  0
CLASS
  1
ACDBPLACEHOLDER
  2
AcDbPlaceHolder
  3
AutoCAD 2000
 90
        0
280
     0
281
     0
  0
CLASS
  1
LAYOUT
  2
AcDbLayout
  3
AutoCAD 2000
 90
        0
280
     0
281
     0
  0
ENDSEC
  0
SECTION
  2
TABLES
  0
TABLE
  2
VPORT
  5
870E2D126945F620
330
0
100
AcDbSymbolTable
 70
     2
  0
VPORT
  5
C4387168934A311B
330
870E2D126945F620
100
AcDbSymbolTableRecord
100
AcDbViewportTableRecord
  2
*Active
 70
     0
 10
0.0
 20
0.0
 11
1.0
 21
1.0
 12
0.1055555496130527
 22
2.56745300681678
 13
0.0
 23
0.0
 14
0.001
 24
0.001
 15
0.0
 25
0.0
 16
0.0
 26
0.0
 36
1.0
 17
0.0
 27
0.0
 37
0.0
 40
9.768556945057802
 41
1.767754318618042
 42
50.0
 43
0.0
 44
0.0
 50
0.0
 51
0.0
 71
     0
 72
   100
 73
     1
 74
     0
 75
     1
 76
     1
 77
     0
 78
     0
281
     0
 65
     1
110
-0.9722500000000064
120
5.638999999999993
130
0.0
111
1.0
121
0.0
131
0.0
112
0.0
122
1.0
132
0.0
 79
     0
146
0.0
  0
ENDTAB
  0
TABLE
  2
LTYPE
  5
870E2D126945F61D
330
0
100
AcDbSymbolTable
 70
     1
  0
LTYPE
  5
870E2D126945F62B
330
870E2D126945F61D
100
AcDbSymbolTableRecord
100
AcDbLinetypeTableRecord
  2
ByBlock
 70
     0
  3

 72
    65
 73
     0
 40
0.0
  0
LTYPE
  5
870E2D126945F62C
330
870E2D126945F61D
100
AcDbSymbolTableRecord
100
AcDbLinetypeTableRecord
  2
ByLayer
 70
     0
  3

 72
    65
 73
     0
 40
0.0
  0
LTYPE
  5
870E2D126945F62D
330
870E2D126945F61D
100
AcDbSymbolTableRecord
100
AcDbLinetypeTableRecord
  2
CONTINUOUS
 70
     0
  3
Solid line
 72
    65
 73
     0
 40
0.0
  0
ENDTAB
  0
TABLE
  2
LAYER
  5
870E2D126945F61A
330
0
100
AcDbSymbolTable
 70
     3
  0
LAYER
  5
870E2D126945F628
330
870E2D126945F61A
100
AcDbSymbolTableRecord
100
AcDbLayerTableRecord
  2
0
 70
     0
 62
     7
  6
CONTINUOUS
370
    -3
390
870E2D126945F627
  0
LAYER
  5
870E2D126945F694
330
870E2D126945F61A
100
AcDbSymbolTableRecord
100
AcDbLayerTableRecord
  2
DEFPOINTS
 70
     0
 62
     7
  6
CONTINUOUS
290
     0
370
    -3
390
870E2D126945F627
  0
LAYER
  5
870E2D126945F695
330
870E2D126945F61A
100
AcDbSymbolTableRecord
100
AcDbLayerTableRecord
  2
DIM3
 70
     0
 62
     7
  6
CONTINUOUS
370
    -3
390
870E2D126945F627
  0
ENDTAB
  0
TABLE
  2
STYLE
  5
870E2D126945F61B
330
0
100
AcDbSymbolTable
 70
     1
  0
STYLE
  5
870E2D126945F629
330
870E2D126945F61B
100
AcDbSymbolTableRecord
100
AcDbTextStyleTableRecord
  2
STANDARD
 70
     0
 40
0.0
 41
1.0
 50
0.0
 71
     0
 42
0.2
  3
txt
  4

  0
ENDTAB
  0
TABLE
  2
VIEW
  5
870E2D126945F61E
330
0
100
AcDbSymbolTable
 70
     0
  0
ENDTAB
  0
TABLE
  2
UCS
  5
870E2D126945F61F
330
0
100
AcDbSymbolTable
 70
     0
  0
ENDTAB
  0
TABLE
  2
APPID
  5
870E2D126945F621
330
0
100
AcDbSymbolTable
 70
     1
  0
APPID
  5
870E2D126945F62A
330
870E2D126945F621
100
AcDbSymbolTableRecord
100
AcDbRegAppTableRecord
  2
ACAD
 70
     0
  0
ENDTAB
  0
TABLE
  2
DIMSTYLE
  5
870E2D126945F622
330
0
100
AcDbSymbolTable
 70
     1
100
AcDbDimStyleTable
 71
     0
  0
DIMSTYLE
105
C4387168934A2F46
330
870E2D126945F622
100
AcDbSymbolTableRecord
100
AcDbDimStyleTableRecord
  2
Standard
 70
     0
340
870E2D126945F629
  0
ENDTAB
  0
TABLE
  2
BLOCK_RECORD
  5
870E2D126945F619
330
0
100
AcDbSymbolTable
 70
     0
  0
BLOCK_RECORD
  5
870E2D126945F636
330
870E2D126945F619
100
AcDbSymbolTableRecord
100
AcDbBlockTableRecord
  2
*Model_Space
340
870E2D126945F639
  0
BLOCK_RECORD
  5
870E2D126945F632
330
870E2D126945F619
100
AcDbSymbolTableRecord
100
AcDbBlockTableRecord
  2
*Paper_Space
340
870E2D126945F635
  0
ENDTAB
  0
ENDSEC
  0
SECTION
  2
BLOCKS
  0
BLOCK
  5
870E2D126945F698
330
870E2D126945F636
100
AcDbEntity
  8
0
100
AcDbBlockBegin
  2
*Model_Space
 70
     0
 10
0.0
 20
0.0
 30
0.0
  3
*Model_Space
  1

  0
ENDBLK
  5
870E2D126945F699
330
870E2D126945F636
100
AcDbEntity
  8
0
100
AcDbBlockEnd
  0
BLOCK
  5
870E2D126945F696
330
870E2D126945F632
100
AcDbEntity
 67
     1
  8
0
100
AcDbBlockBegin
  2
*Paper_Space
 70
     0
 10
0.0
 20
0.0
 30
0.0
  3
*Paper_Space
  1

  0
ENDBLK
  5
870E2D126945F697
330
870E2D126945F632
100
AcDbEntity
 67
     1
  8
0
100
AcDbBlockEnd
  0
ENDSEC
  0
SECTION
  2
ENTITIES
  0
LINE
  5
18870E2D12693633
330
870E2D126945F636
100
AcDbEntity
  8
0
100
AcDbLine
 10
-1.020000000000005
 20
3.630999999999998
 30
0.0
 11
-1.020000000000005
 21
5.230999999999998
 31
0.0
  0
LINE
  5
18870E2D1269363B
330
870E2D126945F636
100
AcDbEntity
  8
0
100
AcDbLine
 10
-2.220999999999999
 20
5.230999999999998
 30
0.0
 11
-2.220999999999999
 21
3.630999999999998
 31
0.0
  0
LINE
  5
18870E2D1269363C
330
870E2D126945F636
100
AcDbEntity
  8
0
100
AcDbLine
 10
-0.9320000000000055
 20
3.514999999999992
 30
0.0
 11
-0.9320000000000055
 21
5.347999999999991
 31
0.0
  0
LINE
  5
18870E2D1269363D
330
870E2D126945F636
100
AcDbEntity
  8
0
100
AcDbLine
 10
-2.309000000000005
 20
5.347999999999991
 30
0.0
 11
-2.309000000000005
 21
3.514999999999992
 31
0.0
  0
LINE
  5
18870E2D12693647
330
870E2D126945F636
100
AcDbEntity
  8
0
100
AcDbLine
 10
-2.205999999999998
 20
3.616
 30
0.0
 11
-1.035000000000006
 21
3.616
 31
0.0
  0
LINE
  5
18870E2D1269364B
330
870E2D126945F636
100
AcDbEntity
  8
0
100
AcDbLine
 10
-2.309000000000005
 20
3.514999999999992
 30
0.0
 11
-0.9280000000000054
 21
3.514999999999992
 31
0.0
  0
LINE
  5
18870E2D1269364C
330
870E2D126945F636
100
AcDbEntity
  8
0
100
AcDbLine
 10
-0.9280000000000054
 20
3.238999999999992
 30
0.0
 11
-2.309000000000005
 21
3.238999999999992
 31
0.0
  0
LINE
  5
18870E2D1269364D
330
870E2D126945F636
100
AcDbEntity
  8
0
100
AcDbLine
 10
-0.9280000000000054
 20
2.740999999999992
 30
0.0
 11
-2.309000000000005
 21
2.740999999999992
 31
0.0
  0
LINE
  5
18870E2D1269364E
330
870E2D126945F636
100
AcDbEntity
  8
0
100
AcDbLine
 10
-1.078000000000005
 20
2.410999999999992
 30
0.0
 11
-2.159000000000006
 21
2.410999999999992
 31
0.0
  0
LINE
  5
18870E2D1269364F
330
870E2D126945F636
100
AcDbEntity
  8
0
100
AcDbLine
 10
-1.078000000000005
 20
2.658999999999992
 30
0.0
 11
-2.159000000000006
 21
2.658999999999992
 31
0.0
  0
LINE
  5
18870E2D12693691
330
870E2D126945F636
100
AcDbEntity
  8
0
100
AcDbLine
 10
-2.309000000000005
 20
2.740999999999992
 30
0.0
 11
-2.309000000000005
 21
3.238999999999992
 31
0.0
  0
LINE
  5
18870E2D12693692
330
870E2D126945F636
100
AcDbEntity
  8
0
100
AcDbLine
 10
-2.159000000000006
 20
2.410999999999992
 30
0.0
 11
-2.159000000000006
 21
2.741999999999992
 31
0.0
  0
CIRCLE
  5
18870E2D12693694
330
870E2D126945F636
100
AcDbEntity
  8
0
100
AcDbCircle
 10
-1.351000000000005
 20
2.539999999999992
 30
0.0
 40
0.0389999999999999
  0
CIRCLE
  5
18870E2D12693695
330
870E2D126945F636
100
AcDbEntity
  8
0
100
AcDbCircle
 10
-1.488000000000005
 20
2.539999999999992
 30
0.0
 40
0.0389999999999999
  0
CIRCLE
  5
18870E2D12693696
330
870E2D126945F636
100
AcDbEntity
  8
0
100
AcDbCircle
 10
-1.762000000000006
 20
2.539999999999992
 30
0.0
 40
0.0389999999999999
  0
CIRCLE
  5
18870E2D12693697
330
870E2D126945F636
100
AcDbEntity
  8
0
100
AcDbCircle
 10
-2.036000000000005
 20
2.539999999999992
 30
0.0
 40
0.0389999999999999
  0
CIRCLE
  5
18870E2D12693698
330
870E2D126945F636
100
AcDbEntity
  8
0
100
AcDbCircle
 10
-1.899000000000007
 20
2.539999999999992
 30
0.0
 40
0.0389999999999999
  0
CIRCLE
  5
18870E2D12693699
330
870E2D126945F636
100
AcDbEntity
  8
0
100
AcDbCircle
 10
-1.625000000000006
 20
2.539999999999992
 30
0.0
 40
0.0389999999999999
  0
CIRCLE
  5
18870E2D126936A0
330
870E2D126945F636
100
AcDbEntity
  8
0
100
AcDbCircle
 10
-1.214000000000004
 20
2.539999999999992
 30
0.0
 40
0.0389999999999999
  0
LINE
  5
18870E2D126936B0
330
870E2D126945F636
100
AcDbEntity
  8
0
100
AcDbLine
 10
-2.309000000000005
 20
3.238999999999992
 30
0.0
 11
-2.309000000000005
 21
3.514999999999992
 31
0.0
  0
ARC
  5
18870E2D126936B8
330
870E2D126945F636
100
AcDbEntity
  8
0
100
AcDbCircle
 10
-2.205999999999998
 20
3.630999999999998
 30
0.0
 40
0.015
100
AcDbArc
 50
180.0
 51
270.0
  0
LINE
  5
18870E2D126936DE
330
870E2D126945F636
100
AcDbEntity
  8
0
100
AcDbLine
 10
-0.9280000000000054
 20
3.238999999999992
 30
0.0
 11
-0.9280000000000054
 21
2.740999999999992
 31
0.0
  0
LINE
  5
18870E2D126936DF
330
870E2D126945F636
100
AcDbEntity
  8
0
100
AcDbLine
 10
-1.078000000000005
 20
2.741999999999992
 30
0.0
 11
-1.078000000000005
 21
2.410999999999992
 31
0.0
  0
LINE
  5
18870E2D126936EA
330
870E2D126945F636
100
AcDbEntity
  8
0
100
AcDbLine
 10
-0.9280000000000054
 20
3.514999999999992
 30
0.0
 11
-0.9280000000000054
 21
3.238999999999992
 31
0.0
  0
ARC
  5
18870E2D126936EB
330
870E2D126945F636
100
AcDbEntity
  8
0
100
AcDbCircle
 10
-1.035000000000006
 20
3.630999999999998
 30
0.0
 40
0.0150000000000001
100
AcDbArc
 50
270.0
 51
0.0
  0
LINE
  5
18870E2D126936EF
330
870E2D126945F636
100
AcDbEntity
  8
0
100
AcDbLine
 10
-1.035000000000006
 20
5.245999999999998
 30
0.0
 11
-2.205999999999998
 21
5.245999999999998
 31
0.0
  0
LINE
  5
18870E2D126936F4
330
870E2D126945F636
100
AcDbEntity
  8
0
100
AcDbLine
 10
-0.9355000000000046
 20
5.347999999999991
 30
0.0
 11
-2.309000000000005
 21
5.347999999999991
 31
0.0
  0
ARC
  5
18870E2D1269378E
330
870E2D126945F636
100
AcDbEntity
  8
0
100
AcDbCircle
 10
-2.205999999999998
 20
5.230999999999998
 30
0.0
 40
0.015
100
AcDbArc
 50
90.0
 51
180.0
  0
ARC
  5
18870E2D12693809
330
870E2D126945F636
100
AcDbEntity
  8
0
100
AcDbCircle
 10
-1.035000000000006
 20
5.230999999999998
 30
0.0
 40
0.0150000000000001
100
AcDbArc
 50
0.0
 51
90.0
  0
TEXT
  5
310E1C5A24D27046
330
870E2D126945F636
100
AcDbEntity
  8
0
100
AcDbText
 10
-1.726
 20
4.796666666666665
 30
0.0
 40
0.05
  1
232
 50
270.0
 72
     1
 11
-1.726
 21
4.729999999999998
 31
0.0
100
AcDbText
  0
LINE
  5
310E1C5A24D27048
330
870E2D126945F636
100
AcDbEntity
  8
0
100
AcDbLine
 10
-2.115999999999994
 20
5.164999999999999
 30
0.0
 11
-1.115999999999994
 21
5.164999999999999
 31
0.0
  0
LINE
  5
310E1C5A24D27049
330
870E2D126945F636
100
AcDbEntity
  8
0
100
AcDbLine
 10
-1.115999999999994
 20
5.039999999999997
 30
0.0
 11
-2.115999999999994
 21
5.039999999999997
 31
0.0
  0
TEXT
  5
310E1C5A24D2704F
330
870E2D126945F636
100
AcDbEntity
  8
0
100
AcDbText
 10
-1.726
 20
4.162999999999994
 30
0.0
 40
0.05
  1
PWR
 50
270.0
 72
     1
 11
-1.726
 21
4.087999999999993
 31
0.0
100
AcDbText
  0
TEXT
  5
310E1C5A24D27050
330
870E2D126945F636
100
AcDbEntity
  8
0
100
AcDbText
 10
-1.726
 20
4.471666666666665
 30
0.0
 40
0.05
  1
485
 50
270.0
 72
     1
 11
-1.726
 21
4.404999999999999
 31
0.0
100
AcDbText
  0
TEXT
  5
310E1C5A24D27065
330
870E2D126945F636
100
AcDbEntity
  8
0
100
AcDbText
 10
-2.184333333333331
 20
4.380999999999997
 30
0.0
 40
0.1
  1
+
 72
     4
 11
-2.150999999999998
 21
4.430999999999997
 31
0.0
100
AcDbText
  0
LINE
  5
310E1C5A24D27067
330
870E2D126945F636
100
AcDbEntity
  8
0
100
AcDbLine
 10
-1.773999999999995
 20
3.901999999999997
 30
0.0
 11
-1.773999999999995
 21
4.959999999999997
 31
0.0
  0
LINE
  5
310E1C5A24D27068
330
870E2D126945F636
100
AcDbEntity
  8
0
100
AcDbLine
 10
-2.087999999999995
 20
4.959999999999997
 30
0.0
 11
-2.087999999999995
 21
3.901999999999997
 31
0.0
  0
TEXT
  5
310E1C5A24D27069
330
870E2D126945F636
100
AcDbEntity
  8
0
100
AcDbText
 10
-2.182999999999996
 20
4.243999999999997
 30
0.0
 40
0.1
  1
-
 72
     4
 11
-2.149666666666663
 21
4.293999999999996
 31
0.0
100
AcDbText
  0
TEXT
  5
310E1C5A24D2706A
330
870E2D126945F636
100
AcDbEntity
  8
0
100
AcDbText
 10
-2.182999999999996
 20
3.969999999999996
 30
0.0
 40
0.1
  1
-
 72
     4
 11
-2.149666666666663
 21
4.019999999999996
 31
0.0
100
AcDbText
  0
TEXT
  5
310E1C5A24D2706B
330
870E2D126945F636
100
AcDbEntity
  8
0
100
AcDbText
 10
-2.182999999999996
 20
4.106999999999996
 30
0.0
 40
0.1
  1
+
 72
     4
 11
-2.149666666666663
 21
4.156999999999996
 31
0.0
100
AcDbText
  0
LINE
  5
310E1C5A24D2706C
330
870E2D126945F636
100
AcDbEntity
  8
0
100
AcDbLine
 10
-1.773999999999995
 20
3.901999999999997
 30
0.0
 11
-2.087999999999995
 21
3.901999999999997
 31
0.0
  0
LINE
  5
310E1C5A24D2706D
330
870E2D126945F636
100
AcDbEntity
  8
0
100
AcDbLine
 10
-2.115999999999994
 20
5.164999999999999
 30
0.0
 11
-2.115999999999994
 21
5.039999999999997
 31
0.0
  0
LINE
  5
310E1C5A24D2706E
330
870E2D126945F636
100
AcDbEntity
  8
0
100
AcDbLine
 10
-2.113000000000001
 20
4.578999999999995
 30
0.0
 11
-2.184999999999989
 21
4.578999999999995
 31
0.0
  0
TEXT
  5
310E1C5A24D2706F
330
870E2D126945F636
100
AcDbEntity
  8
0
100
AcDbText
 10
-2.199999999999993
 20
4.674999999999996
 30
0.0
 40
0.06
  1
RX
 72
     4
 11
-2.149999999999993
 21
4.704999999999996
 31
0.0
100
AcDbText
  0
TEXT
  5
310E1C5A24D27070
330
870E2D126945F636
100
AcDbEntity
  8
0
100
AcDbText
 10
-2.199999999999993
 20
4.811999999999996
 30
0.0
 40
0.06
  1
TX
 72
     4
 11
-2.149999999999993
 21
4.841999999999996
 31
0.0
100
AcDbText
  0
LINE
  5
310E1C5A24D27071
330
870E2D126945F636
100
AcDbEntity
  8
0
100
AcDbLine
 10
-2.184999999999989
 20
4.578999999999995
 30
0.0
 11
-2.148999999999988
 21
4.518999999999994
 31
0.0
  0
LINE
  5
310E1C5A24D27072
330
870E2D126945F636
100
AcDbEntity
  8
0
100
AcDbLine
 10
-2.148999999999988
 20
4.578999999999995
 30
0.0
 11
-2.148999999999988
 21
4.612999999999995
 31
0.0
  0
LINE
  5
310E1C5A24D27073
330
870E2D126945F636
100
AcDbEntity
  8
0
100
AcDbLine
 10
-2.149000000000002
 20
4.518999999999994
 30
0.0
 11
-2.113000000000001
 21
4.578999999999995
 31
0.0
  0
LINE
  5
310E1C5A24D27074
330
870E2D126945F636
100
AcDbEntity
  8
0
100
AcDbLine
 10
-2.087999999999995
 20
4.959999999999997
 30
0.0
 11
-1.773999999999995
 21
4.959999999999997
 31
0.0
  0
TEXT
  5
310E1C5A24D27076
330
870E2D126945F636
100
AcDbEntity
  8
0
100
AcDbText
 10
-1.458666666666655
 20
3.647999999999996
 30
0.0
 40
0.05
  1
ADDRESS
 72
     1
 11
-1.291999999999989
 21
3.647999999999996
 31
0.0
100
AcDbText
  0
CIRCLE
  5
310E1C5A24D27077
330
870E2D126945F636
100
AcDbEntity
  8
0
100
AcDbCircle
 10
-1.291999999999989
 20
3.880999999999997
 30
0.0
 40
0.1499999999999986
  0
TEXT
  5
310E1C5A24D27078
330
870E2D126945F636
100
AcDbEntity
  8
0
100
AcDbText
 10
-1.593666666666659
 20
4.225999999999995
 30
0.0
 40
0.05
  1
STATUS
 72
     1
 11
-1.451999999999992
 21
4.225999999999995
 31
0.0
100
AcDbText
  0
CIRCLE
  5
310E1C5A24D27079
330
870E2D126945F636
100
AcDbEntity
  8
0
100
AcDbCircle
 10
-1.451999999999992
 20
4.135999999999995
 30
0.0
 40
0.0500000000000007
  0
LINE
  5
310E1C5A24D2707A
330
870E2D126945F636
100
AcDbEntity
  8
0
100
AcDbLine
 10
-1.115999999999994
 20
5.164999999999999
 30
0.0
 11
-1.115999999999994
 21
5.039999999999997
 31
0.0
  0
TEXT
  5
310E1C5A24D2707B
330
870E2D126945F636
100
AcDbEntity
  8
0
100
AcDbText
 10
-1.543666666666659
 20
4.669999999999998
 30
0.0
 40
0.05
  1
COMM
 72
     1
 11
-1.451999999999992
 21
4.669999999999998
 31
0.0
100
AcDbText
  0
CIRCLE
  5
310E1C5A24D2707C
330
870E2D126945F636
100
AcDbEntity
  8
0
100
AcDbCircle
 10
-1.451999999999992
 20
4.580999999999997
 30
0.0
 40
0.0500000000000007
  0
LINE
  5
310E1C5A24D2707D
330
870E2D126945F636
100
AcDbEntity
  8
0
100
AcDbLine
 10
-2.309000000000005
 20
5.622999999999993
 30
0.0
 11
-2.309000000000005
 21
6.120999999999993
 31
0.0
  0
LINE
  5
310E1C5A24D2707E
330
870E2D126945F636
100
AcDbEntity
  8
0
100
AcDbLine
 10
-2.309000000000005
 20
6.120999999999993
 30
0.0
 11
-0.9355000000000046
 21
6.120999999999993
 31
0.0
  0
LINE
  5
310E1C5A24D2707F
330
870E2D126945F636
100
AcDbEntity
  8
0
100
AcDbLine
 10
-0.9355000000000046
 20
6.120999999999993
 30
0.0
 11
-0.9355000000000046
 21
5.622999999999993
 31
0.0
  0
LINE
  5
310E1C5A24D27080
330
870E2D126945F636
100
AcDbEntity
  8
0
100
AcDbLine
 10
-2.309000000000005
 20
5.346999999999993
 30
0.0
 11
-2.309000000000005
 21
5.622999999999993
 31
0.0
  0
LINE
  5
310E1C5A24D27081
330
870E2D126945F636
100
AcDbEntity
  8
0
100
AcDbLine
 10
-2.309000000000005
 20
5.622999999999993
 30
0.0
 11
-0.9355000000000046
 21
5.622999999999993
 31
0.0
  0
LINE
  5
310E1C5A24D27082
330
870E2D126945F636
100
AcDbEntity
  8
0
100
AcDbLine
 10
-0.9320000000000055
 20
5.622999999999993
 30
0.0
 11
-0.9320000000000055
 21
5.346999999999993
 31
0.0
  0
LINE
  5
4387168934A2F4AA
330
870E2D126945F636
100
AcDbEntity
  8
0
100
AcDbLine
 10
-2.133250000000006
 20
6.451999999999992
 30
0.0
 11
-1.512250000000006
 21
6.451999999999992
 31
0.0
  0
LINE
  5
4387168934A2F4AB
330
870E2D126945F636
100
AcDbEntity
  8
0
100
AcDbLine
 10
-2.133250000000006
 20
6.203999999999993
 30
0.0
 11
-1.512250000000006
 21
6.203999999999993
 31
0.0
  0
CIRCLE
  5
4387168934A2F4AC
330
870E2D126945F636
100
AcDbEntity
  8
0
100
AcDbCircle
 10
-1.889750000000005
 20
6.322999999999993
 30
0.0
 40
0.0389999999999999
  0
CIRCLE
  5
4387168934A2F4B4
330
870E2D126945F636
100
AcDbEntity
  8
0
100
AcDbCircle
 10
-1.615750000000004
 20
6.322999999999993
 30
0.0
 40
0.0389999999999999
  0
CIRCLE
  5
4387168934A2F4B5
330
870E2D126945F636
100
AcDbEntity
  8
0
100
AcDbCircle
 10
-1.752750000000005
 20
6.322999999999993
 30
0.0
 40
0.0389999999999999
  0
CIRCLE
  5
4387168934A2F4B9
330
870E2D126945F636
100
AcDbEntity
  8
0
100
AcDbCircle
 10
-2.026750000000006
 20
6.322999999999993
 30
0.0
 40
0.0389999999999999
  0
LINE
  5
4387168934A2F4BA
330
870E2D126945F636
100
AcDbEntity
  8
0
100
AcDbLine
 10
-2.133250000000006
 20
6.120999999999993
 30
0.0
 11
-2.133250000000006
 21
6.451999999999992
 31
0.0
  0
LINE
  5
4387168934A2F4BB
330
870E2D126945F636
100
AcDbEntity
  8
0
100
AcDbLine
 10
-1.512250000000006
 20
6.451999999999992
 30
0.0
 11
-1.512250000000006
 21
6.120999999999993
 31
0.0
  0
LINE
  5
C4387168934A2F53
330
870E2D126945F636
100
AcDbEntity
  8
0
100
AcDbLine
 10
-1.783999999999999
 20
4.931999999999991
 30
0.0
 11
-1.783999999999999
 21
3.951999999999999
 31
0.0
  0
LINE
  5
C4387168934A2F54
330
870E2D126945F636
100
AcDbEntity
  8
0
100
AcDbLine
 10
-2.077000000000007
 20
3.951999999999999
 30
0.0
 11
-2.077000000000007
 21
4.931999999999991
 31
0.0
  0
LINE
  5
C4387168934A2F60
330
870E2D126945F636
100
AcDbEntity
  8
0
100
AcDbLine
 10
-1.783999999999999
 20
3.951999999999999
 30
0.0
 11
-2.077000000000007
 21
3.951999999999999
 31
0.0
  0
LINE
  5
C4387168934A2F76
330
870E2D126945F636
100
AcDbEntity
  8
0
100
AcDbLine
 10
-2.077000000000007
 20
4.931999999999991
 30
0.0
 11
-1.783999999999999
 21
4.931999999999991
 31
0.0
  0
LINE
  5
C4387168934A2F77
330
870E2D126945F636
100
AcDbEntity
  8
0
100
AcDbLine
 10
-1.342000000000005
 20
2.577999999999993
 30
0.0
 11
-1.342000000000005
 21
2.501999999999993
 31
0.0
  0
LINE
  5
C4387168934A2F78
330
870E2D126945F636
100
AcDbEntity
  8
0
100
AcDbLine
 10
-1.360000000000006
 20
2.577999999999993
 30
0.0
 11
-1.360000000000006
 21
2.501999999999993
 31
0.0
  0
LINE
  5
C4387168934A2F79
330
870E2D126945F636
100
AcDbEntity
  8
0
100
AcDbLine
 10
-2.027000000000006
 20
2.577999999999993
 30
0.0
 11
-2.027000000000006
 21
2.501999999999993
 31
0.0
  0
LINE
  5
C4387168934A2F7A
330
870E2D126945F636
100
AcDbEntity
  8
0
100
AcDbLine
 10
-2.045000000000006
 20
2.577999999999993
 30
0.0
 11
-2.045000000000006
 21
2.501999999999993
 31
0.0
  0
LINE
  5
C4387168934A2F7B
330
870E2D126945F636
100
AcDbEntity
  8
0
100
AcDbLine
 10
-1.890000000000007
 20
2.577999999999993
 30
0.0
 11
-1.890000000000007
 21
2.501999999999993
 31
0.0
  0
LINE
  5
C4387168934A2F7C
330
870E2D126945F636
100
AcDbEntity
  8
0
100
AcDbLine
 10
-1.908000000000008
 20
2.577999999999993
 30
0.0
 11
-1.908000000000008
 21
2.501999999999993
 31
0.0
  0
LINE
  5
C4387168934A2F7D
330
870E2D126945F636
100
AcDbEntity
  8
0
100
AcDbLine
 10
-1.753000000000007
 20
2.577999999999993
 30
0.0
 11
-1.753000000000007
 21
2.501999999999993
 31
0.0
  0
LINE
  5
C4387168934A2F7E
330
870E2D126945F636
100
AcDbEntity
  8
0
100
AcDbLine
 10
-1.771000000000007
 20
2.577999999999993
 30
0.0
 11
-1.771000000000007
 21
2.501999999999993
 31
0.0
  0
LINE
  5
C4387168934A2F7F
330
870E2D126945F636
100
AcDbEntity
  8
0
100
AcDbLine
 10
-1.616000000000006
 20
2.577999999999993
 30
0.0
 11
-1.616000000000006
 21
2.501999999999993
 31
0.0
  0
LINE
  5
C4387168934A2F80
330
870E2D126945F636
100
AcDbEntity
  8
0
100
AcDbLine
 10
-1.634000000000007
 20
2.577999999999993
 30
0.0
 11
-1.634000000000007
 21
2.501999999999993
 31
0.0
  0
LINE
  5
C4387168934A2F81
330
870E2D126945F636
100
AcDbEntity
  8
0
100
AcDbLine
 10
-1.479000000000006
 20
2.577999999999993
 30
0.0
 11
-1.479000000000006
 21
2.501999999999993
 31
0.0
  0
LINE
  5
C4387168934A2F82
330
870E2D126945F636
100
AcDbEntity
  8
0
100
AcDbLine
 10
-1.497000000000006
 20
2.577999999999993
 30
0.0
 11
-1.497000000000006
 21
2.501999999999993
 31
0.0
  0
LINE
  5
C4387168934A2F83
330
870E2D126945F636
100
AcDbEntity
  8
0
100
AcDbLine
 10
-1.205000000000005
 20
2.577999999999993
 30
0.0
 11
-1.205000000000005
 21
2.501999999999993
 31
0.0
  0
LINE
  5
C4387168934A2F84
330
870E2D126945F636
100
AcDbEntity
  8
0
100
AcDbLine
 10
-1.223000000000005
 20
2.577999999999993
 30
0.0
 11
-1.223000000000005
 21
2.501999999999993
 31
0.0
  0
LINE
  5
C4387168934A2F87
330
870E2D126945F636
100
AcDbEntity
  8
0
100
AcDbLine
 10
-2.035750000000005
 20
6.284999999999992
 30
0.0
 11
-2.035750000000005
 21
6.360999999999992
 31
0.0
  0
LINE
  5
C4387168934A2F88
330
870E2D126945F636
100
AcDbEntity
  8
0
100
AcDbLine
 10
-2.017750000000005
 20
6.284999999999992
 30
0.0
 11
-2.017750000000005
 21
6.360999999999992
 31
0.0
  0
LINE
  5
C4387168934A2F89
330
870E2D126945F636
100
AcDbEntity
  8
0
100
AcDbLine
 10
-1.898750000000005
 20
6.284999999999992
 30
0.0
 11
-1.898750000000005
 21
6.360999999999992
 31
0.0
  0
LINE
  5
C4387168934A2F8A
330
870E2D126945F636
100
AcDbEntity
  8
0
100
AcDbLine
 10
-1.880750000000004
 20
6.284999999999992
 30
0.0
 11
-1.880750000000004
 21
6.360999999999992
 31
0.0
  0
LINE
  5
C4387168934A2F8B
330
870E2D126945F636
100
AcDbEntity
  8
0
100
AcDbLine
 10
-1.761750000000004
 20
6.284999999999992
 30
0.0
 11
-1.761750000000004
 21
6.360999999999992
 31
0.0
  0
LINE
  5
C4387168934A2F8C
330
870E2D126945F636
100
AcDbEntity
  8
0
100
AcDbLine
 10
-1.743750000000004
 20
6.284999999999992
 30
0.0
 11
-1.743750000000004
 21
6.360999999999992
 31
0.0
  0
LINE
  5
C4387168934A2F8D
330
870E2D126945F636
100
AcDbEntity
  8
0
100
AcDbLine
 10
-1.624750000000004
 20
6.284999999999992
 30
0.0
 11
-1.624750000000004
 21
6.360999999999992
 31
0.0
  0
LINE
  5
C4387168934A2F8E
330
870E2D126945F636
100
AcDbEntity
  8
0
100
AcDbLine
 10
-1.606750000000003
 20
6.284999999999992
 30
0.0
 11
-1.606750000000003
 21
6.360999999999992
 31
0.0
  0
LINE
  5
C4387168934A2FAD
330
870E2D126945F636
100
AcDbEntity
  8
0
100
AcDbLine
 10
-1.980000000000006
 20
4.137999999999992
 30
0.0
 11
-1.980000000000006
 21
4.177999999999993
 31
0.0
  0
LINE
  5
C4387168934A2FAE
330
870E2D126945F636
100
AcDbEntity
  8
0
100
AcDbLine
 10
-1.980000000000006
 20
4.177999999999993
 30
0.0
 11
-1.902672643290073
 21
4.177999999999993
 31
0.0
  0
LINE
  5
C4387168934A2FAF
330
870E2D126945F636
100
AcDbEntity
  8
0
100
AcDbLine
 10
-1.902672643290073
 20
4.177999999999993
 30
0.0
 11
-1.902672643290073
 21
4.137999999999992
 31
0.0
  0
LINE
  5
C4387168934A2FB0
330
870E2D126945F636
100
AcDbEntity
  8
0
100
AcDbLine
 10
-1.902672643290073
 20
4.137999999999992
 30
0.0
 11
-1.980000000000006
 21
4.137999999999992
 31
0.0
  0
LINE
  5
C4387168934A2FB1
330
870E2D126945F636
100
AcDbEntity
  8
0
100
AcDbLine
 10
-1.980000000000006
 20
4.000999999999992
 30
0.0
 11
-1.980000000000006
 21
4.040999999999993
 31
0.0
  0
LINE
  5
C4387168934A2FB2
330
870E2D126945F636
100
AcDbEntity
  8
0
100
AcDbLine
 10
-1.980000000000006
 20
4.040999999999993
 30
0.0
 11
-1.902672643290073
 21
4.040999999999993
 31
0.0
  0
LINE
  5
C4387168934A2FB3
330
870E2D126945F636
100
AcDbEntity
  8
0
100
AcDbLine
 10
-1.902672643290073
 20
4.040999999999993
 30
0.0
 11
-1.902672643290073
 21
4.000999999999992
 31
0.0
  0
LINE
  5
C4387168934A2FB4
330
870E2D126945F636
100
AcDbEntity
  8
0
100
AcDbLine
 10
-1.902672643290073
 20
4.000999999999992
 30
0.0
 11
-1.980000000000006
 21
4.000999999999992
 31
0.0
  0
LINE
  5
C4387168934A2FB5
330
870E2D126945F636
100
AcDbEntity
  8
0
100
AcDbLine
 10
-1.980000000000006
 20
4.274999999999993
 30
0.0
 11
-1.980000000000006
 21
4.314999999999994
 31
0.0
  0
LINE
  5
C4387168934A2FB6
330
870E2D126945F636
100
AcDbEntity
  8
0
100
AcDbLine
 10
-1.980000000000006
 20
4.314999999999994
 30
0.0
 11
-1.902672643290073
 21
4.314999999999994
 31
0.0
  0
LINE
  5
C4387168934A2FB7
330
870E2D126945F636
100
AcDbEntity
  8
0
100
AcDbLine
 10
-1.902672643290073
 20
4.314999999999994
 30
0.0
 11
-1.902672643290073
 21
4.274999999999993
 31
0.0
  0
LINE
  5
C4387168934A2FB8
330
870E2D126945F636
100
AcDbEntity
  8
0
100
AcDbLine
 10
-1.902672643290073
 20
4.274999999999993
 30
0.0
 11
-1.980000000000006
 21
4.274999999999993
 31
0.0
  0
LINE
  5
C4387168934A2FB9
330
870E2D126945F636
100
AcDbEntity
  8
0
100
AcDbLine
 10
-1.980000000000006
 20
4.410999999999992
 30
0.0
 11
-1.980000000000006
 21
4.450999999999993
 31
0.0
  0
LINE
  5
C4387168934A2FBA
330
870E2D126945F636
100
AcDbEntity
  8
0
100
AcDbLine
 10
-1.980000000000006
 20
4.450999999999993
 30
0.0
 11
-1.902672643290073
 21
4.450999999999993
 31
0.0
  0
LINE
  5
C4387168934A2FBB
330
870E2D126945F636
100
AcDbEntity
  8
0
100
AcDbLine
 10
-1.902672643290073
 20
4.450999999999993
 30
0.0
 11
-1.902672643290073
 21
4.410999999999992
 31
0.0
  0
LINE
  5
C4387168934A2FBC
330
870E2D126945F636
100
AcDbEntity
  8
0
100
AcDbLine
 10
-1.902672643290073
 20
4.410999999999992
 30
0.0
 11
-1.980000000000006
 21
4.410999999999992
 31
0.0
  0
LINE
  5
C4387168934A2FBD
330
870E2D126945F636
100
AcDbEntity
  8
0
100
AcDbLine
 10
-1.741999999999991
 20
3.969999999999995
 30
0.0
 11
-1.700999999999995
 21
3.969999999999995
 31
0.0
  0
LINE
  5
C4387168934A2FBE
330
870E2D126945F636
100
AcDbEntity
  8
0
100
AcDbLine
 10
-1.700999999999995
 20
3.969999999999995
 30
0.0
 11
-1.700999999999995
 21
3.993999999999996
 31
0.0
  0
LINE
  5
C4387168934A2FBF
330
870E2D126945F636
100
AcDbEntity
  8
0
100
AcDbLine
 10
-1.741999999999991
 20
4.243999999999996
 30
0.0
 11
-1.700999999999995
 21
4.243999999999996
 31
0.0
  0
LINE
  5
C4387168934A2FC0
330
870E2D126945F636
100
AcDbEntity
  8
0
100
AcDbLine
 10
-1.700999999999995
 20
4.243999999999996
 30
0.0
 11
-1.700999999999995
 21
4.309999999999998
 31
0.0
  0
LINE
  5
C4387168934A2FC1
330
870E2D126945F636
100
AcDbEntity
  8
0
100
AcDbLine
 10
-1.741999999999991
 20
4.206999999999997
 30
0.0
 11
-1.700999999999995
 21
4.206999999999997
 31
0.0
  0
LINE
  5
C4387168934A2FC2
330
870E2D126945F636
100
AcDbEntity
  8
0
100
AcDbLine
 10
-1.700999999999995
 20
4.206999999999997
 30
0.0
 11
-1.700999999999995
 21
4.184999999999995
 31
0.0
  0
LINE
  5
C4387168934A2FD5
330
870E2D126945F636
100
AcDbEntity
  8
0
100
AcDbLine
 10
-1.980000000000006
 20
4.820999999999992
 30
0.0
 11
-1.980000000000006
 21
4.860999999999991
 31
0.0
  0
LINE
  5
C4387168934A2FD6
330
870E2D126945F636
100
AcDbEntity
  8
0
100
AcDbLine
 10
-1.980000000000006
 20
4.860999999999991
 30
0.0
 11
-1.904672643290072
 21
4.860999999999991
 31
0.0
  0
LINE
  5
C4387168934A2FD7
330
870E2D126945F636
100
AcDbEntity
  8
0
100
AcDbLine
 10
-1.904672643290072
 20
4.860999999999991
 30
0.0
 11
-1.904672643290072
 21
4.820999999999992
 31
0.0
  0
LINE
  5
C4387168934A2FD8
330
870E2D126945F636
100
AcDbEntity
  8
0
100
AcDbLine
 10
-1.904672643290072
 20
4.820999999999992
 30
0.0
 11
-1.980000000000006
 21
4.820999999999992
 31
0.0
  0
LINE
  5
C4387168934A2FD9
330
870E2D126945F636
100
AcDbEntity
  8
0
100
AcDbLine
 10
-1.980000000000006
 20
4.547999999999992
 30
0.0
 11
-1.980000000000006
 21
4.587999999999993
 31
0.0
  0
LINE
  5
C4387168934A2FDA
330
870E2D126945F636
100
AcDbEntity
  8
0
100
AcDbLine
 10
-1.980000000000006
 20
4.587999999999993
 30
0.0
 11
-1.902672643290073
 21
4.587999999999993
 31
0.0
  0
LINE
  5
C4387168934A2FDB
330
870E2D126945F636
100
AcDbEntity
  8
0
100
AcDbLine
 10
-1.902672643290073
 20
4.587999999999993
 30
0.0
 11
-1.902672643290073
 21
4.547999999999992
 31
0.0
  0
LINE
  5
C4387168934A2FDC
330
870E2D126945F636
100
AcDbEntity
  8
0
100
AcDbLine
 10
-1.902672643290073
 20
4.547999999999992
 30
0.0
 11
-1.980000000000006
 21
4.547999999999992
 31
0.0
  0
LINE
  5
C4387168934A2FDD
330
870E2D126945F636
100
AcDbEntity
  8
0
100
AcDbLine
 10
-1.980000000000006
 20
4.684999999999993
 30
0.0
 11
-1.980000000000006
 21
4.724999999999994
 31
0.0
  0
LINE
  5
C4387168934A2FDE
330
870E2D126945F636
100
AcDbEntity
  8
0
100
AcDbLine
 10
-1.980000000000006
 20
4.724999999999994
 30
0.0
 11
-1.902672643290073
 21
4.724999999999994
 31
0.0
  0
LINE
  5
C4387168934A2FDF
330
870E2D126945F636
100
AcDbEntity
  8
0
100
AcDbLine
 10
-1.902672643290073
 20
4.724999999999994
 30
0.0
 11
-1.902672643290073
 21
4.684999999999993
 31
0.0
  0
LINE
  5
C4387168934A2FE0
330
870E2D126945F636
100
AcDbEntity
  8
0
100
AcDbLine
 10
-1.902672643290073
 20
4.684999999999993
 30
0.0
 11
-1.980000000000006
 21
4.684999999999993
 31
0.0
  0
LINE
  5
C4387168934A2FE1
330
870E2D126945F636
100
AcDbEntity
  8
0
100
AcDbLine
 10
-1.741999999999991
 20
4.891999999999995
 30
0.0
 11
-1.700999999999995
 21
4.891999999999995
 31
0.0
  0
LINE
  5
C4387168934A2FE2
330
870E2D126945F636
100
AcDbEntity
  8
0
100
AcDbLine
 10
-1.700999999999995
 20
4.891999999999995
 30
0.0
 11
-1.700999999999995
 21
4.825999999999998
 31
0.0
  0
LINE
  5
C4387168934A2FE3
330
870E2D126945F636
100
AcDbEntity
  8
0
100
AcDbLine
 10
-1.741999999999991
 20
4.567999999999999
 30
0.0
 11
-1.700999999999995
 21
4.567999999999999
 31
0.0
  0
LINE
  5
C4387168934A2FE4
330
870E2D126945F636
100
AcDbEntity
  8
0
100
AcDbLine
 10
-1.700999999999995
 20
4.567999999999999
 30
0.0
 11
-1.700999999999995
 21
4.501999999999998
 31
0.0
  0
LINE
  5
C4387168934A2FE5
330
870E2D126945F636
100
AcDbEntity
  8
0
100
AcDbLine
 10
-1.741999999999991
 20
4.567999999999999
 30
0.0
 11
-1.700999999999995
 21
4.567999999999999
 31
0.0
  0
LINE
  5
C4387168934A2FE6
330
870E2D126945F636
100
AcDbEntity
  8
0
100
AcDbLine
 10
-1.700999999999995
 20
4.567999999999999
 30
0.0
 11
-1.700999999999995
 21
4.633999999999998
 31
0.0
  0
LINE
  5
C4387168934A3096
330
870E2D126945F636
100
AcDbEntity
  8
0
100
AcDbLine
 10
-0.9685000000000076
 20
3.215999999999993
 30
0.0
 11
-2.268500000000004
 21
3.215999999999993
 31
0.0
  0
LINE
  5
C4387168934A3097
330
870E2D126945F636
100
AcDbEntity
  8
0
100
AcDbLine
 10
-2.268500000000004
 20
2.755999999999992
 30
0.0
 11
-0.9685000000000076
 21
2.755999999999992
 31
0.0
  0
CIRCLE
  5
C4387168934A3098
330
870E2D126945F636
100
AcDbEntity
  8
0
100
AcDbCircle
 10
-2.029500000000007
 20
2.952999999999991
 30
0.0
 40
0.0350000000000002
  0
LINE
  5
C4387168934A3099
330
870E2D126945F636
100
AcDbEntity
  8
0
100
AcDbLine
 10
-2.268500000000004
 20
2.755999999999992
 30
0.0
 11
-2.268500000000004
 21
3.215999999999993
 31
0.0
  0
LINE
  5
C4387168934A309A
330
870E2D126945F636
100
AcDbEntity
  8
0
100
AcDbLine
 10
-1.892500000000007
 20
2.90299999999999
 30
0.0
 11
-1.892500000000007
 21
2.772999999999991
 31
0.0
  0
CIRCLE
  5
C4387168934A309B
330
870E2D126945F636
100
AcDbEntity
  8
0
100
AcDbCircle
 10
-1.892500000000007
 20
2.952999999999991
 30
0.0
 40
0.0350000000000002
  0
LINE
  5
C4387168934A309C
330
870E2D126945F636
100
AcDbEntity
  8
0
100
AcDbLine
 10
-2.029500000000007
 20
2.90299999999999
 30
0.0
 11
-2.029500000000007
 21
2.772999999999991
 31
0.0
  0
LINE
  5
C4387168934A309D
330
870E2D126945F636
100
AcDbEntity
  8
0
100
AcDbLine
 10
-1.617500000000008
 20
2.90299999999999
 30
0.0
 11
-1.617500000000008
 21
2.772999999999991
 31
0.0
  0
LINE
  5
C4387168934A309E
330
870E2D126945F636
100
AcDbEntity
  8
0
100
AcDbLine
 10
-1.75550000000001
 20
2.90299999999999
 30
0.0
 11
-1.75550000000001
 21
2.772999999999991
 31
0.0
  0
CIRCLE
  5
C4387168934A309F
330
870E2D126945F636
100
AcDbEntity
  8
0
100
AcDbCircle
 10
-1.75550000000001
 20
2.952999999999991
 30
0.0
 40
0.0350000000000002
  0
TEXT
  5
C4387168934A30A0
330
870E2D126945F636
100
AcDbEntity
  8
0
100
AcDbText
 10
-1.853833333333337
 20
3.115999999999992
 30
0.0
 40
0.05
  1
DI
 72
     4
 11
-1.820500000000004
 21
3.140999999999992
 31
0.0
100
AcDbText
  0
TEXT
  5
C4387168934A30A2
330
870E2D126945F636
100
AcDbEntity
  8
0
100
AcDbText
 10
-1.909166666666673
 20
3.019999999999992
 30
0.0
 40
0.05
  1
2
 72
     4
 11
-1.892500000000007
 21
3.044999999999991
 31
0.0
100
AcDbText
  0
TEXT
  5
C4387168934A30A3
330
870E2D126945F636
100
AcDbEntity
  8
0
100
AcDbText
 10
-2.03783333333334
 20
3.019999999999992
 30
0.0
 40
0.05
  1
1
 72
     4
 11
-2.029500000000007
 21
3.044999999999991
 31
0.0
100
AcDbText
  0
TEXT
  5
C4387168934A30A5
330
870E2D126945F636
100
AcDbEntity
  8
0
100
AcDbText
 10
-1.634166666666675
 20
3.019999999999992
 30
0.0
 40
0.05
  1
C
 72
     4
 11
-1.617500000000008
 21
3.044999999999991
 31
0.0
100
AcDbText
  0
TEXT
  5
C4387168934A30A6
330
870E2D126945F636
100
AcDbEntity
  8
0
100
AcDbText
 10
-1.772166666666676
 20
3.019999999999992
 30
0.0
 40
0.05
  1
3
 72
     4
 11
-1.75550000000001
 21
3.044999999999991
 31
0.0
100
AcDbText
  0
CIRCLE
  5
C4387168934A30A7
330
870E2D126945F636
100
AcDbEntity
  8
0
100
AcDbCircle
 10
-1.344500000000005
 20
2.952999999999991
 30
0.0
 40
0.0350000000000002
  0
LINE
  5
C4387168934A30A8
330
870E2D126945F636
100
AcDbEntity
  8
0
100
AcDbLine
 10
-1.480500000000008
 20
2.90299999999999
 30
0.0
 11
-1.480500000000008
 21
2.772999999999991
 31
0.0
  0
LINE
  5
C4387168934A30A9
330
870E2D126945F636
100
AcDbEntity
  8
0
100
AcDbLine
 10
-1.344500000000005
 20
2.90299999999999
 30
0.0
 11
-1.344500000000005
 21
2.772999999999991
 31
0.0
  0
CIRCLE
  5
C4387168934A30AA
330
870E2D126945F636
100
AcDbEntity
  8
0
100
AcDbCircle
 10
-1.480500000000008
 20
2.952999999999991
 30
0.0
 40
0.0350000000000002
  0
LINE
  5
C4387168934A30AB
330
870E2D126945F636
100
AcDbEntity
  8
0
100
AcDbLine
 10
-1.207250000000007
 20
2.90299999999999
 30
0.0
 11
-1.207250000000007
 21
2.772999999999991
 31
0.0
  0
TEXT
  5
C4387168934A30AC
330
870E2D126945F636
100
AcDbEntity
  8
0
100
AcDbText
 10
-1.386166666666672
 20
3.115999999999992
 30
0.0
 40
0.05
  1
DO
 72
     4
 11
-1.344500000000005
 21
3.140999999999992
 31
0.0
100
AcDbText
  0
TEXT
  5
C4387168934A30AD
330
870E2D126945F636
100
AcDbEntity
  8
0
100
AcDbText
 10
-1.361166666666671
 20
3.019999999999992
 30
0.0
 40
0.05
  1
2
 72
     4
 11
-1.344500000000005
 21
3.044999999999991
 31
0.0
100
AcDbText
  0
TEXT
  5
C4387168934A30AF
330
870E2D126945F636
100
AcDbEntity
  8
0
100
AcDbText
 10
-1.488833333333341
 20
3.019999999999992
 30
0.0
 40
0.05
  1
1
 72
     4
 11
-1.480500000000008
 21
3.044999999999991
 31
0.0
100
AcDbText
  0
TEXT
  5
C4387168934A30B1
330
870E2D126945F636
100
AcDbEntity
  8
0
100
AcDbText
 10
-1.223916666666673
 20
3.019999999999992
 30
0.0
 40
0.05
  1
C
 72
     4
 11
-1.207250000000007
 21
3.044999999999991
 31
0.0
100
AcDbText
  0
LINE
  5
C4387168934A30B2
330
870E2D126945F636
100
AcDbEntity
  8
0
100
AcDbLine
 10
-0.9685000000000076
 20
2.755999999999992
 30
0.0
 11
-0.9685000000000076
 21
3.215999999999993
 31
0.0
  0
LINE
  5
C4387168934A30B4
330
870E2D126945F636
100
AcDbEntity
  8
0
100
AcDbLine
 10
-2.272250000000002
 20
5.638999999999994
 30
0.0
 11
-0.9722500000000064
 21
5.638999999999993
 31
0.0
  0
LINE
  5
C4387168934A30B5
330
870E2D126945F636
100
AcDbEntity
  8
0
100
AcDbLine
 10
-0.9722500000000064
 20
6.098999999999993
 30
0.0
 11
-2.272250000000002
 21
6.098999999999993
 31
0.0
  0
LINE
  5
C4387168934A30B6
330
870E2D126945F636
100
AcDbEntity
  8
0
100
AcDbLine
 10
-0.9722500000000064
 20
6.098999999999993
 30
0.0
 11
-0.9722500000000064
 21
5.638999999999993
 31
0.0
  0
TEXT
  5
C4387168934A30B7
330
870E2D126945F636
100
AcDbEntity
  8
0
100
AcDbText
 10
-1.277250000000007
 20
5.892999999999994
 30
0.0
 40
0.05
  1
5V
 50
180.0
 72
     4
 11
-1.327250000000007
 21
5.867999999999994
 31
0.0
100
AcDbText
  0
LINE
  5
C4387168934A30B8
330
870E2D126945F636
100
AcDbEntity
  8
0
100
AcDbLine
 10
-1.227250000000005
 20
5.951999999999995
 30
0.0
 11
-1.227250000000005
 21
6.081999999999994
 31
0.0
  0
LINE
  5
C4387168934A30B9
330
870E2D126945F636
100
AcDbEntity
  8
0
100
AcDbLine
 10
-1.327250000000006
 20
5.951999999999995
 30
0.0
 11
-1.327250000000006
 21
6.081999999999994
 31
0.0
  0
LINE
  5
C4387168934A30BA
330
870E2D126945F636
100
AcDbEntity
  8
0
100
AcDbLine
 10
-1.427250000000004
 20
5.951999999999995
 30
0.0
 11
-1.427250000000004
 21
6.081999999999994
 31
0.0
  0
TEXT
  5
C4387168934A30BB
330
870E2D126945F636
100
AcDbEntity
  8
0
100
AcDbText
 10
-1.239750000000007
 20
5.738999999999994
 30
0.0
 40
0.05
  1
20mA
 50
180.0
 72
     4
 11
-1.327250000000007
 21
5.713999999999994
 31
0.0
100
AcDbText
  0
LINE
  5
C4387168934A30BC
330
870E2D126945F636
100
AcDbEntity
  8
0
100
AcDbLine
 10
-1.227250000000005
 20
5.792999999999994
 30
0.0
 11
-1.427250000000004
 21
5.792999999999994
 31
0.0
  0
LINE
  5
C4387168934A30BD
330
870E2D126945F636
100
AcDbEntity
  8
0
100
AcDbLine
 10
-1.623250000000002
 20
5.954999999999993
 30
0.0
 11
-1.623250000000002
 21
6.081999999999994
 31
0.0
  0
LINE
  5
C4387168934A30BE
330
870E2D126945F636
100
AcDbEntity
  8
0
100
AcDbLine
 10
-1.896250000000005
 20
5.954999999999993
 30
0.0
 11
-1.896250000000005
 21
6.081999999999994
 31
0.0
  0
LINE
  5
C4387168934A30BF
330
870E2D126945F636
100
AcDbEntity
  8
0
100
AcDbLine
 10
-1.760250000000002
 20
5.954999999999993
 30
0.0
 11
-1.760250000000002
 21
6.081999999999994
 31
0.0
  0
TEXT
  5
C4387168934A30C1
330
870E2D126945F636
100
AcDbEntity
  8
0
100
AcDbText
 10
-1.743583333333336
 20
5.834999999999994
 30
0.0
 40
0.05
  1
2
 50
180.0
 72
     4
 11
-1.760250000000003
 21
5.809999999999994
 31
0.0
100
AcDbText
  0
TEXT
  5
C4387168934A30C2
330
870E2D126945F636
100
AcDbEntity
  8
0
100
AcDbText
 10
-1.614916666666669
 20
5.834999999999994
 30
0.0
 40
0.05
  1
1
 50
180.0
 72
     4
 11
-1.623250000000002
 21
5.809999999999994
 31
0.0
100
AcDbText
  0
TEXT
  5
C4387168934A30C3
330
870E2D126945F636
100
AcDbEntity
  8
0
100
AcDbText
 10
-1.794916666666671
 20
5.738999999999994
 30
0.0
 40
0.05
  1
AI
 50
180.0
 72
     4
 11
-1.828250000000004
 21
5.713999999999994
 31
0.0
100
AcDbText
  0
TEXT
  5
C4387168934A30C4
330
870E2D126945F636
100
AcDbEntity
  8
0
100
AcDbText
 10
-1.879583333333339
 20
5.834999999999994
 30
0.0
 40
0.05
  1
3
 50
180.0
 72
     4
 11
-1.896250000000005
 21
5.809999999999994
 31
0.0
100
AcDbText
  0
LINE
  5
C4387168934A30C5
330
870E2D126945F636
100
AcDbEntity
  8
0
100
AcDbLine
 10
-2.272250000000002
 20
6.098999999999993
 30
0.0
 11
-2.272250000000002
 21
5.638999999999994
 31
0.0
  0
LINE
  5
C4387168934A30C6
330
870E2D126945F636
100
AcDbEntity
  8
0
100
AcDbLine
 10
-2.033500000000003
 20
5.954999999999993
 30
0.0
 11
-2.033500000000003
 21
6.081999999999994
 31
0.0
  0
TEXT
  5
C4387168934A30C7
330
870E2D126945F636
100
AcDbEntity
  8
0
100
AcDbText
 10
-2.016833333333337
 20
5.834999999999994
 30
0.0
 40
0.05
  1
C
 50
180.0
 72
     4
 11
-2.033500000000004
 21
5.809999999999994
 31
0.0
100
AcDbText
  0
LINE
  5
C4387168934A30C8
330
870E2D126945F636
100
AcDbEntity
  8
0
100
AcDbLine
 10
-1.617500000000005
 20
3.140999999999992
 30
0.0
 11
-1.755500000000003
 21
3.140999999999992
 31
0.0
  0
LINE
  5
C4387168934A30C9
330
870E2D126945F636
100
AcDbEntity
  8
0
100
AcDbLine
 10
-1.892500000000007
 20
3.140999999999992
 30
0.0
 11
-2.029500000000004
 21
3.140999999999992
 31
0.0
  0
LINE
  5
C4387168934A30CA
330
870E2D126945F636
100
AcDbEntity
  8
0
100
AcDbLine
 10
-1.412500000000003
 20
3.140999999999992
 30
0.0
 11
-1.480500000000004
 21
3.140999999999992
 31
0.0
  0
LINE
  5
C4387168934A30CB
330
870E2D126945F636
100
AcDbEntity
  8
0
100
AcDbLine
 10
-1.207500000000004
 20
3.140999999999992
 30
0.0
 11
-1.271500000000004
 21
3.140999999999992
 31
0.0
  0
LINE
  5
C4387168934A30CC
330
870E2D126945F636
100
AcDbEntity
  8
0
100
AcDbLine
 10
-1.761250000000003
 20
5.713999999999994
 30
0.0
 11
-1.622250000000005
 21
5.713999999999994
 31
0.0
  0
LINE
  5
C4387168934A30CD
330
870E2D126945F636
100
AcDbEntity
  8
0
100
AcDbLine
 10
-2.034250000000003
 20
5.713999999999994
 30
0.0
 11
-1.896250000000005
 21
5.713999999999994
 31
0.0
  0
LINE
  5
C4387168934A30F5
330
870E2D126945F636
100
AcDbEntity
  8
0
100
AcDbLine
 10
-1.172000000000006
 20
6.147999999999993
 30
0.0
 11
-1.472250000000004
 21
6.147999999999993
 31
0.0
  0
LINE
  5
C4387168934A30F6
330
870E2D126945F636
100
AcDbEntity
  8
0
100
AcDbLine
 10
-1.391500000000006
 20
6.186999999999993
 30
0.0
 11
-1.463000000000006
 21
6.186999999999993
 31
0.0
  0
LINE
  5
C4387168934A30F7
330
870E2D126945F636
100
AcDbEntity
  8
0
100
AcDbLine
 10
-1.463000000000006
 20
6.147999999999993
 30
0.0
 11
-1.463000000000006
 21
6.186999999999993
 31
0.0
  0
LINE
  5
C4387168934A30F8
330
870E2D126945F636
100
AcDbEntity
  8
0
100
AcDbLine
 10
-1.472250000000004
 20
6.147999999999993
 30
0.0
 11
-1.472250000000004
 21
6.120999999999993
 31
0.0
  0
LINE
  5
C4387168934A30FA
330
870E2D126945F636
100
AcDbEntity
  8
0
100
AcDbLine
 10
-1.260000000000007
 20
6.147999999999993
 30
0.0
 11
-1.260000000000007
 21
6.186999999999993
 31
0.0
  0
LINE
  5
C4387168934A30FB
330
870E2D126945F636
100
AcDbEntity
  8
0
100
AcDbLine
 10
-1.188500000000006
 20
6.186999999999993
 30
0.0
 11
-1.260000000000007
 21
6.186999999999993
 31
0.0
  0
LINE
  5
C4387168934A30FC
330
870E2D126945F636
100
AcDbEntity
  8
0
100
AcDbLine
 10
-1.188500000000006
 20
6.147999999999993
 30
0.0
 11
-1.188500000000006
 21
6.186999999999993
 31
0.0
  0
LINE
  5
C4387168934A30FD
330
870E2D126945F636
100
AcDbEntity
  8
0
100
AcDbLine
 10
-1.391500000000006
 20
6.147999999999993
 30
0.0
 11
-1.391500000000006
 21
6.186999999999993
 31
0.0
  0
LINE
  5
C4387168934A30FE
330
870E2D126945F636
100
AcDbEntity
  8
0
100
AcDbLine
 10
-1.290500000000007
 20
6.186999999999993
 30
0.0
 11
-1.362000000000007
 21
6.186999999999993
 31
0.0
  0
LINE
  5
C4387168934A30FF
330
870E2D126945F636
100
AcDbEntity
  8
0
100
AcDbLine
 10
-1.362000000000007
 20
6.147999999999993
 30
0.0
 11
-1.362000000000007
 21
6.186999999999993
 31
0.0
  0
LINE
  5
C4387168934A3100
330
870E2D126945F636
100
AcDbEntity
  8
0
100
AcDbLine
 10
-1.290500000000007
 20
6.147999999999993
 30
0.0
 11
-1.290500000000007
 21
6.186999999999993
 31
0.0
  0
LINE
  5
C4387168934A310E
330
870E2D126945F636
100
AcDbEntity
  8
0
100
AcDbLine
 10
-1.172000000000006
 20
6.120999999999993
 30
0.0
 11
-1.172000000000006
 21
6.147999999999993
 31
0.0
  0
ENDSEC
  0
SECTION
  2
OBJECTS
  0
DICTIONARY
  5
870E2D126945F624
330
0
100
AcDbDictionary
281
     1
  3
ACAD_GROUP
350
870E2D126945F625
  3
ACAD_LAYOUT
350
870E2D126945F631
  3
ACAD_MLINESTYLE
350
870E2D126945F62E
  3
ACAD_PLOTSETTINGS
350
870E2D126945F630
  3
ACAD_PLOTSTYLENAME
350
870E2D126945F626
  0
DICTIONARY
  5
870E2D126945F625
102
{ACAD_REACTORS
330
870E2D126945F624
102
}
330
870E2D126945F624
100
AcDbDictionary
281
     1
  0
DICTIONARY
  5
870E2D126945F631
102
{ACAD_REACTORS
330
870E2D126945F624
102
}
330
870E2D126945F624
100
AcDbDictionary
281
     1
  3
Layout1
350
870E2D126945F635
  3
Model
350
870E2D126945F639
  0
DICTIONARY
  5
870E2D126945F62E
102
{ACAD_REACTORS
330
870E2D126945F624
102
}
330
870E2D126945F624
100
AcDbDictionary
281
     1
  3
Standard
350
870E2D126945F62F
  0
DICTIONARY
  5
870E2D126945F630
102
{ACAD_REACTORS
330
870E2D126945F624
102
}
330
870E2D126945F624
100
AcDbDictionary
281
     1
  0
ACDBDICTIONARYWDFLT
  5
870E2D126945F626
102
{ACAD_REACTORS
330
870E2D126945F624
102
}
330
870E2D126945F624
100
AcDbDictionary
281
     1
  3
Normal
350
870E2D126945F627
100
AcDbDictionaryWithDefault
340
870E2D126945F627
  0
LAYOUT
  5
870E2D126945F635
102
{ACAD_REACTORS
330
870E2D126945F631
102
}
330
870E2D126945F631
100
AcDbPlotSettings
  1

  2
\\ENGPRINTSERV\QMS 2425 Eng Printer
  4

  6

 40
0.0
 41
0.0
 42
0.0
 43
0.0
 44
0.0
 45
0.0
 46
0.0
 47
0.0
 48
0.0
 49
0.0
140
0.0
141
0.0
142
1.0
143
1.0
 70
   688
 72
     0
 73
     0
 74
     5
  7

 75
    16
147
1.0
148
0.0
149
0.0
100
AcDbLayout
  1
Layout1
 70
     0
 71
     1
 10
0.0
 20
0.0
 11
12.0
 21
9.0
 12
0.0
 22
0.0
 32
0.0
 14
1.000000000000000E+20
 24
1.000000000000000E+20
 34
1.000000000000000E+20
 15
-1.000000000000000E+20
 25
-1.000000000000000E+20
 35
-1.000000000000000E+20
146
0.0
 13
0.0
 23
0.0
 33
0.0
 16
1.0
 26
0.0
 36
0.0
 17
0.0
 27
1.0
 37
0.0
 76
     0
330
870E2D126945F632
  0
LAYOUT
  5
870E2D126945F639
102
{ACAD_REACTORS
330
870E2D126945F631
102
}
330
870E2D126945F631
100
AcDbPlotSettings
  1

  2
none_device
  4
Letter_(8.50_x_11.00_Inches)
  6

 40
6.349999904632568
 41
6.349999904632568
 42
6.350006103515625
 43
6.350006103515625
 44
215.8999938964843
 45
279.3999938964843
 46
0.0
 47
0.0
 48
0.0
 49
0.0
140
0.0
141
0.0
142
1.0
143
1.0
 70
 11952
 72
     0
 73
     1
 74
     0
  7

 75
     0
147
1.0
148
99.29791244822101
149
25.74690956073425
100
AcDbLayout
  1
Model
 70
     1
 71
     0
 10
0.0
 20
0.0
 11
12.0
 21
9.0
 12
0.0
 22
0.0
 32
0.0
 14
0.0
 24
0.0
 34
0.0
 15
0.0
 25
0.0
 35
0.0
146
0.0
 13
0.0
 23
0.0
 33
0.0
 16
1.0
 26
0.0
 36
0.0
 17
0.0
 27
1.0
 37
0.0
 76
     0
330
870E2D126945F636
  0
MLINESTYLE
  5
870E2D126945F62F
102
{ACAD_REACTORS
330
870E2D126945F62E
102
}
330
870E2D126945F62E
100
AcDbMlineStyle
  2
STANDARD
 70
     0
  3

 62
   256
 51
90.0
 52
90.0
 71
     2
 49
0.5
 62
   256
  6
BYLAYER
 49
-0.5
 62
   256
  6
BYLAYER
  0
ACDBPLACEHOLDER
  5
870E2D126945F627
102
{ACAD_REACTORS
330
870E2D126945F626
102
}
330
870E2D126945F626
  0
ENDSEC
  0
EOF
