  0
SECTION
  2
HEADER
  9
$ACADVER
  1
AC1015
  9
$ACADMAINTVER
 70
    10
  9
$DWGCODEPAGE
  3
ANSI_1252
  9
$INSBASE
 10
0.0
 20
0.0
 30
0.0
  9
$EXTMIN
 10
5.522999999999987
 20
3.390999999999992
 30
0.0
  9
$EXTMAX
 10
8.269999999999992
 20
7.431999999999995
 30
0.0
  9
$LIMMIN
 10
-108.0
 20
0.0
  9
$LIMMAX
 10
-96.0
 20
9.0
  9
$ORTHOMODE
 70
     1
  9
$REGENMODE
 70
     1
  9
$FILLMODE
 70
     1
  9
$QTEXTMODE
 70
     0
  9
$MIRRTEXT
 70
     1
  9
$LTSCALE
 40
0.5
  9
$ATTMODE
 70
     1
  9
$TEXTSIZE
 40
0.065
  9
$TRACEWID
 40
0.05
  9
$TEXTSTYLE
  7
ADESK1
  9
$CLAYER
  8
WIRE
  9
$CELTYPE
  6
ByLayer
  9
$CECOLOR
 62
   256
  9
$CELTSCALE
 40
1.0
  9
$DISPSILH
 70
     0
  9
$DIMSCALE
 40
1.0
  9
$DIMASZ
 40
0.18
  9
$DIMEXO
 40
0.0625
  9
$DIMDLI
 40
0.38
  9
$DIMRND
 40
0.0
  9
$DIMDLE
 40
0.0
  9
$DIMEXE
 40
0.18
  9
$DIMTP
 40
0.0
  9
$DIMTM
 40
0.0
  9
$DIMTXT
 40
0.18
  9
$DIMCEN
 40
0.09
  9
$DIMTSZ
 40
0.0
  9
$DIMTOL
 70
     0
  9
$DIMLIM
 70
     0
  9
$DIMTIH
 70
     1
  9
$DIMTOH
 70
     1
  9
$DIMSE1
 70
     0
  9
$DIMSE2
 70
     0
  9
$DIMTAD
 70
     0
  9
$DIMZIN
 70
     0
  9
$DIMBLK
  1

  9
$DIMASO
 70
     1
  9
$DIMSHO
 70
     1
  9
$DIMPOST
  1

  9
$DIMAPOST
  1

  9
$DIMALT
 70
     0
  9
$DIMALTD
 70
     2
  9
$DIMALTF
 40
25.4
  9
$DIMLFAC
 40
1.0
  9
$DIMTOFL
 70
     0
  9
$DIMTVP
 40
0.0
  9
$DIMTIX
 70
     0
  9
$DIMSOXD
 70
     0
  9
$DIMSAH
 70
     0
  9
$DIMBLK1
  1

  9
$DIMBLK2
  1

  9
$DIMSTYLE
  2
Standard
  9
$DIMCLRD
 70
     0
  9
$DIMCLRE
 70
     0
  9
$DIMCLRT
 70
     0
  9
$DIMTFAC
 40
1.0
  9
$DIMGAP
 40
0.09
  9
$DIMJUST
 70
     0
  9
$DIMSD1
 70
     0
  9
$DIMSD2
 70
     0
  9
$DIMTOLJ
 70
     1
  9
$DIMTZIN
 70
     0
  9
$DIMALTZ
 70
     0
  9
$DIMALTTZ
 70
     0
  9
$DIMUPT
 70
     0
  9
$DIMDEC
 70
     4
  9
$DIMTDEC
 70
     4
  9
$DIMALTU
 70
     2
  9
$DIMALTTD
 70
     2
  9
$DIMTXSTY
  7
STANDARD
  9
$DIMAUNIT
 70
     0
  9
$DIMADEC
 70
     0
  9
$DIMALTRND
 40
0.0
  9
$DIMAZIN
 70
     0
  9
$DIMDSEP
 70
    46
  9
$DIMATFIT
 70
     3
  9
$DIMFRAC
 70
     0
  9
$DIMLDRBLK
  1

  9
$DIMLUNIT
 70
     2
  9
$DIMLWD
 70
    -2
  9
$DIMLWE
 70
    -2
  9
$DIMTMOVE
 70
     2
  9
$LUNITS
 70
     2
  9
$LUPREC
 70
     4
  9
$SKETCHINC
 40
0.1
  9
$FILLETRAD
 40
0.0
  9
$AUNITS
 70
     0
  9
$AUPREC
 70
     0
  9
$MENU
  1
acad
  9
$ELEVATION
 40
0.0
  9
$PELEVATION
 40
0.0
  9
$THICKNESS
 40
0.0
  9
$LIMCHECK
 70
     0
  9
$CHAMFERA
 40
0.0
  9
$CHAMFERB
 40
0.0
  9
$CHAMFERC
 40
0.0
  9
$CHAMFERD
 40
0.0
  9
$SKPOLY
 70
     0
  9
$TDCREATE
 40
2451722.313244097
  9
$TDUCREATE
 40
2451722.646577430
  9
$TDUPDATE
 40
2453692.458660046
  9
$TDUUPDATE
 40
2453692.791993379
  9
$TDINDWG
 40
0.0848259491
  9
$TDUSRTIMER
 40
0.0848259491
  9
$USRTIMER
 70
     1
  9
$ANGBASE
 50
0.0
  9
$ANGDIR
 70
     0
  9
$PDMODE
 70
     0
  9
$PDSIZE
 40
0.0
  9
$PLINEWID
 40
0.02
  9
$SPLFRAME
 70
     0
  9
$SPLINETYPE
 70
     6
  9
$SPLINESEGS
 70
     8
  9
$HANDSEED
  5
1090
  9
$SURFTAB1
 70
     6
  9
$SURFTAB2
 70
     6
  9
$SURFTYPE
 70
     6
  9
$SURFU
 70
     6
  9
$SURFV
 70
     6
  9
$UCSBASE
  2

  9
$UCSNAME
  2

  9
$UCSORG
 10
8.206920565959556
 20
6.626424050008682
 30
0.0
  9
$UCSXDIR
 10
1.0
 20
0.0
 30
0.0
  9
$UCSYDIR
 10
0.0
 20
1.0
 30
0.0
  9
$UCSORTHOREF
  2

  9
$UCSORTHOVIEW
 70
     0
  9
$UCSORGTOP
 10
0.0
 20
0.0
 30
0.0
  9
$UCSORGBOTTOM
 10
0.0
 20
0.0
 30
0.0
  9
$UCSORGLEFT
 10
0.0
 20
0.0
 30
0.0
  9
$UCSORGRIGHT
 10
0.0
 20
0.0
 30
0.0
  9
$UCSORGFRONT
 10
0.0
 20
0.0
 30
0.0
  9
$UCSORGBACK
 10
0.0
 20
0.0
 30
0.0
  9
$PUCSBASE
  2

  9
$PUCSNAME
  2

  9
$PUCSORG
 10
0.0
 20
0.0
 30
0.0
  9
$PUCSXDIR
 10
1.0
 20
0.0
 30
0.0
  9
$PUCSYDIR
 10
0.0
 20
1.0
 30
0.0
  9
$PUCSORTHOREF
  2

  9
$PUCSORTHOVIEW
 70
     0
  9
$PUCSORGTOP
 10
0.0
 20
0.0
 30
0.0
  9
$PUCSORGBOTTOM
 10
0.0
 20
0.0
 30
0.0
  9
$PUCSORGLEFT
 10
0.0
 20
0.0
 30
0.0
  9
$PUCSORGRIGHT
 10
0.0
 20
0.0
 30
0.0
  9
$PUCSORGFRONT
 10
0.0
 20
0.0
 30
0.0
  9
$PUCSORGBACK
 10
0.0
 20
0.0
 30
0.0
  9
$USERI1
 70
     0
  9
$USERI2
 70
     0
  9
$USERI3
 70
     0
  9
$USERI4
 70
     0
  9
$USERI5
 70
     0
  9
$USERR1
 40
0.0
  9
$USERR2
 40
0.0
  9
$USERR3
 40
0.0
  9
$USERR4
 40
0.0
  9
$USERR5
 40
0.0
  9
$WORLDVIEW
 70
     1
  9
$SHADEDGE
 70
     3
  9
$SHADEDIF
 70
    70
  9
$TILEMODE
 70
     1
  9
$MAXACTVP
 70
    16
  9
$PINSBASE
 10
0.0
 20
0.0
 30
0.0
  9
$PLIMCHECK
 70
     0
  9
$PEXTMIN
 10
-108.0
 20
0.0
 30
0.0
  9
$PEXTMAX
 10
17.0
 20
34.0
 30
0.0
  9
$PLIMMIN
 10
-108.0
 20
0.0
  9
$PLIMMAX
 10
-96.0
 20
9.0
  9
$UNITMODE
 70
     0
  9
$VISRETAIN
 70
     0
  9
$PLINEGEN
 70
     0
  9
$PSLTSCALE
 70
     1
  9
$TREEDEPTH
 70
  3020
  9
$CMLSTYLE
  2
Standard
  9
$CMLJUST
 70
     0
  9
$CMLSCALE
 40
1.0
  9
$PROXYGRAPHICS
 70
     1
  9
$MEASUREMENT
 70
     0
  9
$CELWEIGHT
370
    -1
  9
$ENDCAPS
280
     0
  9
$JOINSTYLE
280
     0
  9
$LWDISPLAY
290
     0
  9
$INSUNITS
 70
     0
  9
$HYPERLINKBASE
  1

  9
$STYLESHEET
  1

  9
$XEDIT
290
     1
  9
$CEPSNTYPE
380
     0
  9
$PSTYLEMODE
290
     1
  9
$FINGERPRINTGUID
  2
{95372BC5-A069-418D-BEE5-BE60159C297E}
  9
$VERSIONGUID
  2
{AC55A0AA-BC45-4E80-A6EA-F0FC6D756744}
  9
$EXTNAMES
290
     1
  9
$PSVPSCALE
 40
0.0
  9
$OLESTARTUP
290
     0
  0
ENDSEC
  0
SECTION
  2
CLASSES
  0
CLASS
  1
ACDBDICTIONARYWDFLT
  2
AcDbDictionaryWithDefault
  3
AutoCAD 2000
 90
        0
280
     0
281
     0
  0
CLASS
  1
ACDBPLACEHOLDER
  2
AcDbPlaceHolder
  3
AutoCAD 2000
 90
        0
280
     0
281
     0
  0
CLASS
  1
LAYOUT
  2
AcDbLayout
  3
AutoCAD 2000
 90
        0
280
     0
281
     0
  0
ENDSEC
  0
SECTION
  2
TABLES
  0
TABLE
  2
VPORT
  5
8
330
0
100
AcDbSymbolTable
 70
     2
  0
VPORT
  5
108F
330
8
100
AcDbSymbolTableRecord
100
AcDbViewportTableRecord
  2
*Active
 70
     0
 10
0.0
 20
0.0
 11
1.0
 21
1.0
 12
116.3806696966232
 22
5.560792613746148
 13
0.0
 23
0.0
 14
0.001
 24
0.001
 15
0.001
 25
0.001
 16
0.0
 26
0.0
 36
1.0
 17
-108.0
 27
0.0
 37
0.0
 40
8.196733179920423
 41
1.767754318618042
 42
50.0
 43
0.0
 44
0.0
 50
0.0
 51
0.0
 71
     0
 72
   100
 73
     1
 74
     1
 75
     1
 76
     1
 77
     0
 78
     0
281
     0
 65
     1
110
8.206920565959556
120
6.626424050008682
130
0.0
111
1.0
121
0.0
131
0.0
112
0.0
122
1.0
132
0.0
 79
     0
146
0.0
  0
ENDTAB
  0
TABLE
  2
LTYPE
  5
5
330
0
100
AcDbSymbolTable
 70
     1
  0
LTYPE
  5
13
330
5
100
AcDbSymbolTableRecord
100
AcDbLinetypeTableRecord
  2
ByBlock
 70
     0
  3

 72
    65
 73
     0
 40
0.0
  0
LTYPE
  5
14
330
5
100
AcDbSymbolTableRecord
100
AcDbLinetypeTableRecord
  2
ByLayer
 70
     0
  3

 72
    65
 73
     0
 40
0.0
  0
LTYPE
  5
15
330
5
100
AcDbSymbolTableRecord
100
AcDbLinetypeTableRecord
  2
CONTINUOUS
 70
     0
  3
Solid line
 72
    65
 73
     0
 40
0.0
  0
ENDTAB
  0
TABLE
  2
LAYER
  5
2
330
0
100
AcDbSymbolTable
 70
     3
  0
LAYER
  5
10
330
2
100
AcDbSymbolTableRecord
100
AcDbLayerTableRecord
  2
0
 70
     0
 62
     7
  6
CONTINUOUS
370
    -3
390
F
  0
LAYER
  5
85
330
2
100
AcDbSymbolTableRecord
100
AcDbLayerTableRecord
  2
DEFPOINTS
 70
     0
 62
     7
  6
CONTINUOUS
290
     0
370
    -3
390
F
  0
LAYER
  5
86
330
2
100
AcDbSymbolTableRecord
100
AcDbLayerTableRecord
  2
WIRE
 70
     0
 62
     7
  6
CONTINUOUS
370
    -3
390
F
  0
ENDTAB
  0
TABLE
  2
STYLE
  5
3
330
0
100
AcDbSymbolTable
 70
     2
  0
STYLE
  5
11
330
3
100
AcDbSymbolTableRecord
100
AcDbTextStyleTableRecord
  2
STANDARD
 70
     0
 40
0.0
 41
1.0
 50
0.0
 71
     0
 42
0.2
  3
txt
  4

  0
STYLE
  5
7D
330
3
100
AcDbSymbolTableRecord
100
AcDbTextStyleTableRecord
  2
ADESK1
 70
     0
 40
0.0
 41
1.0
 50
0.0
 71
     0
 42
0.065
  3
romans
  4

  0
ENDTAB
  0
TABLE
  2
VIEW
  5
6
330
0
100
AcDbSymbolTable
 70
     0
  0
ENDTAB
  0
TABLE
  2
UCS
  5
7
330
0
100
AcDbSymbolTable
 70
     0
  0
ENDTAB
  0
TABLE
  2
APPID
  5
9
330
0
100
AcDbSymbolTable
 70
     1
  0
APPID
  5
12
330
9
100
AcDbSymbolTableRecord
100
AcDbRegAppTableRecord
  2
ACAD
 70
     0
  0
ENDTAB
  0
TABLE
  2
DIMSTYLE
  5
A
330
0
100
AcDbSymbolTable
 70
     1
100
AcDbDimStyleTable
 71
     0
  0
DIMSTYLE
105
DF4
330
A
100
AcDbSymbolTableRecord
100
AcDbDimStyleTableRecord
  2
Standard
 70
     0
340
11
  0
ENDTAB
  0
TABLE
  2
BLOCK_RECORD
  5
1
330
0
100
AcDbSymbolTable
 70
     0
  0
BLOCK_RECORD
  5
1E
330
1
100
AcDbSymbolTableRecord
100
AcDbBlockTableRecord
  2
*Model_Space
340
21
  0
BLOCK_RECORD
  5
1A
330
1
100
AcDbSymbolTableRecord
100
AcDbBlockTableRecord
  2
*Paper_Space
340
1D
  0
ENDTAB
  0
ENDSEC
  0
SECTION
  2
BLOCKS
  0
BLOCK
  5
8B
330
1E
100
AcDbEntity
  8
0
100
AcDbBlockBegin
  2
*Model_Space
 70
     0
 10
0.0
 20
0.0
 30
0.0
  3
*Model_Space
  1

  0
ENDBLK
  5
8C
330
1E
100
AcDbEntity
  8
0
100
AcDbBlockEnd
  0
BLOCK
  5
89
330
1A
100
AcDbEntity
 67
     1
  8
0
100
AcDbBlockBegin
  2
*Paper_Space
 70
     0
 10
0.0
 20
0.0
 30
0.0
  3
*Paper_Space
  1

  0
ENDBLK
  5
8A
330
1A
100
AcDbEntity
 67
     1
  8
0
100
AcDbBlockEnd
  0
ENDSEC
  0
SECTION
  2
ENTITIES
  0
LINE
  5
C36
330
1E
100
AcDbEntity
  8
0
100
AcDbLine
 10
8.269999999999988
 20
4.494999999999992
 30
0.0
 11
8.269999999999988
 21
6.327999999999992
 31
0.0
  0
LINE
  5
C37
330
1E
100
AcDbEntity
  8
0
100
AcDbLine
 10
5.522999999999989
 20
6.327999999999992
 30
0.0
 11
5.522999999999989
 21
4.494999999999992
 31
0.0
  0
LINE
  5
C4F
330
1E
100
AcDbEntity
  8
0
100
AcDbLine
 10
5.522999999999989
 20
4.494999999999992
 30
0.0
 11
8.269999999999988
 21
4.494999999999992
 31
0.0
  0
LINE
  5
C50
330
1E
100
AcDbEntity
  8
0
100
AcDbLine
 10
8.269999999999988
 20
4.218999999999992
 30
0.0
 11
5.522999999999989
 21
4.218999999999992
 31
0.0
  0
LINE
  5
C51
330
1E
100
AcDbEntity
  8
0
100
AcDbLine
 10
8.269999999999988
 20
3.720999999999992
 30
0.0
 11
5.522999999999989
 21
3.720999999999992
 31
0.0
  0
LINE
  5
C52
330
1E
100
AcDbEntity
  8
0
100
AcDbLine
 10
8.110999999999989
 20
3.390999999999992
 30
0.0
 11
5.672999999999995
 21
3.390999999999992
 31
0.0
  0
LINE
  5
C53
330
1E
100
AcDbEntity
  8
0
100
AcDbLine
 10
8.110999999999989
 20
3.638999999999992
 30
0.0
 11
5.672999999999995
 21
3.638999999999992
 31
0.0
  0
LINE
  5
C54
330
1E
100
AcDbEntity
  8
0
100
AcDbLine
 10
5.522999999999989
 20
3.720999999999992
 30
0.0
 11
5.522999999999989
 21
4.218999999999992
 31
0.0
  0
CIRCLE
  5
C6D
330
1E
100
AcDbEntity
  8
0
100
AcDbCircle
 10
6.480999999999988
 20
3.519999999999992
 30
0.0
 40
0.0389999999999999
  0
CIRCLE
  5
C70
330
1E
100
AcDbEntity
  8
0
100
AcDbCircle
 10
6.069999999999986
 20
3.519999999999992
 30
0.0
 40
0.0389999999999999
  0
CIRCLE
  5
C71
330
1E
100
AcDbEntity
  8
0
100
AcDbCircle
 10
6.206999999999987
 20
3.519999999999992
 30
0.0
 40
0.0389999999999999
  0
LINE
  5
C75
330
1E
100
AcDbEntity
  8
0
100
AcDbLine
 10
5.672999999999995
 20
3.390999999999992
 30
0.0
 11
5.672999999999995
 21
3.721999999999992
 31
0.0
  0
CIRCLE
  5
C76
330
1E
100
AcDbEntity
  8
0
100
AcDbCircle
 10
5.795999999999993
 20
3.519999999999992
 30
0.0
 40
0.0389999999999999
  0
CIRCLE
  5
C78
330
1E
100
AcDbEntity
  8
0
100
AcDbCircle
 10
5.932999999999993
 20
3.519999999999992
 30
0.0
 40
0.0389999999999999
  0
CIRCLE
  5
C79
330
1E
100
AcDbEntity
  8
0
100
AcDbCircle
 10
6.343999999999987
 20
3.519999999999992
 30
0.0
 40
0.0389999999999999
  0
CIRCLE
  5
C7D
330
1E
100
AcDbEntity
  8
0
100
AcDbCircle
 10
7.713999999999992
 20
3.519999999999992
 30
0.0
 40
0.0389999999999999
  0
CIRCLE
  5
C7E
330
1E
100
AcDbEntity
  8
0
100
AcDbCircle
 10
7.850999999999992
 20
3.519999999999992
 30
0.0
 40
0.0389999999999999
  0
CIRCLE
  5
C81
330
1E
100
AcDbEntity
  8
0
100
AcDbCircle
 10
7.439999999999991
 20
3.519999999999992
 30
0.0
 40
0.0389999999999999
  0
CIRCLE
  5
C82
330
1E
100
AcDbEntity
  8
0
100
AcDbCircle
 10
7.303999999999995
 20
3.519999999999992
 30
0.0
 40
0.0389999999999999
  0
CIRCLE
  5
C85
330
1E
100
AcDbEntity
  8
0
100
AcDbCircle
 10
7.574999999999989
 20
3.519999999999992
 30
0.0
 40
0.0389999999999999
  0
CIRCLE
  5
C87
330
1E
100
AcDbEntity
  8
0
100
AcDbCircle
 10
7.02899999999999
 20
3.519999999999992
 30
0.0
 40
0.0389999999999999
  0
CIRCLE
  5
C88
330
1E
100
AcDbEntity
  8
0
100
AcDbCircle
 10
6.891999999999989
 20
3.519999999999992
 30
0.0
 40
0.0389999999999999
  0
CIRCLE
  5
C8C
330
1E
100
AcDbEntity
  8
0
100
AcDbCircle
 10
6.617999999999988
 20
3.519999999999992
 30
0.0
 40
0.0389999999999999
  0
CIRCLE
  5
C8E
330
1E
100
AcDbEntity
  8
0
100
AcDbCircle
 10
6.754999999999989
 20
3.519999999999992
 30
0.0
 40
0.0389999999999999
  0
CIRCLE
  5
C8F
330
1E
100
AcDbEntity
  8
0
100
AcDbCircle
 10
7.16599999999999
 20
3.519999999999992
 30
0.0
 40
0.0389999999999999
  0
LINE
  5
C97
330
1E
100
AcDbEntity
  8
0
100
AcDbLine
 10
5.522999999999989
 20
4.218999999999992
 30
0.0
 11
5.522999999999989
 21
4.494999999999992
 31
0.0
  0
LINE
  5
C98
330
1E
100
AcDbEntity
  8
0
100
AcDbLine
 10
8.269999999999988
 20
4.218999999999992
 30
0.0
 11
8.269999999999988
 21
3.720999999999992
 31
0.0
  0
LINE
  5
CA3
330
1E
100
AcDbEntity
  8
0
100
AcDbLine
 10
8.110999999999989
 20
3.721999999999992
 30
0.0
 11
8.110999999999989
 21
3.390999999999992
 31
0.0
  0
CIRCLE
  5
CA4
330
1E
100
AcDbEntity
  8
0
100
AcDbCircle
 10
7.987999999999993
 20
3.519999999999992
 30
0.0
 40
0.0389999999999999
  0
LINE
  5
CA7
330
1E
100
AcDbEntity
  8
0
100
AcDbLine
 10
8.269999999999988
 20
4.494999999999992
 30
0.0
 11
8.269999999999988
 21
4.218999999999992
 31
0.0
  0
LINE
  5
CB4
330
1E
100
AcDbEntity
  8
0
100
AcDbLine
 10
8.269999999999988
 20
6.327999999999992
 30
0.0
 11
5.522999999999989
 21
6.327999999999992
 31
0.0
  0
LINE
  5
CB7
330
1E
100
AcDbEntity
  8
0
100
AcDbLine
 10
5.672999999999988
 20
7.183999999999995
 30
0.0
 11
7.377920565959557
 21
7.183999999999995
 31
0.0
  0
LINE
  5
CB8
330
1E
100
AcDbEntity
  8
0
100
AcDbLine
 10
5.672999999999988
 20
7.431999999999995
 30
0.0
 11
7.377920565959557
 21
7.431999999999995
 31
0.0
  0
CIRCLE
  5
CBB
330
1E
100
AcDbEntity
  8
0
100
AcDbCircle
 10
6.463920565959553
 20
7.302999999999995
 30
0.0
 40
0.0389999999999999
  0
CIRCLE
  5
CBE
330
1E
100
AcDbEntity
  8
0
100
AcDbCircle
 10
6.05392056595955
 20
7.302999999999995
 30
0.0
 40
0.0389999999999999
  0
CIRCLE
  5
CC0
330
1E
100
AcDbEntity
  8
0
100
AcDbCircle
 10
6.192920565959552
 20
7.302999999999995
 30
0.0
 40
0.0389999999999999
  0
CIRCLE
  5
CC4
330
1E
100
AcDbEntity
  8
0
100
AcDbCircle
 10
5.779920565959549
 20
7.302999999999995
 30
0.0
 40
0.0389999999999999
  0
LINE
  5
CC5
330
1E
100
AcDbEntity
  8
0
100
AcDbLine
 10
5.672999999999988
 20
7.100999999999995
 30
0.0
 11
5.672999999999988
 21
7.431999999999995
 31
0.0
  0
CIRCLE
  5
CC6
330
1E
100
AcDbEntity
  8
0
100
AcDbCircle
 10
5.916920565959556
 20
7.302999999999995
 30
0.0
 40
0.0389999999999999
  0
CIRCLE
  5
CC7
330
1E
100
AcDbEntity
  8
0
100
AcDbCircle
 10
6.32792056595955
 20
7.302999999999995
 30
0.0
 40
0.0389999999999999
  0
CIRCLE
  5
CD3
330
1E
100
AcDbEntity
  8
0
100
AcDbCircle
 10
7.286920565959554
 20
7.302999999999995
 30
0.0
 40
0.0389999999999999
  0
CIRCLE
  5
CD9
330
1E
100
AcDbEntity
  8
0
100
AcDbCircle
 10
7.012920565959553
 20
7.302999999999995
 30
0.0
 40
0.0389999999999999
  0
CIRCLE
  5
CDB
330
1E
100
AcDbEntity
  8
0
100
AcDbCircle
 10
6.875920565959552
 20
7.302999999999995
 30
0.0
 40
0.0389999999999999
  0
CIRCLE
  5
CDE
330
1E
100
AcDbEntity
  8
0
100
AcDbCircle
 10
6.601920565959551
 20
7.302999999999995
 30
0.0
 40
0.0389999999999999
  0
CIRCLE
  5
CDF
330
1E
100
AcDbEntity
  8
0
100
AcDbCircle
 10
6.738920565959552
 20
7.302999999999995
 30
0.0
 40
0.0389999999999999
  0
CIRCLE
  5
CE0
330
1E
100
AcDbEntity
  8
0
100
AcDbCircle
 10
7.149920565959553
 20
7.302999999999995
 30
0.0
 40
0.0389999999999999
  0
LINE
  5
CEC
330
1E
100
AcDbEntity
  8
0
100
AcDbLine
 10
7.377920565959557
 20
7.431999999999995
 30
0.0
 11
7.377920565959557
 21
7.100999999999995
 31
0.0
  0
LINE
  5
D3D
330
1E
100
AcDbEntity
  8
0
100
AcDbLine
 10
7.944999999999999
 20
4.960999999999997
 30
0.0
 11
7.944999999999999
 21
4.690999999999998
 31
0.0
  0
LINE
  5
D3E
330
1E
100
AcDbEntity
  8
0
100
AcDbLine
 10
6.780999999999999
 20
4.960999999999997
 30
0.0
 11
6.780999999999999
 21
4.690999999999998
 31
0.0
  0
LINE
  5
D3F
330
1E
100
AcDbEntity
  8
0
100
AcDbLine
 10
7.995000000000001
 20
4.625999999999998
 30
0.0
 11
7.995000000000001
 21
5.025999999999998
 31
0.0
  0
LINE
  5
D40
330
1E
100
AcDbEntity
  8
0
100
AcDbLine
 10
8.181
 20
4.610999999999997
 30
0.0
 11
8.181
 21
6.210999999999997
 31
0.0
  0
LINE
  5
D41
330
1E
100
AcDbEntity
  8
0
100
AcDbLine
 10
6.730999999999998
 20
4.625999999999998
 30
0.0
 11
6.730999999999998
 21
5.025999999999998
 31
0.0
  0
LINE
  5
D42
330
1E
100
AcDbEntity
  8
0
100
AcDbLine
 10
6.417000000000002
 20
5.217999999999999
 30
0.0
 11
6.417000000000002
 21
4.691999999999999
 31
0.0
  0
LINE
  5
D43
330
1E
100
AcDbEntity
  8
0
100
AcDbLine
 10
6.677999999999999
 20
4.691999999999999
 30
0.0
 11
6.677999999999999
 21
5.217999999999999
 31
0.0
  0
LINE
  5
D44
330
1E
100
AcDbEntity
  8
0
100
AcDbLine
 10
6.124000000000001
 20
5.182999999999995
 30
0.0
 11
6.123999999999999
 21
4.695999999999998
 31
0.0
  0
LINE
  5
D45
330
1E
100
AcDbEntity
  8
0
100
AcDbLine
 10
5.821
 20
4.695999999999998
 30
0.0
 11
5.821000000000002
 21
5.182999999999995
 31
0.0
  0
TEXT
  5
D46
330
1E
100
AcDbEntity
  8
0
100
AcDbText
 10
5.697999999999999
 20
4.722999999999996
 30
0.0
 40
0.05
  1
DC POWER
 50
90.0
100
AcDbText
  0
TEXT
  5
D47
330
1E
100
AcDbEntity
  8
0
100
AcDbText
 10
5.790000000000001
 20
4.739999999999999
 30
0.0
 40
0.05
  1
10-30Vdc
 50
90.0
100
AcDbText
  0
LINE
  5
D48
330
1E
100
AcDbEntity
  8
0
100
AcDbLine
 10
5.610999999999999
 20
6.210999999999997
 30
0.0
 11
5.610999999999999
 21
4.610999999999997
 31
0.0
  0
LINE
  5
D49
330
1E
100
AcDbEntity
  8
0
100
AcDbLine
 10
5.827999999999991
 20
5.16599999999999
 30
0.0
 11
5.827999999999991
 21
4.715999999999991
 31
0.0
  0
LINE
  5
D4A
330
1E
100
AcDbEntity
  8
0
100
AcDbLine
 10
6.116999999999998
 20
4.715999999999991
 30
0.0
 11
6.116999999999998
 21
5.16599999999999
 31
0.0
  0
LINE
  5
D4B
330
1E
100
AcDbEntity
  8
0
100
AcDbLine
 10
6.796
 20
4.675999999999997
 30
0.0
 11
7.929999999999998
 21
4.675999999999997
 31
0.0
  0
LINE
  5
D4C
330
1E
100
AcDbEntity
  8
0
100
AcDbLine
 10
5.626
 20
4.595999999999999
 30
0.0
 11
8.166
 21
4.595999999999999
 31
0.0
  0
ARC
  5
D4D
330
1E
100
AcDbEntity
  8
0
100
AcDbCircle
 10
5.626
 20
4.610999999999997
 30
0.0
 40
0.015
100
AcDbArc
 50
180.0
 51
270.0
  0
LINE
  5
D4E
330
1E
100
AcDbEntity
  8
0
100
AcDbLine
 10
6.520000000000002
 20
4.691999999999999
 30
0.0
 11
6.417000000000002
 21
4.691999999999999
 31
0.0
  0
LINE
  5
D4F
330
1E
100
AcDbEntity
  8
0
100
AcDbLine
 10
6.124000000000001
 20
4.793
 30
0.0
 11
6.233000000000001
 21
4.793
 31
0.0
  0
LINE
  5
D50
330
1E
100
AcDbEntity
  8
0
100
AcDbLine
 10
6.193000000000002
 20
4.774999999999999
 30
0.0
 11
6.177000000000002
 21
4.729999999999995
 31
0.0
  0
LINE
  5
D51
330
1E
100
AcDbEntity
  8
0
100
AcDbLine
 10
6.233000000000001
 20
4.774999999999999
 30
0.0
 11
6.217000000000001
 21
4.729999999999995
 31
0.0
  0
LINE
  5
D52
330
1E
100
AcDbEntity
  8
0
100
AcDbLine
 10
6.233000000000001
 20
4.793
 30
0.0
 11
6.233000000000001
 21
4.774999999999999
 31
0.0
  0
LINE
  5
D53
330
1E
100
AcDbEntity
  8
0
100
AcDbLine
 10
6.193000000000002
 20
4.774999999999999
 30
0.0
 11
6.271000000000001
 21
4.774999999999999
 31
0.0
  0
LINE
  5
D54
330
1E
100
AcDbEntity
  8
0
100
AcDbLine
 10
6.271000000000001
 20
4.774999999999999
 30
0.0
 11
6.255000000000001
 21
4.729999999999995
 31
0.0
  0
LINE
  5
D55
330
1E
100
AcDbEntity
  8
0
100
AcDbLine
 10
6.123999999999999
 20
4.695999999999998
 30
0.0
 11
5.821
 21
4.695999999999998
 31
0.0
  0
LINE
  5
D5C
330
1E
100
AcDbEntity
  8
0
100
AcDbLine
 10
5.827999999999991
 20
4.715999999999991
 30
0.0
 11
6.116999999999998
 21
4.715999999999991
 31
0.0
  0
ARC
  5
D5D
330
1E
100
AcDbEntity
  8
0
100
AcDbCircle
 10
6.796
 20
4.690999999999998
 30
0.0
 40
0.0150000000000001
100
AcDbArc
 50
180.0
 51
270.0
  0
CIRCLE
  5
D5E
330
1E
100
AcDbEntity
  8
0
100
AcDbCircle
 10
6.544999999999999
 20
4.785999999999998
 30
0.0
 40
0.038
  0
LINE
  5
D5F
330
1E
100
AcDbEntity
  8
0
100
AcDbLine
 10
6.677999999999999
 20
4.691999999999999
 30
0.0
 11
6.575000000000001
 21
4.691999999999999
 31
0.0
  0
ARC
  5
D60
330
1E
100
AcDbEntity
  8
0
100
AcDbCircle
 10
8.166
 20
4.610999999999997
 30
0.0
 40
0.0150000000000001
100
AcDbArc
 50
270.0
 51
0.0
  0
ARC
  5
D61
330
1E
100
AcDbEntity
  8
0
100
AcDbCircle
 10
7.93
 20
4.690999999999998
 30
0.0
 40
0.0150000000000004
100
AcDbArc
 50
269.9999999999991
 51
359.9999999999991
  0
LINE
  5
D62
330
1E
100
AcDbEntity
  8
0
100
AcDbLine
 10
7.929999999999998
 20
4.975999999999998
 30
0.0
 11
6.796
 21
4.975999999999998
 31
0.0
  0
LINE
  5
D63
330
1E
100
AcDbEntity
  8
0
100
AcDbLine
 10
6.730999999999998
 20
5.025999999999998
 30
0.0
 11
7.995000000000001
 21
5.025999999999998
 31
0.0
  0
LINE
  5
D64
330
1E
100
AcDbEntity
  8
0
100
AcDbLine
 10
8.166
 20
6.225999999999998
 30
0.0
 11
5.626
 21
6.225999999999998
 31
0.0
  0
LINE
  5
D65
330
1E
100
AcDbEntity
  8
0
100
AcDbLine
 10
6.802999999999999
 20
6.094999999999997
 30
0.0
 11
6.802999999999999
 21
5.400999999999998
 31
0.0
  0
LINE
  5
D66
330
1E
100
AcDbEntity
  8
0
100
AcDbLine
 10
7.588999999999999
 20
6.094999999999997
 30
0.0
 11
7.588999999999999
 21
5.400999999999998
 31
0.0
  0
LINE
  5
D67
330
1E
100
AcDbEntity
  8
0
100
AcDbLine
 10
6.237
 20
5.599999999999996
 30
0.0
 11
6.237
 21
5.620999999999995
 31
0.0
  0
LINE
  5
D68
330
1E
100
AcDbEntity
  8
0
100
AcDbLine
 10
6.417000000000002
 20
5.867999999999997
 30
0.0
 11
6.417000000000002
 21
5.346999999999998
 31
0.0
  0
LINE
  5
D69
330
1E
100
AcDbEntity
  8
0
100
AcDbLine
 10
6.677999999999999
 20
5.346999999999998
 30
0.0
 11
6.677999999999999
 21
5.867999999999997
 31
0.0
  0
TEXT
  5
D6A
330
1E
100
AcDbEntity
  8
0
100
AcDbText
 10
5.697000000000001
 20
5.533999999999996
 30
0.0
 40
0.05
  1
COMM
 50
90.0
100
AcDbText
  0
LINE
  5
D6B
330
1E
100
AcDbEntity
  8
0
100
AcDbLine
 10
6.123999999999999
 20
5.232999999999996
 30
0.0
 11
6.123999999999999
 21
6.143999999999995
 31
0.0
  0
LINE
  5
D6C
330
1E
100
AcDbEntity
  8
0
100
AcDbLine
 10
5.821
 20
6.143999999999995
 30
0.0
 11
5.821
 21
5.232999999999996
 31
0.0
  0
LINE
  5
D73
330
1E
100
AcDbEntity
  8
0
100
AcDbLine
 10
5.82599999999999
 20
5.267999999999998
 30
0.0
 11
5.82599999999999
 21
6.11099999999999
 31
0.0
  0
LINE
  5
D74
330
1E
100
AcDbEntity
  8
0
100
AcDbLine
 10
6.118999999999998
 20
6.11099999999999
 30
0.0
 11
6.118999999999998
 21
5.267999999999998
 31
0.0
  0
CIRCLE
  5
D75
330
1E
100
AcDbEntity
  8
0
100
AcDbCircle
 10
6.995999999999999
 20
5.145999999999998
 30
0.0
 40
0.075
  0
CIRCLE
  5
D76
330
1E
100
AcDbEntity
  8
0
100
AcDbCircle
 10
7.395999999999999
 20
5.145999999999998
 30
0.0
 40
0.0750000000000002
  0
CIRCLE
  5
D77
330
1E
100
AcDbEntity
  8
0
100
AcDbCircle
 10
6.544999999999999
 20
5.060999999999999
 30
0.0
 40
0.038
  0
TEXT
  5
D78
330
1E
100
AcDbEntity
  8
0
100
AcDbText
 10
6.450000000000001
 20
4.871999999999995
 30
0.0
 40
0.05
  1
LPWR
100
AcDbText
  0
TEXT
  5
D79
330
1E
100
AcDbEntity
  8
0
100
AcDbText
 10
6.147079434040427
 20
4.880999999999997
 30
0.0
 40
0.1
  1
-
100
AcDbText
  0
ARC
  5
D80
330
1E
100
AcDbEntity
  8
0
100
AcDbCircle
 10
6.796
 20
4.960999999999997
 30
0.0
 40
0.0149999999999999
100
AcDbArc
 50
89.9999999999992
 51
179.9999999999991
  0
LINE
  5
D81
330
1E
100
AcDbEntity
  8
0
100
AcDbLine
 10
6.520000000000002
 20
5.217999999999999
 30
0.0
 11
6.417000000000002
 21
5.217999999999999
 31
0.0
  0
TEXT
  5
D82
330
1E
100
AcDbEntity
  8
0
100
AcDbText
 10
6.147079434040427
 20
5.017999999999998
 30
0.0
 40
0.1
  1
+
100
AcDbText
  0
LINE
  5
D83
330
1E
100
AcDbEntity
  8
0
100
AcDbLine
 10
5.821000000000002
 20
5.182999999999995
 30
0.0
 11
6.124000000000001
 21
5.182999999999995
 31
0.0
  0
LINE
  5
D8A
330
1E
100
AcDbEntity
  8
0
100
AcDbLine
 10
6.116999999999998
 20
5.16599999999999
 30
0.0
 11
5.827999999999991
 21
5.16599999999999
 31
0.0
  0
LINE
  5
D8B
330
1E
100
AcDbEntity
  8
0
100
AcDbLine
 10
6.677999999999999
 20
5.217999999999999
 30
0.0
 11
6.575000000000001
 21
5.217999999999999
 31
0.0
  0
TEXT
  5
D8C
330
1E
100
AcDbEntity
  8
0
100
AcDbText
 10
6.482000000000001
 20
5.140999999999997
 30
0.0
 40
0.05
  1
I/O
100
AcDbText
  0
CIRCLE
  5
D8D
330
1E
100
AcDbEntity
  8
0
100
AcDbCircle
 10
6.544999999999999
 20
5.435999999999999
 30
0.0
 40
0.038
  0
TEXT
  5
D8E
330
1E
100
AcDbEntity
  8
0
100
AcDbText
 10
5.790000000000001
 20
5.294999999999995
 30
0.0
 40
0.05
  1
RS-232
 50
90.0
100
AcDbText
  0
LINE
  5
D8F
330
1E
100
AcDbEntity
  8
0
100
AcDbLine
 10
6.520000000000002
 20
5.346999999999998
 30
0.0
 11
6.417000000000002
 21
5.346999999999998
 31
0.0
  0
TEXT
  5
D96
330
1E
100
AcDbEntity
  8
0
100
AcDbText
 10
6.158000000000002
 20
5.312999999999999
 30
0.0
 40
0.06
  1
XMIT
100
AcDbText
  0
LINE
  5
D97
330
1E
100
AcDbEntity
  8
0
100
AcDbLine
 10
5.821000000000002
 20
5.232999999999996
 30
0.0
 11
6.124000000000001
 21
5.232999999999996
 31
0.0
  0
LINE
  5
D98
330
1E
100
AcDbEntity
  8
0
100
AcDbLine
 10
6.118999999999998
 20
5.267999999999998
 30
0.0
 11
5.82599999999999
 21
5.267999999999998
 31
0.0
  0
ARC
  5
D99
330
1E
100
AcDbEntity
  8
0
100
AcDbCircle
 10
7.573999999999998
 20
5.400999999999998
 30
0.0
 40
0.0150000000000004
100
AcDbArc
 50
269.9999999999991
 51
359.9999999999991
  0
LINE
  5
D9A
330
1E
100
AcDbEntity
  8
0
100
AcDbLine
 10
7.395000000000002
 20
5.282999999999998
 30
0.0
 11
7.395000000000002
 21
5.252999999999999
 31
0.0
  0
LINE
  5
D9B
330
1E
100
AcDbEntity
  8
0
100
AcDbLine
 10
7.455000000000002
 20
5.302999999999998
 30
0.0
 11
7.395000000000002
 21
5.252999999999999
 31
0.0
  0
LINE
  5
D9C
330
1E
100
AcDbEntity
  8
0
100
AcDbLine
 10
7.395000000000002
 20
5.342999999999999
 30
0.0
 11
7.395000000000002
 21
5.312999999999997
 31
0.0
  0
LINE
  5
D9D
330
1E
100
AcDbEntity
  8
0
100
AcDbLine
 10
7.455000000000002
 20
5.302999999999998
 30
0.0
 11
7.395000000000002
 21
5.342999999999999
 31
0.0
  0
LINE
  5
D9E
330
1E
100
AcDbEntity
  8
0
100
AcDbLine
 10
7.345000000000001
 20
5.312999999999997
 30
0.0
 11
7.345000000000001
 21
5.282999999999998
 31
0.0
  0
LINE
  5
D9F
330
1E
100
AcDbEntity
  8
0
100
AcDbLine
 10
6.937
 20
5.296999999999994
 30
0.0
 11
6.997
 21
5.256999999999993
 31
0.0
  0
LINE
  5
DA0
330
1E
100
AcDbEntity
  8
0
100
AcDbLine
 10
6.937
 20
5.296999999999994
 30
0.0
 11
6.997
 21
5.346999999999993
 31
0.0
  0
LINE
  5
DA1
330
1E
100
AcDbEntity
  8
0
100
AcDbLine
 10
6.997
 20
5.256999999999993
 30
0.0
 11
6.997
 21
5.286999999999994
 31
0.0
  0
LINE
  5
DA2
330
1E
100
AcDbEntity
  8
0
100
AcDbLine
 10
7.047000000000001
 20
5.286999999999994
 30
0.0
 11
7.047000000000001
 21
5.316999999999993
 31
0.0
  0
LINE
  5
DA3
330
1E
100
AcDbEntity
  8
0
100
AcDbLine
 10
7.047000000000001
 20
5.316999999999993
 30
0.0
 11
6.997
 21
5.316999999999993
 31
0.0
  0
LINE
  5
DA4
330
1E
100
AcDbEntity
  8
0
100
AcDbLine
 10
6.997
 20
5.286999999999994
 30
0.0
 11
7.047000000000001
 21
5.286999999999994
 31
0.0
  0
LINE
  5
DA5
330
1E
100
AcDbEntity
  8
0
100
AcDbLine
 10
6.997
 20
5.316999999999993
 30
0.0
 11
6.997
 21
5.346999999999993
 31
0.0
  0
ARC
  5
DA6
330
1E
100
AcDbEntity
  8
0
100
AcDbCircle
 10
6.818
 20
5.400999999999998
 30
0.0
 40
0.0150000000000001
100
AcDbArc
 50
180.0
 51
270.0
  0
LINE
  5
DA7
330
1E
100
AcDbEntity
  8
0
100
AcDbLine
 10
7.573999999999998
 20
5.385999999999998
 30
0.0
 11
6.817999999999998
 21
5.385999999999998
 31
0.0
  0
LINE
  5
DA8
330
1E
100
AcDbEntity
  8
0
100
AcDbLine
 10
7.395000000000002
 20
5.312999999999997
 30
0.0
 11
7.345000000000001
 21
5.312999999999997
 31
0.0
  0
LINE
  5
DA9
330
1E
100
AcDbEntity
  8
0
100
AcDbLine
 10
7.345000000000001
 20
5.282999999999998
 30
0.0
 11
7.395000000000002
 21
5.282999999999998
 31
0.0
  0
LINE
  5
DAA
330
1E
100
AcDbEntity
  8
0
100
AcDbLine
 10
6.677999999999999
 20
5.346999999999998
 30
0.0
 11
6.575000000000001
 21
5.346999999999998
 31
0.0
  0
LINE
  5
DB1
330
1E
100
AcDbEntity
  8
0
100
AcDbLine
 10
6.199
 20
5.599999999999996
 30
0.0
 11
6.237
 21
5.533999999999994
 31
0.0
  0
LINE
  5
DB2
330
1E
100
AcDbEntity
  8
0
100
AcDbLine
 10
6.237
 20
5.533999999999994
 30
0.0
 11
6.275000000000001
 21
5.599999999999996
 31
0.0
  0
LINE
  5
DB3
330
1E
100
AcDbEntity
  8
0
100
AcDbLine
 10
6.275000000000001
 20
5.599999999999996
 30
0.0
 11
6.199
 21
5.599999999999996
 31
0.0
  0
TEXT
  5
DB4
330
1E
100
AcDbEntity
  8
0
100
AcDbText
 10
6.158000000000002
 20
5.453999999999999
 30
0.0
 40
0.06
  1
RCV
100
AcDbText
  0
TEXT
  5
DB5
330
1E
100
AcDbEntity
  8
0
100
AcDbText
 10
6.482
 20
5.530999999999999
 30
0.0
 40
0.05
  1
RCV
100
AcDbText
  0
CIRCLE
  5
DB6
330
1E
100
AcDbEntity
  8
0
100
AcDbCircle
 10
6.544999999999999
 20
5.985999999999999
 30
0.0
 40
0.038
  0
TEXT
  5
DB7
330
1E
100
AcDbEntity
  8
0
100
AcDbText
 10
6.158000000000002
 20
5.980999999999997
 30
0.0
 40
0.08
  1
T+
100
AcDbText
  0
TEXT
  5
DBF
330
1E
100
AcDbEntity
  8
0
100
AcDbText
 10
6.459999999999999
 20
5.798999999999998
 30
0.0
 40
0.05
  1
XMIT
100
AcDbText
  0
TEXT
  5
DC0
330
1E
100
AcDbEntity
  8
0
100
AcDbText
 10
5.790000000000001
 20
5.714999999999995
 30
0.0
 40
0.05
  1
RS-485
 50
90.0
100
AcDbText
  0
TEXT
  5
DC2
330
1E
100
AcDbEntity
  8
0
100
AcDbText
 10
6.154
 20
5.706
 30
0.0
 40
0.1
  1
-
100
AcDbText
  0
LINE
  5
DC3
330
1E
100
AcDbEntity
  8
0
100
AcDbLine
 10
6.237
 20
5.620999999999995
 30
0.0
 11
6.124000000000001
 21
5.620999999999995
 31
0.0
  0
LINE
  5
DC4
330
1E
100
AcDbEntity
  8
0
100
AcDbLine
 10
5.822000000000001
 20
5.621999999999995
 30
0.0
 11
5.721
 21
5.621999999999995
 31
0.0
  0
CIRCLE
  5
DCB
330
1E
100
AcDbEntity
  8
0
100
AcDbCircle
 10
6.544999999999999
 20
5.710999999999997
 30
0.0
 40
0.038
  0
LINE
  5
DCC
330
1E
100
AcDbEntity
  8
0
100
AcDbLine
 10
6.520000000000002
 20
5.867999999999997
 30
0.0
 11
6.417000000000002
 21
5.867999999999997
 31
0.0
  0
TEXT
  5
DCD
330
1E
100
AcDbEntity
  8
0
100
AcDbText
 10
6.154
 20
5.840999999999998
 30
0.0
 40
0.1
  1
+
100
AcDbText
  0
LINE
  5
DD4
330
1E
100
AcDbEntity
  8
0
100
AcDbLine
 10
6.677999999999999
 20
5.867999999999997
 30
0.0
 11
6.575000000000001
 21
5.867999999999997
 31
0.0
  0
LINE
  5
DD5
330
1E
100
AcDbEntity
  8
0
100
AcDbLine
 10
6.123999999999999
 20
6.143999999999995
 30
0.0
 11
5.821
 21
6.143999999999995
 31
0.0
  0
LINE
  5
DD6
330
1E
100
AcDbEntity
  8
0
100
AcDbLine
 10
5.82599999999999
 20
6.11099999999999
 30
0.0
 11
6.118999999999998
 21
6.11099999999999
 31
0.0
  0
ARC
  5
DD8
330
1E
100
AcDbEntity
  8
0
100
AcDbCircle
 10
7.573999999999998
 20
6.094999999999997
 30
0.0
 40
0.0150000000000001
100
AcDbArc
 50
0.0000000000017302
 51
90.00000000000175
  0
ARC
  5
DD9
330
1E
100
AcDbEntity
  8
0
100
AcDbCircle
 10
6.817999999999998
 20
6.094999999999997
 30
0.0
 40
0.0149999999999998
100
AcDbArc
 50
89.99999999999884
 51
179.9999999999988
  0
LINE
  5
DDA
330
1E
100
AcDbEntity
  8
0
100
AcDbLine
 10
6.817999999999998
 20
6.109999999999998
 30
0.0
 11
7.573999999999998
 21
6.109999999999998
 31
0.0
  0
TEXT
  5
DDB
330
1E
100
AcDbEntity
  8
0
100
AcDbText
 10
6.468999999999998
 20
6.071999999999998
 30
0.0
 40
0.05
  1
PWR
100
AcDbText
  0
ARC
  5
DDC
330
1E
100
AcDbEntity
  8
0
100
AcDbCircle
 10
5.626
 20
6.210999999999997
 30
0.0
 40
0.015
100
AcDbArc
 50
90.0
 51
180.0
  0
CIRCLE
  5
DDD
330
1E
100
AcDbEntity
  8
0
100
AcDbCircle
 10
7.796
 20
5.535999999999998
 30
0.0
 40
0.0749999999999997
  0
ARC
  5
DDE
330
1E
100
AcDbEntity
  8
0
100
AcDbCircle
 10
7.93
 20
4.960999999999997
 30
0.0
 40
0.0150000000000001
100
AcDbArc
 50
0.0000000000017302
 51
90.00000000000175
  0
LINE
  5
DDF
330
1E
100
AcDbEntity
  8
0
100
AcDbLine
 10
8.050999999999998
 20
5.550999999999999
 30
0.0
 11
8.050999999999998
 21
5.600999999999999
 31
0.0
  0
LINE
  5
DE0
330
1E
100
AcDbEntity
  8
0
100
AcDbLine
 10
8.080999999999999
 20
5.550999999999999
 30
0.0
 11
8.050999999999998
 21
5.550999999999999
 31
0.0
  0
LINE
  5
DE1
330
1E
100
AcDbEntity
  8
0
100
AcDbLine
 10
8.041
 20
5.490999999999998
 30
0.0
 11
8.080999999999999
 21
5.550999999999999
 31
0.0
  0
LINE
  5
DE2
330
1E
100
AcDbEntity
  8
0
100
AcDbLine
 10
8.021
 20
5.550999999999999
 30
0.0
 11
7.991
 21
5.550999999999999
 31
0.0
  0
LINE
  5
DE3
330
1E
100
AcDbEntity
  8
0
100
AcDbLine
 10
8.021
 20
5.600999999999999
 30
0.0
 11
8.021
 21
5.550999999999999
 31
0.0
  0
LINE
  5
DE4
330
1E
100
AcDbEntity
  8
0
100
AcDbLine
 10
8.050999999999998
 20
5.600999999999999
 30
0.0
 11
8.021
 21
5.600999999999999
 31
0.0
  0
LINE
  5
DE5
330
1E
100
AcDbEntity
  8
0
100
AcDbLine
 10
8.041
 20
5.490999999999998
 30
0.0
 11
7.991
 21
5.550999999999999
 31
0.0
  0
CIRCLE
  5
DE6
330
1E
100
AcDbEntity
  8
0
100
AcDbCircle
 10
7.796
 20
5.960999999999997
 30
0.0
 40
0.0749999999999997
  0
LINE
  5
DE7
330
1E
100
AcDbEntity
  8
0
100
AcDbLine
 10
8.041
 20
6.025999999999998
 30
0.0
 11
7.991
 21
5.965999999999998
 31
0.0
  0
LINE
  5
DE8
330
1E
100
AcDbEntity
  8
0
100
AcDbLine
 10
8.041
 20
6.025999999999998
 30
0.0
 11
8.080999999999999
 21
5.965999999999998
 31
0.0
  0
LINE
  5
DE9
330
1E
100
AcDbEntity
  8
0
100
AcDbLine
 10
8.080999999999999
 20
5.965999999999998
 30
0.0
 11
8.050999999999998
 21
5.965999999999998
 31
0.0
  0
LINE
  5
DEA
330
1E
100
AcDbEntity
  8
0
100
AcDbLine
 10
8.050999999999998
 20
5.965999999999998
 30
0.0
 11
8.050999999999998
 21
5.915999999999997
 31
0.0
  0
LINE
  5
DEB
330
1E
100
AcDbEntity
  8
0
100
AcDbLine
 10
8.021
 20
5.965999999999998
 30
0.0
 11
7.991
 21
5.965999999999998
 31
0.0
  0
LINE
  5
DEC
330
1E
100
AcDbEntity
  8
0
100
AcDbLine
 10
8.021
 20
5.915999999999997
 30
0.0
 11
8.021
 21
5.965999999999998
 31
0.0
  0
LINE
  5
DED
330
1E
100
AcDbEntity
  8
0
100
AcDbLine
 10
8.050999999999998
 20
5.915999999999997
 30
0.0
 11
8.021
 21
5.915999999999997
 31
0.0
  0
ARC
  5
DEE
330
1E
100
AcDbEntity
  8
0
100
AcDbCircle
 10
8.166
 20
6.210999999999997
 30
0.0
 40
0.0150000000000001
100
AcDbArc
 50
0.0
 51
90.0
  0
LINE
  5
DFE
330
1E
100
AcDbEntity
  8
0
100
AcDbLine
 10
6.078999999999986
 20
3.557999999999993
 30
0.0
 11
6.078999999999986
 21
3.481999999999993
 31
0.0
  0
LINE
  5
DFF
330
1E
100
AcDbEntity
  8
0
100
AcDbLine
 10
6.060999999999985
 20
3.557999999999993
 30
0.0
 11
6.060999999999985
 21
3.481999999999993
 31
0.0
  0
LINE
  5
E00
330
1E
100
AcDbEntity
  8
0
100
AcDbLine
 10
5.804999999999992
 20
3.557999999999993
 30
0.0
 11
5.804999999999992
 21
3.481999999999993
 31
0.0
  0
LINE
  5
E01
330
1E
100
AcDbEntity
  8
0
100
AcDbLine
 10
5.786999999999991
 20
3.557999999999993
 30
0.0
 11
5.786999999999991
 21
3.481999999999993
 31
0.0
  0
LINE
  5
E02
330
1E
100
AcDbEntity
  8
0
100
AcDbLine
 10
5.941999999999993
 20
3.557999999999993
 30
0.0
 11
5.941999999999993
 21
3.481999999999993
 31
0.0
  0
LINE
  5
E03
330
1E
100
AcDbEntity
  8
0
100
AcDbLine
 10
5.923999999999992
 20
3.557999999999993
 30
0.0
 11
5.923999999999992
 21
3.481999999999993
 31
0.0
  0
LINE
  5
E04
330
1E
100
AcDbEntity
  8
0
100
AcDbLine
 10
7.17499999999999
 20
3.557999999999993
 30
0.0
 11
7.17499999999999
 21
3.481999999999993
 31
0.0
  0
LINE
  5
E05
330
1E
100
AcDbEntity
  8
0
100
AcDbLine
 10
7.156999999999989
 20
3.557999999999993
 30
0.0
 11
7.156999999999989
 21
3.481999999999993
 31
0.0
  0
LINE
  5
E06
330
1E
100
AcDbEntity
  8
0
100
AcDbLine
 10
6.626999999999988
 20
3.557999999999993
 30
0.0
 11
6.626999999999988
 21
3.481999999999993
 31
0.0
  0
LINE
  5
E07
330
1E
100
AcDbEntity
  8
0
100
AcDbLine
 10
6.608999999999987
 20
3.557999999999993
 30
0.0
 11
6.608999999999987
 21
3.481999999999993
 31
0.0
  0
LINE
  5
E08
330
1E
100
AcDbEntity
  8
0
100
AcDbLine
 10
6.763999999999988
 20
3.557999999999993
 30
0.0
 11
6.763999999999988
 21
3.481999999999993
 31
0.0
  0
LINE
  5
E09
330
1E
100
AcDbEntity
  8
0
100
AcDbLine
 10
6.745999999999988
 20
3.557999999999993
 30
0.0
 11
6.745999999999988
 21
3.481999999999993
 31
0.0
  0
LINE
  5
E0A
330
1E
100
AcDbEntity
  8
0
100
AcDbLine
 10
6.900999999999989
 20
3.557999999999993
 30
0.0
 11
6.900999999999989
 21
3.481999999999993
 31
0.0
  0
LINE
  5
E0B
330
1E
100
AcDbEntity
  8
0
100
AcDbLine
 10
6.882999999999988
 20
3.557999999999993
 30
0.0
 11
6.882999999999988
 21
3.481999999999993
 31
0.0
  0
LINE
  5
E0C
330
1E
100
AcDbEntity
  8
0
100
AcDbLine
 10
7.037999999999989
 20
3.557999999999993
 30
0.0
 11
7.037999999999989
 21
3.481999999999993
 31
0.0
  0
LINE
  5
E0D
330
1E
100
AcDbEntity
  8
0
100
AcDbLine
 10
7.019999999999988
 20
3.557999999999993
 30
0.0
 11
7.019999999999988
 21
3.481999999999993
 31
0.0
  0
LINE
  5
E0E
330
1E
100
AcDbEntity
  8
0
100
AcDbLine
 10
6.215999999999986
 20
3.557999999999993
 30
0.0
 11
6.215999999999986
 21
3.481999999999993
 31
0.0
  0
LINE
  5
E0F
330
1E
100
AcDbEntity
  8
0
100
AcDbLine
 10
6.197999999999986
 20
3.557999999999993
 30
0.0
 11
6.197999999999986
 21
3.481999999999993
 31
0.0
  0
LINE
  5
E10
330
1E
100
AcDbEntity
  8
0
100
AcDbLine
 10
6.352999999999987
 20
3.557999999999993
 30
0.0
 11
6.352999999999987
 21
3.481999999999993
 31
0.0
  0
LINE
  5
E11
330
1E
100
AcDbEntity
  8
0
100
AcDbLine
 10
6.334999999999986
 20
3.557999999999993
 30
0.0
 11
6.334999999999986
 21
3.481999999999993
 31
0.0
  0
LINE
  5
E12
330
1E
100
AcDbEntity
  8
0
100
AcDbLine
 10
6.489999999999987
 20
3.557999999999993
 30
0.0
 11
6.489999999999987
 21
3.481999999999993
 31
0.0
  0
LINE
  5
E13
330
1E
100
AcDbEntity
  8
0
100
AcDbLine
 10
6.471999999999987
 20
3.557999999999993
 30
0.0
 11
6.471999999999987
 21
3.481999999999993
 31
0.0
  0
LINE
  5
E14
330
1E
100
AcDbEntity
  8
0
100
AcDbLine
 10
7.996999999999992
 20
3.557999999999993
 30
0.0
 11
7.996999999999992
 21
3.481999999999993
 31
0.0
  0
LINE
  5
E15
330
1E
100
AcDbEntity
  8
0
100
AcDbLine
 10
7.978999999999992
 20
3.557999999999993
 30
0.0
 11
7.978999999999992
 21
3.481999999999993
 31
0.0
  0
LINE
  5
E16
330
1E
100
AcDbEntity
  8
0
100
AcDbLine
 10
7.583999999999988
 20
3.557999999999993
 30
0.0
 11
7.583999999999988
 21
3.481999999999993
 31
0.0
  0
LINE
  5
E17
330
1E
100
AcDbEntity
  8
0
100
AcDbLine
 10
7.565999999999988
 20
3.557999999999993
 30
0.0
 11
7.565999999999988
 21
3.481999999999993
 31
0.0
  0
LINE
  5
E18
330
1E
100
AcDbEntity
  8
0
100
AcDbLine
 10
7.312999999999995
 20
3.557999999999993
 30
0.0
 11
7.312999999999995
 21
3.481999999999993
 31
0.0
  0
LINE
  5
E19
330
1E
100
AcDbEntity
  8
0
100
AcDbLine
 10
7.294999999999994
 20
3.557999999999993
 30
0.0
 11
7.294999999999994
 21
3.481999999999993
 31
0.0
  0
LINE
  5
E1A
330
1E
100
AcDbEntity
  8
0
100
AcDbLine
 10
7.44899999999999
 20
3.557999999999993
 30
0.0
 11
7.44899999999999
 21
3.481999999999993
 31
0.0
  0
LINE
  5
E1B
330
1E
100
AcDbEntity
  8
0
100
AcDbLine
 10
7.43099999999999
 20
3.557999999999993
 30
0.0
 11
7.43099999999999
 21
3.481999999999993
 31
0.0
  0
LINE
  5
E1C
330
1E
100
AcDbEntity
  8
0
100
AcDbLine
 10
7.722999999999991
 20
3.557999999999993
 30
0.0
 11
7.722999999999991
 21
3.481999999999993
 31
0.0
  0
LINE
  5
E1D
330
1E
100
AcDbEntity
  8
0
100
AcDbLine
 10
7.704999999999991
 20
3.557999999999993
 30
0.0
 11
7.704999999999991
 21
3.481999999999993
 31
0.0
  0
LINE
  5
E1E
330
1E
100
AcDbEntity
  8
0
100
AcDbLine
 10
7.859999999999992
 20
3.557999999999993
 30
0.0
 11
7.859999999999992
 21
3.481999999999993
 31
0.0
  0
LINE
  5
E1F
330
1E
100
AcDbEntity
  8
0
100
AcDbLine
 10
7.841999999999991
 20
3.557999999999993
 30
0.0
 11
7.841999999999991
 21
3.481999999999993
 31
0.0
  0
LINE
  5
E20
330
1E
100
AcDbEntity
  8
0
100
AcDbLine
 10
6.04492056595955
 20
7.264999999999994
 30
0.0
 11
6.04492056595955
 21
7.340999999999994
 31
0.0
  0
LINE
  5
E21
330
1E
100
AcDbEntity
  8
0
100
AcDbLine
 10
6.06292056595955
 20
7.264999999999994
 30
0.0
 11
6.062920565959551
 21
7.340999999999994
 31
0.0
  0
LINE
  5
E22
330
1E
100
AcDbEntity
  8
0
100
AcDbLine
 10
5.770920565959549
 20
7.264999999999994
 30
0.0
 11
5.770920565959549
 21
7.340999999999994
 31
0.0
  0
LINE
  5
E23
330
1E
100
AcDbEntity
  8
0
100
AcDbLine
 10
5.788920565959549
 20
7.264999999999994
 30
0.0
 11
5.78892056595955
 21
7.340999999999994
 31
0.0
  0
LINE
  5
E24
330
1E
100
AcDbEntity
  8
0
100
AcDbLine
 10
5.907920565959557
 20
7.264999999999994
 30
0.0
 11
5.907920565959557
 21
7.340999999999994
 31
0.0
  0
LINE
  5
E25
330
1E
100
AcDbEntity
  8
0
100
AcDbLine
 10
5.925920565959557
 20
7.264999999999994
 30
0.0
 11
5.925920565959557
 21
7.340999999999994
 31
0.0
  0
LINE
  5
E26
330
1E
100
AcDbEntity
  8
0
100
AcDbLine
 10
7.140920565959554
 20
7.264999999999994
 30
0.0
 11
7.140920565959554
 21
7.340999999999994
 31
0.0
  0
LINE
  5
E27
330
1E
100
AcDbEntity
  8
0
100
AcDbLine
 10
7.158920565959554
 20
7.264999999999994
 30
0.0
 11
7.158920565959554
 21
7.340999999999994
 31
0.0
  0
LINE
  5
E28
330
1E
100
AcDbEntity
  8
0
100
AcDbLine
 10
6.592920565959552
 20
7.264999999999994
 30
0.0
 11
6.592920565959552
 21
7.340999999999994
 31
0.0
  0
LINE
  5
E29
330
1E
100
AcDbEntity
  8
0
100
AcDbLine
 10
6.610920565959552
 20
7.264999999999994
 30
0.0
 11
6.610920565959553
 21
7.340999999999994
 31
0.0
  0
LINE
  5
E2A
330
1E
100
AcDbEntity
  8
0
100
AcDbLine
 10
6.866920565959553
 20
7.264999999999994
 30
0.0
 11
6.866920565959553
 21
7.340999999999994
 31
0.0
  0
LINE
  5
E2B
330
1E
100
AcDbEntity
  8
0
100
AcDbLine
 10
6.884920565959553
 20
7.264999999999994
 30
0.0
 11
6.884920565959554
 21
7.340999999999994
 31
0.0
  0
LINE
  5
E2C
330
1E
100
AcDbEntity
  8
0
100
AcDbLine
 10
6.729920565959552
 20
7.264999999999994
 30
0.0
 11
6.729920565959552
 21
7.340999999999994
 31
0.0
  0
LINE
  5
E2D
330
1E
100
AcDbEntity
  8
0
100
AcDbLine
 10
6.747920565959552
 20
7.264999999999994
 30
0.0
 11
6.747920565959553
 21
7.340999999999994
 31
0.0
  0
LINE
  5
E2E
330
1E
100
AcDbEntity
  8
0
100
AcDbLine
 10
7.003920565959553
 20
7.264999999999994
 30
0.0
 11
7.003920565959553
 21
7.340999999999994
 31
0.0
  0
LINE
  5
E2F
330
1E
100
AcDbEntity
  8
0
100
AcDbLine
 10
7.021920565959553
 20
7.264999999999994
 30
0.0
 11
7.021920565959554
 21
7.340999999999994
 31
0.0
  0
LINE
  5
E30
330
1E
100
AcDbEntity
  8
0
100
AcDbLine
 10
6.183920565959553
 20
7.264999999999994
 30
0.0
 11
6.183920565959553
 21
7.340999999999994
 31
0.0
  0
LINE
  5
E31
330
1E
100
AcDbEntity
  8
0
100
AcDbLine
 10
6.201920565959553
 20
7.264999999999994
 30
0.0
 11
6.201920565959554
 21
7.340999999999994
 31
0.0
  0
LINE
  5
E32
330
1E
100
AcDbEntity
  8
0
100
AcDbLine
 10
6.318920565959551
 20
7.264999999999994
 30
0.0
 11
6.318920565959551
 21
7.340999999999994
 31
0.0
  0
LINE
  5
E33
330
1E
100
AcDbEntity
  8
0
100
AcDbLine
 10
6.336920565959551
 20
7.264999999999994
 30
0.0
 11
6.336920565959552
 21
7.340999999999994
 31
0.0
  0
LINE
  5
E34
330
1E
100
AcDbEntity
  8
0
100
AcDbLine
 10
6.454920565959554
 20
7.264999999999994
 30
0.0
 11
6.454920565959554
 21
7.340999999999994
 31
0.0
  0
LINE
  5
E35
330
1E
100
AcDbEntity
  8
0
100
AcDbLine
 10
6.472920565959554
 20
7.264999999999994
 30
0.0
 11
6.472920565959555
 21
7.340999999999994
 31
0.0
  0
LINE
  5
E3C
330
1E
100
AcDbEntity
  8
0
100
AcDbLine
 10
7.277920565959554
 20
7.264999999999994
 30
0.0
 11
7.277920565959554
 21
7.340999999999994
 31
0.0
  0
LINE
  5
E3D
330
1E
100
AcDbEntity
  8
0
100
AcDbLine
 10
7.295920565959554
 20
7.264999999999994
 30
0.0
 11
7.295920565959555
 21
7.340999999999994
 31
0.0
  0
LINE
  5
E9B
330
1E
100
AcDbEntity
  8
0
100
AcDbLine
 10
5.926999999999995
 20
4.773999999999991
 30
0.0
 11
5.926999999999995
 21
4.813999999999992
 31
0.0
  0
LINE
  5
E9C
330
1E
100
AcDbEntity
  8
0
100
AcDbLine
 10
5.926999999999995
 20
4.813999999999992
 30
0.0
 11
6.002327356709925
 21
4.813999999999992
 31
0.0
  0
LINE
  5
E9D
330
1E
100
AcDbEntity
  8
0
100
AcDbLine
 10
6.002327356709925
 20
4.813999999999992
 30
0.0
 11
6.002327356709925
 21
4.773999999999991
 31
0.0
  0
LINE
  5
E9E
330
1E
100
AcDbEntity
  8
0
100
AcDbLine
 10
6.002327356709925
 20
4.773999999999991
 30
0.0
 11
5.926999999999995
 21
4.773999999999991
 31
0.0
  0
LINE
  5
E9F
330
1E
100
AcDbEntity
  8
0
100
AcDbLine
 10
5.926999999999995
 20
4.910999999999991
 30
0.0
 11
5.926999999999995
 21
4.95099999999999
 31
0.0
  0
LINE
  5
EA0
330
1E
100
AcDbEntity
  8
0
100
AcDbLine
 10
5.926999999999995
 20
4.95099999999999
 30
0.0
 11
6.002327356709925
 21
4.95099999999999
 31
0.0
  0
LINE
  5
EA1
330
1E
100
AcDbEntity
  8
0
100
AcDbLine
 10
6.002327356709925
 20
4.95099999999999
 30
0.0
 11
6.002327356709925
 21
4.910999999999991
 31
0.0
  0
LINE
  5
EA2
330
1E
100
AcDbEntity
  8
0
100
AcDbLine
 10
6.002327356709925
 20
4.910999999999991
 30
0.0
 11
5.926999999999995
 21
4.910999999999991
 31
0.0
  0
LINE
  5
EA3
330
1E
100
AcDbEntity
  8
0
100
AcDbLine
 10
5.522999999999987
 20
6.326999999999993
 30
0.0
 11
5.522999999999988
 21
6.602999999999993
 31
0.0
  0
LINE
  5
EA4
330
1E
100
AcDbEntity
  8
0
100
AcDbLine
 10
5.522999999999988
 20
6.602999999999993
 30
0.0
 11
8.269999999999988
 21
6.602999999999993
 31
0.0
  0
LINE
  5
EA5
330
1E
100
AcDbEntity
  8
0
100
AcDbLine
 10
8.269999999999988
 20
6.602999999999993
 30
0.0
 11
8.269999999999988
 21
6.326999999999993
 31
0.0
  0
LINE
  5
EA6
330
1E
100
AcDbEntity
  8
0
100
AcDbLine
 10
5.926999999999995
 20
5.047999999999992
 30
0.0
 11
5.926999999999995
 21
5.087999999999991
 31
0.0
  0
LINE
  5
EA7
330
1E
100
AcDbEntity
  8
0
100
AcDbLine
 10
5.926999999999995
 20
5.087999999999991
 30
0.0
 11
6.001327356709928
 21
5.087999999999991
 31
0.0
  0
LINE
  5
EA8
330
1E
100
AcDbEntity
  8
0
100
AcDbLine
 10
6.001327356709928
 20
5.087999999999991
 30
0.0
 11
6.001327356709928
 21
5.047999999999992
 31
0.0
  0
LINE
  5
EA9
330
1E
100
AcDbEntity
  8
0
100
AcDbLine
 10
6.001327356709928
 20
5.047999999999992
 30
0.0
 11
5.926999999999995
 21
5.047999999999992
 31
0.0
  0
LINE
  5
EAA
330
1E
100
AcDbEntity
  8
0
100
AcDbLine
 10
5.922999999999992
 20
5.316999999999991
 30
0.0
 11
5.922999999999992
 21
5.356999999999992
 31
0.0
  0
LINE
  5
EAB
330
1E
100
AcDbEntity
  8
0
100
AcDbLine
 10
5.922999999999992
 20
5.356999999999992
 30
0.0
 11
6.000327356709925
 21
5.356999999999992
 31
0.0
  0
LINE
  5
EAC
330
1E
100
AcDbEntity
  8
0
100
AcDbLine
 10
6.000327356709925
 20
5.356999999999992
 30
0.0
 11
6.000327356709925
 21
5.316999999999991
 31
0.0
  0
LINE
  5
EAD
330
1E
100
AcDbEntity
  8
0
100
AcDbLine
 10
6.000327356709925
 20
5.316999999999991
 30
0.0
 11
5.922999999999992
 21
5.316999999999991
 31
0.0
  0
LINE
  5
EAE
330
1E
100
AcDbEntity
  8
0
100
AcDbLine
 10
5.922999999999992
 20
5.453999999999991
 30
0.0
 11
5.922999999999992
 21
5.493999999999992
 31
0.0
  0
LINE
  5
EAF
330
1E
100
AcDbEntity
  8
0
100
AcDbLine
 10
5.922999999999992
 20
5.493999999999992
 30
0.0
 11
6.000327356709925
 21
5.493999999999992
 31
0.0
  0
LINE
  5
EB0
330
1E
100
AcDbEntity
  8
0
100
AcDbLine
 10
6.000327356709925
 20
5.493999999999992
 30
0.0
 11
6.000327356709925
 21
5.453999999999991
 31
0.0
  0
LINE
  5
EB1
330
1E
100
AcDbEntity
  8
0
100
AcDbLine
 10
6.000327356709925
 20
5.453999999999991
 30
0.0
 11
5.922999999999992
 21
5.453999999999991
 31
0.0
  0
LINE
  5
EB2
330
1E
100
AcDbEntity
  8
0
100
AcDbLine
 10
5.922999999999992
 20
5.726999999999991
 30
0.0
 11
5.922999999999992
 21
5.766999999999992
 31
0.0
  0
LINE
  5
EB3
330
1E
100
AcDbEntity
  8
0
100
AcDbLine
 10
5.922999999999992
 20
5.766999999999992
 30
0.0
 11
6.000327356709925
 21
5.766999999999992
 31
0.0
  0
LINE
  5
EB4
330
1E
100
AcDbEntity
  8
0
100
AcDbLine
 10
6.000327356709925
 20
5.766999999999992
 30
0.0
 11
6.000327356709925
 21
5.726999999999991
 31
0.0
  0
LINE
  5
EB5
330
1E
100
AcDbEntity
  8
0
100
AcDbLine
 10
6.000327356709925
 20
5.726999999999991
 30
0.0
 11
5.922999999999992
 21
5.726999999999991
 31
0.0
  0
LINE
  5
EB6
330
1E
100
AcDbEntity
  8
0
100
AcDbLine
 10
5.922999999999992
 20
5.58999999999999
 30
0.0
 11
5.922999999999992
 21
5.629999999999991
 31
0.0
  0
LINE
  5
EB7
330
1E
100
AcDbEntity
  8
0
100
AcDbLine
 10
5.922999999999992
 20
5.629999999999991
 30
0.0
 11
6.000327356709925
 21
5.629999999999991
 31
0.0
  0
LINE
  5
EB8
330
1E
100
AcDbEntity
  8
0
100
AcDbLine
 10
6.000327356709925
 20
5.629999999999991
 30
0.0
 11
6.000327356709925
 21
5.58999999999999
 31
0.0
  0
LINE
  5
EB9
330
1E
100
AcDbEntity
  8
0
100
AcDbLine
 10
6.000327356709925
 20
5.58999999999999
 30
0.0
 11
5.922999999999992
 21
5.58999999999999
 31
0.0
  0
LINE
  5
EBA
330
1E
100
AcDbEntity
  8
0
100
AcDbLine
 10
5.922999999999992
 20
5.863999999999991
 30
0.0
 11
5.922999999999992
 21
5.903999999999992
 31
0.0
  0
LINE
  5
EBB
330
1E
100
AcDbEntity
  8
0
100
AcDbLine
 10
5.922999999999992
 20
5.903999999999992
 30
0.0
 11
6.000327356709925
 21
5.903999999999992
 31
0.0
  0
LINE
  5
EBC
330
1E
100
AcDbEntity
  8
0
100
AcDbLine
 10
6.000327356709925
 20
5.903999999999992
 30
0.0
 11
6.000327356709925
 21
5.863999999999991
 31
0.0
  0
LINE
  5
EBD
330
1E
100
AcDbEntity
  8
0
100
AcDbLine
 10
6.000327356709925
 20
5.863999999999991
 30
0.0
 11
5.922999999999992
 21
5.863999999999991
 31
0.0
  0
LINE
  5
EBE
330
1E
100
AcDbEntity
  8
0
100
AcDbLine
 10
5.922999999999992
 20
5.999999999999991
 30
0.0
 11
5.922999999999992
 21
6.039999999999991
 31
0.0
  0
LINE
  5
EBF
330
1E
100
AcDbEntity
  8
0
100
AcDbLine
 10
5.922999999999992
 20
6.039999999999991
 30
0.0
 11
5.998327356709926
 21
6.039999999999991
 31
0.0
  0
LINE
  5
EC0
330
1E
100
AcDbEntity
  8
0
100
AcDbLine
 10
5.998327356709926
 20
6.039999999999991
 30
0.0
 11
5.998327356709926
 21
5.999999999999991
 31
0.0
  0
LINE
  5
EC1
330
1E
100
AcDbEntity
  8
0
100
AcDbLine
 10
5.998327356709926
 20
5.999999999999991
 30
0.0
 11
5.922999999999992
 21
5.999999999999991
 31
0.0
  0
LINE
  5
EC2
330
1E
100
AcDbEntity
  8
0
100
AcDbLine
 10
5.522999999999992
 20
6.602999999999993
 30
0.0
 11
5.522999999999992
 21
7.100999999999993
 31
0.0
  0
LINE
  5
EC3
330
1E
100
AcDbEntity
  8
0
100
AcDbLine
 10
5.522999999999992
 20
7.100999999999993
 30
0.0
 11
8.269999999999992
 21
7.100999999999993
 31
0.0
  0
LINE
  5
EC4
330
1E
100
AcDbEntity
  8
0
100
AcDbLine
 10
8.269999999999992
 20
7.100999999999993
 30
0.0
 11
8.269999999999992
 21
6.602999999999993
 31
0.0
  0
LINE
  5
FC7
330
1E
100
AcDbEntity
  8
0
100
AcDbLine
 10
5.57007943404043
 20
3.740575949991318
 30
0.0
 11
8.210079434040427
 21
3.740575949991318
 31
0.0
  0
LINE
  5
FC8
330
1E
100
AcDbEntity
  8
0
100
AcDbLine
 10
8.210079434040427
 20
4.200575949991319
 30
0.0
 11
5.57007943404043
 21
4.200575949991319
 31
0.0
  0
CIRCLE
  5
FCE
330
1E
100
AcDbEntity
  8
0
100
AcDbCircle
 10
5.79407943404043
 20
3.937575949991319
 30
0.0
 40
0.0350000000000002
  0
LINE
  5
FCF
330
1E
100
AcDbEntity
  8
0
100
AcDbLine
 10
5.57007943404043
 20
3.740575949991318
 30
0.0
 11
5.57007943404043
 21
4.200575949991319
 31
0.0
  0
LINE
  5
FD0
330
1E
100
AcDbEntity
  8
0
100
AcDbLine
 10
5.93107943404043
 20
3.887575949991318
 30
0.0
 11
5.93107943404043
 21
3.757575949991319
 31
0.0
  0
LINE
  5
FD1
330
1E
100
AcDbEntity
  8
0
100
AcDbLine
 10
5.79407943404043
 20
3.887575949991318
 30
0.0
 11
5.79407943404043
 21
3.757575949991319
 31
0.0
  0
LINE
  5
FD2
330
1E
100
AcDbEntity
  8
0
100
AcDbLine
 10
6.205079434040428
 20
3.887575949991318
 30
0.0
 11
6.205079434040428
 21
3.757575949991319
 31
0.0
  0
LINE
  5
FD3
330
1E
100
AcDbEntity
  8
0
100
AcDbLine
 10
6.068079434040427
 20
3.887575949991318
 30
0.0
 11
6.068079434040427
 21
3.757575949991319
 31
0.0
  0
LINE
  5
FD4
330
1E
100
AcDbEntity
  8
0
100
AcDbLine
 10
6.342079434040428
 20
3.887575949991318
 30
0.0
 11
6.342079434040428
 21
3.757575949991319
 31
0.0
  0
LINE
  5
FD5
330
1E
100
AcDbEntity
  8
0
100
AcDbLine
 10
6.616079434040429
 20
3.887575949991318
 30
0.0
 11
6.616079434040429
 21
3.757575949991319
 31
0.0
  0
LINE
  5
FD6
330
1E
100
AcDbEntity
  8
0
100
AcDbLine
 10
6.479079434040428
 20
3.887575949991318
 30
0.0
 11
6.479079434040428
 21
3.757575949991319
 31
0.0
  0
TEXT
  5
FD8
330
1E
100
AcDbEntity
  8
0
100
AcDbText
 10
6.05141276737376
 20
4.004575949991319
 30
0.0
 40
0.05
  1
3
 72
     1
 11
6.068079434040427
 21
4.004575949991319
 31
0.0
100
AcDbText
  0
TEXT
  5
FD9
330
1E
100
AcDbEntity
  8
0
100
AcDbText
 10
5.914412767373764
 20
4.004575949991319
 30
0.0
 40
0.05
  1
2
 72
     1
 11
5.93107943404043
 21
4.004575949991319
 31
0.0
100
AcDbText
  0
TEXT
  5
FDA
330
1E
100
AcDbEntity
  8
0
100
AcDbText
 10
5.785746100707096
 20
4.004575949991319
 30
0.0
 40
0.05
  1
1
 72
     1
 11
5.79407943404043
 21
4.004575949991319
 31
0.0
100
AcDbText
  0
TEXT
  5
FDB
330
1E
100
AcDbEntity
  8
0
100
AcDbText
 10
6.325412767373761
 20
4.004575949991319
 30
0.0
 40
0.05
  1
5
 72
     1
 11
6.342079434040428
 21
4.004575949991319
 31
0.0
100
AcDbText
  0
TEXT
  5
FDC
330
1E
100
AcDbEntity
  8
0
100
AcDbText
 10
6.188412767373761
 20
4.004575949991319
 30
0.0
 40
0.05
  1
4
 72
     1
 11
6.205079434040428
 21
4.004575949991319
 31
0.0
100
AcDbText
  0
TEXT
  5
FDD
330
1E
100
AcDbEntity
  8
0
100
AcDbText
 10
6.445746100707095
 20
4.100575949991317
 30
0.0
 40
0.05
  1
DI
 72
     4
 11
6.479079434040428
 21
4.125575949991318
 31
0.0
100
AcDbText
  0
TEXT
  5
FDE
330
1E
100
AcDbEntity
  8
0
100
AcDbText
 10
6.599412767373762
 20
4.004575949991319
 30
0.0
 40
0.05
  1
7
 72
     1
 11
6.616079434040429
 21
4.004575949991319
 31
0.0
100
AcDbText
  0
TEXT
  5
FDF
330
1E
100
AcDbEntity
  8
0
100
AcDbText
 10
6.462412767373762
 20
4.004575949991319
 30
0.0
 40
0.05
  1
6
 72
     1
 11
6.479079434040428
 21
4.004575949991319
 31
0.0
100
AcDbText
  0
LINE
  5
FE7
330
1E
100
AcDbEntity
  8
0
100
AcDbLine
 10
6.753079434040429
 20
3.887575949991318
 30
0.0
 11
6.753079434040429
 21
3.757575949991319
 31
0.0
  0
LINE
  5
FE8
330
1E
100
AcDbEntity
  8
0
100
AcDbLine
 10
6.89007943404043
 20
3.887575949991318
 30
0.0
 11
6.89007943404043
 21
3.757575949991319
 31
0.0
  0
LINE
  5
FE9
330
1E
100
AcDbEntity
  8
0
100
AcDbLine
 10
7.164079434040427
 20
3.887575949991318
 30
0.0
 11
7.164079434040427
 21
3.757575949991319
 31
0.0
  0
LINE
  5
FEA
330
1E
100
AcDbEntity
  8
0
100
AcDbLine
 10
7.02707943404043
 20
3.887575949991318
 30
0.0
 11
7.02707943404043
 21
3.757575949991319
 31
0.0
  0
LINE
  5
FEB
330
1E
100
AcDbEntity
  8
0
100
AcDbLine
 10
7.301079434040428
 20
3.887575949991318
 30
0.0
 11
7.301079434040428
 21
3.757575949991319
 31
0.0
  0
LINE
  5
FEC
330
1E
100
AcDbEntity
  8
0
100
AcDbLine
 10
7.438079434040428
 20
3.887575949991318
 30
0.0
 11
7.438079434040428
 21
3.757575949991319
 31
0.0
  0
LINE
  5
FED
330
1E
100
AcDbEntity
  8
0
100
AcDbLine
 10
7.712079434040429
 20
3.887575949991318
 30
0.0
 11
7.712079434040429
 21
3.757575949991319
 31
0.0
  0
LINE
  5
FEE
330
1E
100
AcDbEntity
  8
0
100
AcDbLine
 10
7.575079434040429
 20
3.887575949991318
 30
0.0
 11
7.575079434040429
 21
3.757575949991319
 31
0.0
  0
TEXT
  5
FF0
330
1E
100
AcDbEntity
  8
0
100
AcDbText
 10
6.873981258575503
 20
4.004575949991319
 30
0.0
 40
0.05
  1
C
 72
     1
 11
6.89064792524217
 21
4.004575949991319
 31
0.0
100
AcDbText
  0
TEXT
  5
FF1
330
1E
100
AcDbEntity
  8
0
100
AcDbText
 10
6.736412767373763
 20
4.004575949991319
 30
0.0
 40
0.05
  1
8
 72
     1
 11
6.753079434040429
 21
4.004575949991319
 31
0.0
100
AcDbText
  0
TEXT
  5
FF2
330
1E
100
AcDbEntity
  8
0
100
AcDbText
 10
7.134481258575503
 20
4.004575949991319
 30
0.0
 40
0.05
  1
10
 72
     1
 11
7.16364792524217
 21
4.004575949991319
 31
0.0
100
AcDbText
  0
TEXT
  5
FF3
330
1E
100
AcDbEntity
  8
0
100
AcDbText
 10
7.009981258575503
 20
4.004575949991319
 30
0.0
 40
0.05
  1
9
 72
     1
 11
7.026647925242169
 21
4.004575949991319
 31
0.0
100
AcDbText
  0
TEXT
  5
FF5
330
1E
100
AcDbEntity
  8
0
100
AcDbText
 10
7.284981258575505
 20
4.004575949991319
 30
0.0
 40
0.05
  1
C
 72
     1
 11
7.301647925242171
 21
4.004575949991319
 31
0.0
100
AcDbText
  0
TEXT
  5
FF6
330
1E
100
AcDbEntity
  8
0
100
AcDbText
 10
7.429746100707094
 20
4.004575949991319
 30
0.0
 40
0.05
  1
1
 72
     1
 11
7.438079434040428
 21
4.004575949991319
 31
0.0
100
AcDbText
  0
TEXT
  5
FF7
330
1E
100
AcDbEntity
  8
0
100
AcDbText
 10
7.670412767373762
 20
4.100575949991317
 30
0.0
 40
0.05
  1
DO
 72
     4
 11
7.712079434040429
 21
4.125575949991318
 31
0.0
100
AcDbText
  0
TEXT
  5
FF8
330
1E
100
AcDbEntity
  8
0
100
AcDbText
 10
7.695412767373762
 20
4.004575949991319
 30
0.0
 40
0.05
  1
3
 72
     1
 11
7.712079434040429
 21
4.004575949991319
 31
0.0
100
AcDbText
  0
TEXT
  5
FF9
330
1E
100
AcDbEntity
  8
0
100
AcDbText
 10
7.558412767373762
 20
4.004575949991319
 30
0.0
 40
0.05
  1
2
 72
     1
 11
7.575079434040429
 21
4.004575949991319
 31
0.0
100
AcDbText
  0
LINE
  5
FFA
330
1E
100
AcDbEntity
  8
0
100
AcDbLine
 10
8.210079434040427
 20
3.740575949991318
 30
0.0
 11
8.210079434040427
 21
4.200575949991319
 31
0.0
  0
LINE
  5
FFC
330
1E
100
AcDbEntity
  8
0
100
AcDbLine
 10
7.849079434040429
 20
3.887575949991318
 30
0.0
 11
7.849079434040429
 21
3.757575949991319
 31
0.0
  0
LINE
  5
FFD
330
1E
100
AcDbEntity
  8
0
100
AcDbLine
 10
7.98607943404043
 20
3.892575949991319
 30
0.0
 11
7.98607943404043
 21
3.757575949991319
 31
0.0
  0
TEXT
  5
FFE
330
1E
100
AcDbEntity
  8
0
100
AcDbText
 10
7.969412767373763
 20
4.004575949991319
 30
0.0
 40
0.05
  1
C
 72
     1
 11
7.98607943404043
 21
4.004575949991319
 31
0.0
100
AcDbText
  0
TEXT
  5
FFF
330
1E
100
AcDbEntity
  8
0
100
AcDbText
 10
7.832412767373763
 20
4.004575949991319
 30
0.0
 40
0.05
  1
4
 72
     1
 11
7.849079434040429
 21
4.004575949991319
 31
0.0
100
AcDbText
  0
LINE
  5
1001
330
1E
100
AcDbEntity
  8
0
100
AcDbLine
 10
8.206920565959556
 20
7.086424050008683
 30
0.0
 11
5.566920565959563
 21
7.086424050008683
 31
0.0
  0
LINE
  5
1002
330
1E
100
AcDbEntity
  8
0
100
AcDbLine
 10
5.566920565959563
 20
6.626424050008682
 30
0.0
 11
8.206920565959556
 21
6.626424050008682
 31
0.0
  0
LINE
  5
1003
330
1E
100
AcDbEntity
  8
0
100
AcDbLine
 10
8.206920565959556
 20
7.086424050008683
 30
0.0
 11
8.206920565959556
 21
6.626424050008682
 31
0.0
  0
TEXT
  5
1004
330
1E
100
AcDbEntity
  8
0
100
AcDbText
 10
7.768920565959557
 20
6.880424050008683
 30
0.0
 40
0.05
  1
5V
 50
180.0
 72
     1
 11
7.718920565959557
 21
6.880424050008683
 31
0.0
100
AcDbText
  0
LINE
  5
1005
330
1E
100
AcDbEntity
  8
0
100
AcDbLine
 10
7.97192056595956
 20
6.939424050008683
 30
0.0
 11
7.97192056595956
 21
7.069424050008682
 31
0.0
  0
LINE
  5
1006
330
1E
100
AcDbEntity
  8
0
100
AcDbLine
 10
7.871920565959563
 20
6.939424050008683
 30
0.0
 11
7.871920565959563
 21
7.069424050008682
 31
0.0
  0
LINE
  5
1007
330
1E
100
AcDbEntity
  8
0
100
AcDbLine
 10
7.771920565959561
 20
6.939424050008683
 30
0.0
 11
7.771920565959561
 21
7.069424050008682
 31
0.0
  0
LINE
  5
1008
330
1E
100
AcDbEntity
  8
0
100
AcDbLine
 10
7.67192056595956
 20
6.939424050008683
 30
0.0
 11
7.67192056595956
 21
7.069424050008682
 31
0.0
  0
LINE
  5
1009
330
1E
100
AcDbEntity
  8
0
100
AcDbLine
 10
7.571920565959558
 20
6.939424050008683
 30
0.0
 11
7.571920565959558
 21
7.069424050008682
 31
0.0
  0
LINE
  5
100A
330
1E
100
AcDbEntity
  8
0
100
AcDbLine
 10
7.47192056595956
 20
6.939424050008683
 30
0.0
 11
7.47192056595956
 21
7.069424050008682
 31
0.0
  0
LINE
  5
100B
330
1E
100
AcDbEntity
  8
0
100
AcDbLine
 10
7.29785207475782
 20
6.939424050008683
 30
0.0
 11
7.29785207475782
 21
7.069424050008682
 31
0.0
  0
LINE
  5
100C
330
1E
100
AcDbEntity
  8
0
100
AcDbLine
 10
7.160852074757819
 20
6.939424050008683
 30
0.0
 11
7.160852074757819
 21
7.069424050008682
 31
0.0
  0
LINE
  5
100D
330
1E
100
AcDbEntity
  8
0
100
AcDbLine
 10
7.023852074757819
 20
6.939424050008683
 30
0.0
 11
7.023852074757819
 21
7.069424050008682
 31
0.0
  0
LINE
  5
100E
330
1E
100
AcDbEntity
  8
0
100
AcDbLine
 10
7.97192056595956
 20
6.777424050008684
 30
0.0
 11
7.47192056595956
 21
6.777424050008684
 31
0.0
  0
TEXT
  5
100F
330
1E
100
AcDbEntity
  8
0
100
AcDbText
 10
7.80842056595956
 20
6.726424050008684
 30
0.0
 40
0.05
  1
20mA
 50
180.0
 72
     4
 11
7.720920565959559
 21
6.701424050008683
 31
0.0
100
AcDbText
  0
TEXT
  5
1010
330
1E
100
AcDbEntity
  8
0
100
AcDbText
 10
7.306253899292891
 20
6.822424050008684
 30
0.0
 40
0.05
  1
1
 50
180.0
 72
     1
 11
7.297920565959557
 21
6.822424050008684
 31
0.0
100
AcDbText
  0
TEXT
  5
1011
330
1E
100
AcDbEntity
  8
0
100
AcDbText
 10
7.177518741424486
 20
6.822424050008684
 30
0.0
 40
0.05
  1
C
 50
180.0
 72
     1
 11
7.160852074757819
 21
6.822424050008684
 31
0.0
100
AcDbText
  0
TEXT
  5
1012
330
1E
100
AcDbEntity
  8
0
100
AcDbText
 10
7.040587232626223
 20
6.822424050008684
 30
0.0
 40
0.05
  1
2
 50
180.0
 72
     1
 11
7.023920565959556
 21
6.822424050008684
 31
0.0
100
AcDbText
  0
LINE
  5
1014
330
1E
100
AcDbEntity
  8
0
100
AcDbLine
 10
6.886852074757818
 20
6.939424050008683
 30
0.0
 11
6.886852074757818
 21
7.069424050008682
 31
0.0
  0
LINE
  5
1015
330
1E
100
AcDbEntity
  8
0
100
AcDbLine
 10
6.749852074757818
 20
6.939424050008683
 30
0.0
 11
6.749852074757818
 21
7.069424050008682
 31
0.0
  0
LINE
  5
1016
330
1E
100
AcDbEntity
  8
0
100
AcDbLine
 10
6.475852074757817
 20
6.939424050008683
 30
0.0
 11
6.475852074757817
 21
7.069424050008682
 31
0.0
  0
LINE
  5
1017
330
1E
100
AcDbEntity
  8
0
100
AcDbLine
 10
6.612852074757817
 20
6.939424050008683
 30
0.0
 11
6.612852074757817
 21
7.069424050008682
 31
0.0
  0
LINE
  5
1018
330
1E
100
AcDbEntity
  8
0
100
AcDbLine
 10
6.338852074757816
 20
6.939424050008683
 30
0.0
 11
6.338852074757816
 21
7.069424050008682
 31
0.0
  0
LINE
  5
1019
330
1E
100
AcDbEntity
  8
0
100
AcDbLine
 10
6.201852074757816
 20
6.939424050008683
 30
0.0
 11
6.201852074757816
 21
7.069424050008682
 31
0.0
  0
LINE
  5
101A
330
1E
100
AcDbEntity
  8
0
100
AcDbLine
 10
6.064852074757823
 20
6.939424050008683
 30
0.0
 11
6.064852074757823
 21
7.069424050008682
 31
0.0
  0
LINE
  5
101B
330
1E
100
AcDbEntity
  8
0
100
AcDbLine
 10
5.927852074757822
 20
6.939424050008683
 30
0.0
 11
5.927852074757822
 21
7.069424050008682
 31
0.0
  0
TEXT
  5
101C
330
1E
100
AcDbEntity
  8
0
100
AcDbText
 10
6.903518741424485
 20
6.822424050008684
 30
0.0
 40
0.05
  1
C
 50
180.0
 72
     1
 11
6.886852074757818
 21
6.822424050008684
 31
0.0
100
AcDbText
  0
TEXT
  5
101D
330
1E
100
AcDbEntity
  8
0
100
AcDbText
 10
6.766587232626222
 20
6.822424050008684
 30
0.0
 40
0.05
  1
3
 50
180.0
 72
     1
 11
6.749920565959556
 21
6.822424050008684
 31
0.0
100
AcDbText
  0
TEXT
  5
101E
330
1E
100
AcDbEntity
  8
0
100
AcDbText
 10
6.576253899292895
 20
6.726424050008684
 30
0.0
 40
0.05
  1
AI
 50
180.0
 72
     4
 11
6.542920565959562
 21
6.701424050008683
 31
0.0
100
AcDbText
  0
TEXT
  5
101F
330
1E
100
AcDbEntity
  8
0
100
AcDbText
 10
6.629518741424484
 20
6.822424050008684
 30
0.0
 40
0.05
  1
C
 50
180.0
 72
     1
 11
6.612852074757817
 21
6.822424050008684
 31
0.0
100
AcDbText
  0
TEXT
  5
1020
330
1E
100
AcDbEntity
  8
0
100
AcDbText
 10
6.492587232626228
 20
6.822424050008684
 30
0.0
 40
0.05
  1
4
 50
180.0
 72
     1
 11
6.475920565959562
 21
6.822424050008684
 31
0.0
100
AcDbText
  0
TEXT
  5
1021
330
1E
100
AcDbEntity
  8
0
100
AcDbText
 10
6.355518741424483
 20
6.822424050008684
 30
0.0
 40
0.05
  1
C
 50
180.0
 72
     1
 11
6.338852074757816
 21
6.822424050008684
 31
0.0
100
AcDbText
  0
TEXT
  5
1022
330
1E
100
AcDbEntity
  8
0
100
AcDbText
 10
6.218587232626227
 20
6.822424050008684
 30
0.0
 40
0.05
  1
5
 50
180.0
 72
     1
 11
6.201920565959561
 21
6.822424050008684
 31
0.0
100
AcDbText
  0
TEXT
  5
1023
330
1E
100
AcDbEntity
  8
0
100
AcDbText
 10
6.081518741424489
 20
6.822424050008684
 30
0.0
 40
0.05
  1
C
 50
180.0
 72
     1
 11
6.064852074757823
 21
6.822424050008684
 31
0.0
100
AcDbText
  0
TEXT
  5
1024
330
1E
100
AcDbEntity
  8
0
100
AcDbText
 10
5.944587232626227
 20
6.822424050008684
 30
0.0
 40
0.05
  1
6
 50
180.0
 72
     1
 11
5.92792056595956
 21
6.822424050008684
 31
0.0
100
AcDbText
  0
LINE
  5
1025
330
1E
100
AcDbEntity
  8
0
100
AcDbLine
 10
5.566920565959563
 20
7.086424050008683
 30
0.0
 11
5.566920565959563
 21
6.626424050008682
 31
0.0
  0
LINE
  5
1026
330
1E
100
AcDbEntity
  8
0
100
AcDbLine
 10
5.790852074757822
 20
6.939424050008683
 30
0.0
 11
5.790852074757822
 21
7.069424050008682
 31
0.0
  0
TEXT
  5
1027
330
1E
100
AcDbEntity
  8
0
100
AcDbText
 10
5.807587232626226
 20
6.822424050008684
 30
0.0
 40
0.05
  1
C
 50
180.0
 72
     1
 11
5.790920565959559
 21
6.822424050008684
 31
0.0
100
AcDbText
  0
LINE
  5
1028
330
1E
100
AcDbEntity
  8
0
100
AcDbLine
 10
7.644079434040431
 20
4.125575949991318
 30
0.0
 11
7.438079434040428
 21
4.125575949991318
 31
0.0
  0
LINE
  5
1029
330
1E
100
AcDbEntity
  8
0
100
AcDbLine
 10
7.301079434040431
 20
4.125575949991318
 30
0.0
 11
7.027079434040434
 21
4.125575949991318
 31
0.0
  0
LINE
  5
102A
330
1E
100
AcDbEntity
  8
0
100
AcDbLine
 10
7.98607943404043
 20
4.125575949991318
 30
0.0
 11
7.783079434040427
 21
4.125575949991318
 31
0.0
  0
LINE
  5
102B
330
1E
100
AcDbEntity
  8
0
100
AcDbLine
 10
6.412079434040428
 20
4.125575949991318
 30
0.0
 11
5.79407943404043
 21
4.125575949991318
 31
0.0
  0
LINE
  5
102C
330
1E
100
AcDbEntity
  8
0
100
AcDbLine
 10
6.891079434040431
 20
4.125575949991318
 30
0.0
 11
6.55007943404043
 21
4.125575949991318
 31
0.0
  0
CIRCLE
  5
102D
330
1E
100
AcDbEntity
  8
0
100
AcDbCircle
 10
7.84907943404043
 20
3.937575949991319
 30
0.0
 40
0.0350000000000002
  0
CIRCLE
  5
102E
330
1E
100
AcDbEntity
  8
0
100
AcDbCircle
 10
6.75307943404043
 20
3.937575949991319
 30
0.0
 40
0.0350000000000002
  0
CIRCLE
  5
102F
330
1E
100
AcDbEntity
  8
0
100
AcDbCircle
 10
7.438079434040429
 20
3.937575949991319
 30
0.0
 40
0.0350000000000002
  0
CIRCLE
  5
1030
330
1E
100
AcDbEntity
  8
0
100
AcDbCircle
 10
7.02664792524217
 20
3.937575949991319
 30
0.0
 40
0.0350000000000002
  0
CIRCLE
  5
1031
330
1E
100
AcDbEntity
  8
0
100
AcDbCircle
 10
7.16364792524217
 20
3.937575949991319
 30
0.0
 40
0.0350000000000002
  0
CIRCLE
  5
1032
330
1E
100
AcDbEntity
  8
0
100
AcDbCircle
 10
7.575079434040429
 20
3.937575949991319
 30
0.0
 40
0.0350000000000002
  0
CIRCLE
  5
1033
330
1E
100
AcDbEntity
  8
0
100
AcDbCircle
 10
7.71207943404043
 20
3.937575949991319
 30
0.0
 40
0.0350000000000002
  0
CIRCLE
  5
1034
330
1E
100
AcDbEntity
  8
0
100
AcDbCircle
 10
5.931079434040431
 20
3.937575949991319
 30
0.0
 40
0.0350000000000002
  0
CIRCLE
  5
1035
330
1E
100
AcDbEntity
  8
0
100
AcDbCircle
 10
6.205079434040428
 20
3.937575949991319
 30
0.0
 40
0.0350000000000002
  0
CIRCLE
  5
1036
330
1E
100
AcDbEntity
  8
0
100
AcDbCircle
 10
6.068079434040428
 20
3.937575949991319
 30
0.0
 40
0.0350000000000002
  0
CIRCLE
  5
1037
330
1E
100
AcDbEntity
  8
0
100
AcDbCircle
 10
6.342079434040429
 20
3.937575949991319
 30
0.0
 40
0.0350000000000002
  0
CIRCLE
  5
1038
330
1E
100
AcDbEntity
  8
0
100
AcDbCircle
 10
6.479079434040429
 20
3.937575949991319
 30
0.0
 40
0.0350000000000002
  0
CIRCLE
  5
1039
330
1E
100
AcDbEntity
  8
0
100
AcDbCircle
 10
6.61607943404043
 20
3.937575949991319
 30
0.0
 40
0.0350000000000002
  0
LINE
  5
103A
330
1E
100
AcDbEntity
  8
0
100
AcDbLine
 10
5.779920565959557
 20
6.701424050008683
 30
0.0
 11
6.474920565959557
 21
6.701424050008683
 31
0.0
  0
LINE
  5
103B
330
1E
100
AcDbEntity
  8
0
100
AcDbLine
 10
6.602920565959557
 20
6.701424050008683
 30
0.0
 11
7.29785207475782
 21
6.701424050008683
 31
0.0
  0
LINE
  5
105F
330
1E
100
AcDbEntity
  8
0
100
AcDbLine
 10
8.007670565959557
 20
7.127424050008683
 30
0.0
 11
8.007670565959557
 21
7.166424050008684
 31
0.0
  0
LINE
  5
1060
330
1E
100
AcDbEntity
  8
0
100
AcDbLine
 10
7.936170565959556
 20
7.127424050008683
 30
0.0
 11
7.936170565959556
 21
7.166424050008684
 31
0.0
  0
LINE
  5
1061
330
1E
100
AcDbEntity
  8
0
100
AcDbLine
 10
7.608670565959555
 20
7.127424050008683
 30
0.0
 11
7.608670565959555
 21
7.166424050008684
 31
0.0
  0
LINE
  5
1062
330
1E
100
AcDbEntity
  8
0
100
AcDbLine
 10
7.703670565959558
 20
7.127424050008683
 30
0.0
 11
7.703670565959558
 21
7.166424050008684
 31
0.0
  0
LINE
  5
1063
330
1E
100
AcDbEntity
  8
0
100
AcDbLine
 10
7.632170565959557
 20
7.127424050008683
 30
0.0
 11
7.632170565959557
 21
7.166424050008684
 31
0.0
  0
LINE
  5
1064
330
1E
100
AcDbEntity
  8
0
100
AcDbLine
 10
7.733170565959556
 20
7.127424050008683
 30
0.0
 11
7.733170565959556
 21
7.166424050008684
 31
0.0
  0
LINE
  5
1065
330
1E
100
AcDbEntity
  8
0
100
AcDbLine
 10
7.804670565959557
 20
7.127424050008683
 30
0.0
 11
7.804670565959557
 21
7.166424050008684
 31
0.0
  0
LINE
  5
1066
330
1E
100
AcDbEntity
  8
0
100
AcDbLine
 10
7.835170565959557
 20
7.127424050008683
 30
0.0
 11
7.835170565959557
 21
7.166424050008684
 31
0.0
  0
LINE
  5
1067
330
1E
100
AcDbEntity
  8
0
100
AcDbLine
 10
7.906670565959557
 20
7.127424050008683
 30
0.0
 11
7.906670565959557
 21
7.166424050008684
 31
0.0
  0
LINE
  5
106B
330
1E
100
AcDbEntity
  8
0
100
AcDbLine
 10
7.507670565959556
 20
7.127424050008683
 30
0.0
 11
7.507670565959556
 21
7.166424050008684
 31
0.0
  0
LINE
  5
106C
330
1E
100
AcDbEntity
  8
0
100
AcDbLine
 10
7.436170565959556
 20
7.127424050008683
 30
0.0
 11
7.436170565959556
 21
7.166424050008684
 31
0.0
  0
LINE
  5
106D
330
1E
100
AcDbEntity
  8
0
100
AcDbLine
 10
7.537170565959555
 20
7.127424050008683
 30
0.0
 11
7.537170565959555
 21
7.166424050008684
 31
0.0
  0
LINE
  5
106F
330
1E
100
AcDbEntity
  8
0
100
AcDbLine
 10
8.015920565959557
 20
7.100424050008682
 30
0.0
 11
8.015920565959557
 21
7.127424050008683
 31
0.0
  0
LINE
  5
1070
330
1E
100
AcDbEntity
  8
0
100
AcDbLine
 10
7.412920565959556
 20
7.127424050008683
 30
0.0
 11
7.412920565959556
 21
7.100424050008682
 31
0.0
  0
LINE
  5
1071
330
1E
100
AcDbEntity
  8
0
100
AcDbLine
 10
8.015920565959557
 20
7.127424050008683
 30
0.0
 11
7.412920565959556
 21
7.127424050008683
 31
0.0
  0
LINE
  5
1072
330
1E
100
AcDbEntity
  8
0
100
AcDbLine
 10
8.007670565959557
 20
7.166424050008684
 30
0.0
 11
7.936170565959556
 21
7.166424050008684
 31
0.0
  0
LINE
  5
1073
330
1E
100
AcDbEntity
  8
0
100
AcDbLine
 10
7.703670565959558
 20
7.166424050008684
 30
0.0
 11
7.632170565959557
 21
7.166424050008684
 31
0.0
  0
LINE
  5
1074
330
1E
100
AcDbEntity
  8
0
100
AcDbLine
 10
7.804670565959557
 20
7.166424050008684
 30
0.0
 11
7.733170565959556
 21
7.166424050008684
 31
0.0
  0
LINE
  5
1075
330
1E
100
AcDbEntity
  8
0
100
AcDbLine
 10
7.906670565959557
 20
7.166424050008684
 30
0.0
 11
7.835170565959557
 21
7.166424050008684
 31
0.0
  0
LINE
  5
1077
330
1E
100
AcDbEntity
  8
0
100
AcDbLine
 10
7.507670565959556
 20
7.166424050008684
 30
0.0
 11
7.436170565959556
 21
7.166424050008684
 31
0.0
  0
LINE
  5
1079
330
1E
100
AcDbEntity
  8
0
100
AcDbLine
 10
7.608670565959555
 20
7.166424050008684
 30
0.0
 11
7.537170565959555
 21
7.166424050008684
 31
0.0
  0
ENDSEC
  0
SECTION
  2
OBJECTS
  0
DICTIONARY
  5
C
330
0
100
AcDbDictionary
281
     1
  3
ACAD_GROUP
350
D
  3
ACAD_LAYOUT
350
19
  3
ACAD_MLINESTYLE
350
16
  3
ACAD_PLOTSETTINGS
350
18
  3
ACAD_PLOTSTYLENAME
350
E
  0
DICTIONARY
  5
D
102
{ACAD_REACTORS
330
C
102
}
330
C
100
AcDbDictionary
281
     1
  0
DICTIONARY
  5
19
102
{ACAD_REACTORS
330
C
102
}
330
C
100
AcDbDictionary
281
     1
  3
Layout1
350
1D
  3
Model
350
21
  0
DICTIONARY
  5
16
102
{ACAD_REACTORS
330
C
102
}
330
C
100
AcDbDictionary
281
     1
  3
Standard
350
17
  0
DICTIONARY
  5
18
102
{ACAD_REACTORS
330
C
102
}
330
C
100
AcDbDictionary
281
     1
  0
ACDBDICTIONARYWDFLT
  5
E
102
{ACAD_REACTORS
330
C
102
}
330
C
100
AcDbDictionary
281
     1
  3
Normal
350
F
100
AcDbDictionaryWithDefault
340
F
  0
LAYOUT
  5
1D
102
{ACAD_REACTORS
330
19
102
}
330
19
100
AcDbPlotSettings
  1

  2
\\ENGPRINTSERV\QMS 2425 Eng Printer
  4

  6

 40
0.0
 41
0.0
 42
0.0
 43
0.0
 44
0.0
 45
0.0
 46
0.0
 47
0.0
 48
0.0
 49
0.0
140
0.0
141
0.0
142
1.0
143
1.0
 70
   688
 72
     0
 73
     0
 74
     5
  7

 75
    16
147
1.0
148
0.0
149
0.0
100
AcDbLayout
  1
Layout1
 70
     1
 71
     1
 10
-108.0
 20
0.0
 11
-96.0
 21
9.0
 12
0.0
 22
0.0
 32
0.0
 14
-108.0
 24
0.0
 34
0.0
 15
17.0
 25
34.0
 35
0.0
146
0.0
 13
0.0
 23
0.0
 33
0.0
 16
1.0
 26
0.0
 36
0.0
 17
0.0
 27
1.0
 37
0.0
 76
     0
330
1A
  0
LAYOUT
  5
21
102
{ACAD_REACTORS
330
19
102
}
330
19
100
AcDbPlotSettings
  1

  2
none_device
  4
Letter_(8.50_x_11.00_Inches)
  6

 40
6.349999904632568
 41
6.349999904632568
 42
6.350006103515625
 43
6.350006103515625
 44
215.8999938964843
 45
279.3999938964843
 46
0.0
 47
0.0
 48
0.0
 49
0.0
140
0.0
141
0.0
142
1.0
143
1.0
 70
 11952
 72
     0
 73
     1
 74
     0
  7

 75
     0
147
1.0
148
-2795.084324617816
149
26.83882675644703
100
AcDbLayout
  1
Model
 70
     1
 71
     0
 10
0.0
 20
0.0
 11
12.0
 21
9.0
 12
0.0
 22
0.0
 32
0.0
 14
0.0
 24
0.0
 34
0.0
 15
0.0
 25
0.0
 35
0.0
146
0.0
 13
0.0
 23
0.0
 33
0.0
 16
1.0
 26
0.0
 36
0.0
 17
0.0
 27
1.0
 37
0.0
 76
     0
330
1E
  0
MLINESTYLE
  5
17
102
{ACAD_REACTORS
330
16
102
}
330
16
100
AcDbMlineStyle
  2
STANDARD
 70
     0
  3

 62
   256
 51
90.0
 52
90.0
 71
     2
 49
0.5
 62
   256
  6
BYLAYER
 49
-0.5
 62
   256
  6
BYLAYER
  0
ACDBPLACEHOLDER
  5
F
102
{ACAD_REACTORS
330
E
102
}
330
E
  0
ENDSEC
  0
EOF
