  0
SECTION
  2
HEADER
  9
$ACADVER
  1
AC1015
  9
$ACADMAINTVER
 70
    10
  9
$DWGCODEPAGE
  3
ANSI_1252
  9
$INSBASE
 10
0.0
 20
0.0
 30
0.0
  9
$EXTMIN
 10
4.921999999999992
 20
3.561999999999992
 30
0.0
  9
$EXTMAX
 10
7.668999999999995
 20
7.602999999999993
 30
0.0
  9
$LIMMIN
 10
-108.0
 20
0.0
  9
$LIMMAX
 10
-96.0
 20
9.0
  9
$ORTHOMODE
 70
     1
  9
$REGENMODE
 70
     1
  9
$FILLMODE
 70
     1
  9
$QTEXTMODE
 70
     0
  9
$MIRRTEXT
 70
     1
  9
$LTSCALE
 40
0.5
  9
$ATTMODE
 70
     1
  9
$TEXTSIZE
 40
0.2
  9
$TRACEWID
 40
0.05
  9
$TEXTSTYLE
  7
STANDARD
  9
$CLAYER
  8
TOP_CASE
  9
$CELTYPE
  6
ByLayer
  9
$CECOLOR
 62
   256
  9
$CELTSCALE
 40
1.0
  9
$DISPSILH
 70
     0
  9
$DIMSCALE
 40
1.0
  9
$DIMASZ
 40
0.18
  9
$DIMEXO
 40
0.0625
  9
$DIMDLI
 40
0.38
  9
$DIMRND
 40
0.0
  9
$DIMDLE
 40
0.0
  9
$DIMEXE
 40
0.18
  9
$DIMTP
 40
0.0
  9
$DIMTM
 40
0.0
  9
$DIMTXT
 40
0.18
  9
$DIMCEN
 40
0.09
  9
$DIMTSZ
 40
0.0
  9
$DIMTOL
 70
     0
  9
$DIMLIM
 70
     0
  9
$DIMTIH
 70
     1
  9
$DIMTOH
 70
     1
  9
$DIMSE1
 70
     0
  9
$DIMSE2
 70
     0
  9
$DIMTAD
 70
     0
  9
$DIMZIN
 70
     0
  9
$DIMBLK
  1

  9
$DIMASO
 70
     1
  9
$DIMSHO
 70
     1
  9
$DIMPOST
  1

  9
$DIMAPOST
  1

  9
$DIMALT
 70
     0
  9
$DIMALTD
 70
     2
  9
$DIMALTF
 40
25.4
  9
$DIMLFAC
 40
1.0
  9
$DIMTOFL
 70
     0
  9
$DIMTVP
 40
0.0
  9
$DIMTIX
 70
     0
  9
$DIMSOXD
 70
     0
  9
$DIMSAH
 70
     0
  9
$DIMBLK1
  1

  9
$DIMBLK2
  1

  9
$DIMSTYLE
  2
Standard
  9
$DIMCLRD
 70
     0
  9
$DIMCLRE
 70
     0
  9
$DIMCLRT
 70
     0
  9
$DIMTFAC
 40
1.0
  9
$DIMGAP
 40
0.09
  9
$DIMJUST
 70
     0
  9
$DIMSD1
 70
     0
  9
$DIMSD2
 70
     0
  9
$DIMTOLJ
 70
     1
  9
$DIMTZIN
 70
     0
  9
$DIMALTZ
 70
     0
  9
$DIMALTTZ
 70
     0
  9
$DIMUPT
 70
     0
  9
$DIMDEC
 70
     4
  9
$DIMTDEC
 70
     4
  9
$DIMALTU
 70
     2
  9
$DIMALTTD
 70
     2
  9
$DIMTXSTY
  7
STANDARD
  9
$DIMAUNIT
 70
     0
  9
$DIMADEC
 70
     0
  9
$DIMALTRND
 40
0.0
  9
$DIMAZIN
 70
     0
  9
$DIMDSEP
 70
    46
  9
$DIMATFIT
 70
     3
  9
$DIMFRAC
 70
     0
  9
$DIMLDRBLK
  1

  9
$DIMLUNIT
 70
     2
  9
$DIMLWD
 70
    -2
  9
$DIMLWE
 70
    -2
  9
$DIMTMOVE
 70
     2
  9
$LUNITS
 70
     2
  9
$LUPREC
 70
     4
  9
$SKETCHINC
 40
0.1
  9
$FILLETRAD
 40
0.0
  9
$AUNITS
 70
     0
  9
$AUPREC
 70
     0
  9
$MENU
  1
acad
  9
$ELEVATION
 40
0.0
  9
$PELEVATION
 40
0.0
  9
$THICKNESS
 40
0.0
  9
$LIMCHECK
 70
     0
  9
$CHAMFERA
 40
0.0
  9
$CHAMFERB
 40
0.0
  9
$CHAMFERC
 40
0.0
  9
$CHAMFERD
 40
0.0
  9
$SKPOLY
 70
     0
  9
$TDCREATE
 40
2449821.511861458
  9
$TDUCREATE
 40
2449821.845194791
  9
$TDUPDATE
 40
2453692.458753542
  9
$TDUUPDATE
 40
2453692.792086875
  9
$TDINDWG
 40
0.0883871875
  9
$TDUSRTIMER
 40
0.0883871875
  9
$USRTIMER
 70
     1
  9
$ANGBASE
 50
0.0
  9
$ANGDIR
 70
     0
  9
$PDMODE
 70
     0
  9
$PDSIZE
 40
0.0
  9
$PLINEWID
 40
0.02
  9
$SPLFRAME
 70
     0
  9
$SPLINETYPE
 70
     6
  9
$SPLINESEGS
 70
     8
  9
$HANDSEED
  5
3AA
  9
$SURFTAB1
 70
     6
  9
$SURFTAB2
 70
     6
  9
$SURFTYPE
 70
     6
  9
$SURFU
 70
     6
  9
$SURFV
 70
     6
  9
$UCSBASE
  2

  9
$UCSNAME
  2

  9
$UCSORG
 10
7.611920565959563
 20
6.798424050008676
 30
0.0
  9
$UCSXDIR
 10
1.0
 20
0.0
 30
0.0
  9
$UCSYDIR
 10
0.0
 20
1.0
 30
0.0
  9
$UCSORTHOREF
  2

  9
$UCSORTHOVIEW
 70
     0
  9
$UCSORGTOP
 10
0.0
 20
0.0
 30
0.0
  9
$UCSORGBOTTOM
 10
0.0
 20
0.0
 30
0.0
  9
$UCSORGLEFT
 10
0.0
 20
0.0
 30
0.0
  9
$UCSORGRIGHT
 10
0.0
 20
0.0
 30
0.0
  9
$UCSORGFRONT
 10
0.0
 20
0.0
 30
0.0
  9
$UCSORGBACK
 10
0.0
 20
0.0
 30
0.0
  9
$PUCSBASE
  2

  9
$PUCSNAME
  2

  9
$PUCSORG
 10
0.0
 20
0.0
 30
0.0
  9
$PUCSXDIR
 10
1.0
 20
0.0
 30
0.0
  9
$PUCSYDIR
 10
0.0
 20
1.0
 30
0.0
  9
$PUCSORTHOREF
  2

  9
$PUCSORTHOVIEW
 70
     0
  9
$PUCSORGTOP
 10
0.0
 20
0.0
 30
0.0
  9
$PUCSORGBOTTOM
 10
0.0
 20
0.0
 30
0.0
  9
$PUCSORGLEFT
 10
0.0
 20
0.0
 30
0.0
  9
$PUCSORGRIGHT
 10
0.0
 20
0.0
 30
0.0
  9
$PUCSORGFRONT
 10
0.0
 20
0.0
 30
0.0
  9
$PUCSORGBACK
 10
0.0
 20
0.0
 30
0.0
  9
$USERI1
 70
     0
  9
$USERI2
 70
     0
  9
$USERI3
 70
     0
  9
$USERI4
 70
     0
  9
$USERI5
 70
     0
  9
$USERR1
 40
0.0
  9
$USERR2
 40
0.0
  9
$USERR3
 40
0.0
  9
$USERR4
 40
0.0
  9
$USERR5
 40
0.0
  9
$WORLDVIEW
 70
     1
  9
$SHADEDGE
 70
     3
  9
$SHADEDIF
 70
    70
  9
$TILEMODE
 70
     1
  9
$MAXACTVP
 70
    16
  9
$PINSBASE
 10
0.0
 20
0.0
 30
0.0
  9
$PLIMCHECK
 70
     0
  9
$PEXTMIN
 10
-108.0
 20
0.0
 30
0.0
  9
$PEXTMAX
 10
17.0
 20
34.0
 30
0.0
  9
$PLIMMIN
 10
-108.0
 20
0.0
  9
$PLIMMAX
 10
-96.0
 20
9.0
  9
$UNITMODE
 70
     0
  9
$VISRETAIN
 70
     0
  9
$PLINEGEN
 70
     0
  9
$PSLTSCALE
 70
     1
  9
$TREEDEPTH
 70
  3020
  9
$CMLSTYLE
  2
Standard
  9
$CMLJUST
 70
     0
  9
$CMLSCALE
 40
1.0
  9
$PROXYGRAPHICS
 70
     1
  9
$MEASUREMENT
 70
     0
  9
$CELWEIGHT
370
    -1
  9
$ENDCAPS
280
     0
  9
$JOINSTYLE
280
     0
  9
$LWDISPLAY
290
     0
  9
$INSUNITS
 70
     0
  9
$HYPERLINKBASE
  1

  9
$STYLESHEET
  1

  9
$XEDIT
290
     1
  9
$CEPSNTYPE
380
     0
  9
$PSTYLEMODE
290
     1
  9
$FINGERPRINTGUID
  2
{EABF8F8B-C273-4FAD-8F17-CCC46D838C89}
  9
$VERSIONGUID
  2
{9D9FE4B8-7155-4B85-8B1A-A02386F40C69}
  9
$EXTNAMES
290
     1
  9
$PSVPSCALE
 40
0.0
  9
$OLESTARTUP
290
     0
  0
ENDSEC
  0
SECTION
  2
CLASSES
  0
CLASS
  1
ACDBDICTIONARYWDFLT
  2
AcDbDictionaryWithDefault
  3
AutoCAD 2000
 90
        0
280
     0
281
     0
  0
CLASS
  1
ACDBPLACEHOLDER
  2
AcDbPlaceHolder
  3
AutoCAD 2000
 90
        0
280
     0
281
     0
  0
CLASS
  1
LAYOUT
  2
AcDbLayout
  3
AutoCAD 2000
 90
        0
280
     0
281
     0
  0
ENDSEC
  0
SECTION
  2
TABLES
  0
TABLE
  2
VPORT
  5
8
330
0
100
AcDbSymbolTable
 70
     2
  0
VPORT
  5
3A9
330
8
100
AcDbSymbolTableRecord
100
AcDbViewportTableRecord
  2
*Active
 70
     0
 10
0.0
 20
0.0
 11
1.0
 21
1.0
 12
114.7357620213227
 22
5.037517044055032
 13
0.0
 23
0.0
 14
0.001
 24
0.001
 15
0.001
 25
0.001
 16
0.0
 26
0.0
 36
1.0
 17
-108.0
 27
0.0
 37
0.0
 40
6.29483229177724
 41
1.767754318618042
 42
50.0
 43
0.0
 44
0.0
 50
0.0
 51
0.0
 71
     0
 72
   100
 73
     1
 74
     1
 75
     1
 76
     1
 77
     0
 78
     0
281
     0
 65
     1
110
0.0
120
0.0
130
0.0
111
1.0
121
0.0
131
0.0
112
0.0
122
1.0
132
0.0
 79
     0
146
0.0
  0
ENDTAB
  0
TABLE
  2
LTYPE
  5
5
330
0
100
AcDbSymbolTable
 70
     1
  0
LTYPE
  5
13
330
5
100
AcDbSymbolTableRecord
100
AcDbLinetypeTableRecord
  2
ByBlock
 70
     0
  3

 72
    65
 73
     0
 40
0.0
  0
LTYPE
  5
14
330
5
100
AcDbSymbolTableRecord
100
AcDbLinetypeTableRecord
  2
ByLayer
 70
     0
  3

 72
    65
 73
     0
 40
0.0
  0
LTYPE
  5
15
330
5
100
AcDbSymbolTableRecord
100
AcDbLinetypeTableRecord
  2
CONTINUOUS
 70
     0
  3
Solid line
 72
    65
 73
     0
 40
0.0
  0
ENDTAB
  0
TABLE
  2
LAYER
  5
2
330
0
100
AcDbSymbolTable
 70
     2
  0
LAYER
  5
10
330
2
100
AcDbSymbolTableRecord
100
AcDbLayerTableRecord
  2
0
 70
     0
 62
     7
  6
CONTINUOUS
370
    -3
390
F
  0
LAYER
  5
4A
330
2
100
AcDbSymbolTableRecord
100
AcDbLayerTableRecord
  2
TOP_CASE
 70
     0
 62
     7
  6
CONTINUOUS
370
    -3
390
F
  0
ENDTAB
  0
TABLE
  2
STYLE
  5
3
330
0
100
AcDbSymbolTable
 70
     1
  0
STYLE
  5
11
330
3
100
AcDbSymbolTableRecord
100
AcDbTextStyleTableRecord
  2
STANDARD
 70
     0
 40
0.0
 41
1.0
 50
0.0
 71
     0
 42
0.2
  3
txt
  4

  0
ENDTAB
  0
TABLE
  2
VIEW
  5
6
330
0
100
AcDbSymbolTable
 70
     0
  0
ENDTAB
  0
TABLE
  2
UCS
  5
7
330
0
100
AcDbSymbolTable
 70
     0
  0
ENDTAB
  0
TABLE
  2
APPID
  5
9
330
0
100
AcDbSymbolTable
 70
     1
  0
APPID
  5
12
330
9
100
AcDbSymbolTableRecord
100
AcDbRegAppTableRecord
  2
ACAD
 70
     0
  0
ENDTAB
  0
TABLE
  2
DIMSTYLE
  5
A
330
0
100
AcDbSymbolTable
 70
     1
100
AcDbDimStyleTable
 71
     0
  0
DIMSTYLE
105
2DA
330
A
100
AcDbSymbolTableRecord
100
AcDbDimStyleTableRecord
  2
Standard
 70
     0
340
11
  0
ENDTAB
  0
TABLE
  2
BLOCK_RECORD
  5
1
330
0
100
AcDbSymbolTable
 70
     0
  0
BLOCK_RECORD
  5
1E
330
1
100
AcDbSymbolTableRecord
100
AcDbBlockTableRecord
  2
*Model_Space
340
21
  0
BLOCK_RECORD
  5
1A
330
1
100
AcDbSymbolTableRecord
100
AcDbBlockTableRecord
  2
*Paper_Space
340
1D
  0
ENDTAB
  0
ENDSEC
  0
SECTION
  2
BLOCKS
  0
BLOCK
  5
4F
330
1E
100
AcDbEntity
  8
0
100
AcDbBlockBegin
  2
*Model_Space
 70
     0
 10
0.0
 20
0.0
 30
0.0
  3
*Model_Space
  1

  0
ENDBLK
  5
50
330
1E
100
AcDbEntity
  8
0
100
AcDbBlockEnd
  0
BLOCK
  5
4D
330
1A
100
AcDbEntity
 67
     1
  8
0
100
AcDbBlockBegin
  2
*Paper_Space
 70
     0
 10
0.0
 20
0.0
 30
0.0
  3
*Paper_Space
  1

  0
ENDBLK
  5
4E
330
1A
100
AcDbEntity
 67
     1
  8
0
100
AcDbBlockEnd
  0
ENDSEC
  0
SECTION
  2
ENTITIES
  0
LINE
  5
19D
330
1E
100
AcDbEntity
  8
0
100
AcDbLine
 10
5.515999999999998
 20
4.886999999999991
 30
0.0
 11
5.515999999999998
 21
5.33699999999999
 31
0.0
  0
LINE
  5
19E
330
1E
100
AcDbEntity
  8
0
100
AcDbLine
 10
5.226999999999991
 20
5.33699999999999
 30
0.0
 11
5.226999999999991
 21
4.886999999999991
 31
0.0
  0
LINE
  5
19F
330
1E
100
AcDbEntity
  8
0
100
AcDbLine
 10
4.921999999999993
 20
6.49899999999999
 30
0.0
 11
4.921999999999993
 21
4.665999999999991
 31
0.0
  0
LINE
  5
1A0
330
1E
100
AcDbEntity
  8
0
100
AcDbLine
 10
7.668999999999995
 20
4.665999999999991
 30
0.0
 11
7.668999999999995
 21
6.49899999999999
 31
0.0
  0
CIRCLE
  5
1A1
330
1E
100
AcDbEntity
  8
0
100
AcDbCircle
 10
7.249999999999991
 20
3.690999999999991
 30
0.0
 40
0.0389999999999999
  0
LINE
  5
1A2
330
1E
100
AcDbEntity
  8
0
100
AcDbLine
 10
7.509999999999992
 20
3.809999999999991
 30
0.0
 11
6.086920565959562
 21
3.809999999999991
 31
0.0
  0
LINE
  5
1A3
330
1E
100
AcDbEntity
  8
0
100
AcDbLine
 10
7.509999999999992
 20
3.561999999999992
 30
0.0
 11
6.086920565959562
 21
3.561999999999992
 31
0.0
  0
LINE
  5
1A4
330
1E
100
AcDbEntity
  8
0
100
AcDbLine
 10
7.668999999999993
 20
3.891999999999992
 30
0.0
 11
4.921999999999993
 21
3.891999999999992
 31
0.0
  0
LINE
  5
1A5
330
1E
100
AcDbEntity
  8
0
100
AcDbLine
 10
7.668999999999995
 20
4.389999999999991
 30
0.0
 11
4.921999999999993
 21
4.389999999999991
 31
0.0
  0
LINE
  5
1A6
330
1E
100
AcDbEntity
  8
0
100
AcDbLine
 10
4.921999999999993
 20
4.665999999999991
 30
0.0
 11
7.668999999999995
 21
4.665999999999991
 31
0.0
  0
LINE
  5
1A7
330
1E
100
AcDbEntity
  8
0
100
AcDbLine
 10
4.921999999999993
 20
3.891999999999992
 30
0.0
 11
4.921999999999993
 21
4.389999999999991
 31
0.0
  0
LINE
  5
1A8
330
1E
100
AcDbEntity
  8
0
100
AcDbLine
 10
6.086920565959562
 20
3.561999999999992
 30
0.0
 11
6.086920565959562
 21
3.892999999999991
 31
0.0
  0
CIRCLE
  5
1B2
330
1E
100
AcDbEntity
  8
0
100
AcDbCircle
 10
6.973999999999991
 20
3.690999999999991
 30
0.0
 40
0.0389999999999999
  0
CIRCLE
  5
1B3
330
1E
100
AcDbEntity
  8
0
100
AcDbCircle
 10
7.112999999999994
 20
3.690999999999991
 30
0.0
 40
0.0389999999999999
  0
CIRCLE
  5
1B4
330
1E
100
AcDbEntity
  8
0
100
AcDbCircle
 10
6.290999999999991
 20
3.690999999999991
 30
0.0
 40
0.0389999999999999
  0
CIRCLE
  5
1B5
330
1E
100
AcDbEntity
  8
0
100
AcDbCircle
 10
6.427999999999991
 20
3.690999999999991
 30
0.0
 40
0.0389999999999999
  0
CIRCLE
  5
1B6
330
1E
100
AcDbEntity
  8
0
100
AcDbCircle
 10
6.702999999999994
 20
3.690999999999991
 30
0.0
 40
0.0389999999999999
  0
CIRCLE
  5
1B7
330
1E
100
AcDbEntity
  8
0
100
AcDbCircle
 10
6.564999999999992
 20
3.690999999999991
 30
0.0
 40
0.0389999999999999
  0
CIRCLE
  5
1B8
330
1E
100
AcDbEntity
  8
0
100
AcDbCircle
 10
6.153999999999994
 20
3.690999999999991
 30
0.0
 40
0.0389999999999999
  0
CIRCLE
  5
1B9
330
1E
100
AcDbEntity
  8
0
100
AcDbCircle
 10
6.838999999999993
 20
3.690999999999991
 30
0.0
 40
0.0389999999999999
  0
LINE
  5
1BA
330
1E
100
AcDbEntity
  8
0
100
AcDbLine
 10
4.921999999999993
 20
4.389999999999991
 30
0.0
 11
4.921999999999993
 21
4.665999999999991
 31
0.0
  0
LINE
  5
1BB
330
1E
100
AcDbEntity
  8
0
100
AcDbLine
 10
5.226999999999991
 20
4.886999999999991
 30
0.0
 11
5.515999999999998
 21
4.886999999999991
 31
0.0
  0
LINE
  5
1C2
330
1E
100
AcDbEntity
  8
0
100
AcDbLine
 10
7.668999999999993
 20
4.389999999999991
 30
0.0
 11
7.668999999999993
 21
3.891999999999992
 31
0.0
  0
CIRCLE
  5
1C4
330
1E
100
AcDbEntity
  8
0
100
AcDbCircle
 10
7.386999999999995
 20
3.690999999999991
 30
0.0
 40
0.0389999999999999
  0
LINE
  5
1C5
330
1E
100
AcDbEntity
  8
0
100
AcDbLine
 10
7.509999999999992
 20
3.892999999999991
 30
0.0
 11
7.509999999999992
 21
3.561999999999992
 31
0.0
  0
LINE
  5
1C6
330
1E
100
AcDbEntity
  8
0
100
AcDbLine
 10
7.668999999999995
 20
4.665999999999991
 30
0.0
 11
7.668999999999995
 21
4.389999999999991
 31
0.0
  0
LINE
  5
1C7
330
1E
100
AcDbEntity
  8
0
100
AcDbLine
 10
5.07199999999999
 20
7.602999999999993
 30
0.0
 11
6.496920565959563
 21
7.602999999999993
 31
0.0
  0
LINE
  5
1C8
330
1E
100
AcDbEntity
  8
0
100
AcDbLine
 10
5.07199999999999
 20
7.354999999999994
 30
0.0
 11
6.496920565959563
 21
7.354999999999994
 31
0.0
  0
LINE
  5
1CB
330
1E
100
AcDbEntity
  8
0
100
AcDbLine
 10
7.668999999999995
 20
6.49899999999999
 30
0.0
 11
4.921999999999993
 21
6.49899999999999
 31
0.0
  0
LINE
  5
1D2
330
1E
100
AcDbEntity
  8
0
100
AcDbLine
 10
5.517999999999998
 20
6.281999999999991
 30
0.0
 11
5.517999999999998
 21
5.438999999999999
 31
0.0
  0
LINE
  5
1D3
330
1E
100
AcDbEntity
  8
0
100
AcDbLine
 10
5.22499999999999
 20
5.438999999999999
 30
0.0
 11
5.22499999999999
 21
6.281999999999991
 31
0.0
  0
LINE
  5
1DA
330
1E
100
AcDbEntity
  8
0
100
AcDbLine
 10
5.517999999999998
 20
5.438999999999999
 30
0.0
 11
5.22499999999999
 21
5.438999999999999
 31
0.0
  0
LINE
  5
1DB
330
1E
100
AcDbEntity
  8
0
100
AcDbLine
 10
5.515999999999998
 20
5.33699999999999
 30
0.0
 11
5.226999999999991
 21
5.33699999999999
 31
0.0
  0
LINE
  5
1E8
330
1E
100
AcDbEntity
  8
0
100
AcDbLine
 10
5.22499999999999
 20
6.281999999999991
 30
0.0
 11
5.517999999999998
 21
6.281999999999991
 31
0.0
  0
CIRCLE
  5
1EF
330
1E
100
AcDbEntity
  8
0
100
AcDbCircle
 10
5.878999999999992
 20
7.473999999999993
 30
0.0
 40
0.0389999999999999
  0
LINE
  5
1F0
330
1E
100
AcDbEntity
  8
0
100
AcDbLine
 10
5.07199999999999
 20
7.271999999999994
 30
0.0
 11
5.07199999999999
 21
7.602999999999993
 31
0.0
  0
CIRCLE
  5
1F1
330
1E
100
AcDbEntity
  8
0
100
AcDbCircle
 10
5.194999999999991
 20
7.473999999999993
 30
0.0
 40
0.0389999999999999
  0
CIRCLE
  5
1F2
330
1E
100
AcDbEntity
  8
0
100
AcDbCircle
 10
5.331999999999991
 20
7.473999999999993
 30
0.0
 40
0.0389999999999999
  0
CIRCLE
  5
1F7
330
1E
100
AcDbEntity
  8
0
100
AcDbCircle
 10
5.607999999999991
 20
7.473999999999993
 30
0.0
 40
0.0389999999999999
  0
CIRCLE
  5
1F9
330
1E
100
AcDbEntity
  8
0
100
AcDbCircle
 10
5.468999999999992
 20
7.473999999999993
 30
0.0
 40
0.0389999999999999
  0
CIRCLE
  5
1FA
330
1E
100
AcDbEntity
  8
0
100
AcDbCircle
 10
5.742999999999993
 20
7.473999999999993
 30
0.0
 40
0.0389999999999999
  0
CIRCLE
  5
1FB
330
1E
100
AcDbEntity
  8
0
100
AcDbCircle
 10
6.01699999999999
 20
7.473999999999993
 30
0.0
 40
0.0389999999999999
  0
CIRCLE
  5
1FF
330
1E
100
AcDbEntity
  8
0
100
AcDbCircle
 10
6.290999999999991
 20
7.473999999999993
 30
0.0
 40
0.0389999999999999
  0
CIRCLE
  5
201
330
1E
100
AcDbEntity
  8
0
100
AcDbCircle
 10
6.153999999999991
 20
7.473999999999993
 30
0.0
 40
0.0389999999999999
  0
CIRCLE
  5
202
330
1E
100
AcDbEntity
  8
0
100
AcDbCircle
 10
6.427999999999991
 20
7.473999999999993
 30
0.0
 40
0.0389999999999999
  0
LINE
  5
204
330
1E
100
AcDbEntity
  8
0
100
AcDbLine
 10
6.496920565959563
 20
7.602999999999993
 30
0.0
 11
6.496920565959563
 21
7.271999999999994
 31
0.0
  0
LINE
  5
205
330
1E
100
AcDbEntity
  8
0
100
AcDbLine
 10
7.564999999999999
 20
6.396999999999998
 30
0.0
 11
5.025
 21
6.396999999999998
 31
0.0
  0
LINE
  5
206
330
1E
100
AcDbEntity
  8
0
100
AcDbLine
 10
6.129999999999999
 20
5.196999999999999
 30
0.0
 11
7.394000000000001
 21
5.196999999999999
 31
0.0
  0
LINE
  5
207
330
1E
100
AcDbEntity
  8
0
100
AcDbLine
 10
5.025
 20
4.766999999999999
 30
0.0
 11
7.564999999999999
 21
4.766999999999999
 31
0.0
  0
TEXT
  5
208
330
1E
100
AcDbEntity
  8
0
100
AcDbText
 10
5.189000000000001
 20
5.885999999999995
 30
0.0
 40
0.05
  1
RS-485
 50
90.0
100
AcDbText
  0
TEXT
  5
209
330
1E
100
AcDbEntity
  8
0
100
AcDbText
 10
5.557000000000002
 20
6.151999999999997
 30
0.0
 40
0.08
  1
T+
100
AcDbText
  0
CIRCLE
  5
20A
330
1E
100
AcDbEntity
  8
0
100
AcDbCircle
 10
5.943999999999999
 20
6.157
 30
0.0
 40
0.038
  0
LINE
  5
20B
330
1E
100
AcDbEntity
  8
0
100
AcDbLine
 10
5.22
 20
6.314999999999995
 30
0.0
 11
5.22
 21
5.403999999999996
 31
0.0
  0
LINE
  5
20C
330
1E
100
AcDbEntity
  8
0
100
AcDbLine
 10
5.522999999999999
 20
5.403999999999996
 30
0.0
 11
5.522999999999999
 21
6.314999999999995
 31
0.0
  0
LINE
  5
20D
330
1E
100
AcDbEntity
  8
0
100
AcDbLine
 10
5.009999999999999
 20
6.381999999999997
 30
0.0
 11
5.009999999999999
 21
4.781999999999998
 31
0.0
  0
TEXT
  5
20E
330
1E
100
AcDbEntity
  8
0
100
AcDbText
 10
5.189000000000001
 20
4.910999999999999
 30
0.0
 40
0.05
  1
10-30Vdc
 50
90.0
100
AcDbText
  0
TEXT
  5
20F
330
1E
100
AcDbEntity
  8
0
100
AcDbText
 10
5.096999999999999
 20
4.893999999999996
 30
0.0
 40
0.05
  1
DC POWER
 50
90.0
100
AcDbText
  0
LINE
  5
210
330
1E
100
AcDbEntity
  8
0
100
AcDbLine
 10
5.22
 20
4.866999999999999
 30
0.0
 11
5.220000000000002
 21
5.353999999999995
 31
0.0
  0
LINE
  5
211
330
1E
100
AcDbEntity
  8
0
100
AcDbLine
 10
5.523000000000001
 20
5.353999999999995
 30
0.0
 11
5.522999999999999
 21
4.866999999999999
 31
0.0
  0
LINE
  5
212
330
1E
100
AcDbEntity
  8
0
100
AcDbLine
 10
6.076999999999999
 20
4.862999999999999
 30
0.0
 11
6.076999999999999
 21
5.388999999999999
 31
0.0
  0
LINE
  5
213
330
1E
100
AcDbEntity
  8
0
100
AcDbLine
 10
5.816000000000002
 20
5.388999999999999
 30
0.0
 11
5.816000000000002
 21
4.862999999999999
 31
0.0
  0
LINE
  5
214
330
1E
100
AcDbEntity
  8
0
100
AcDbLine
 10
6.129999999999999
 20
4.796999999999998
 30
0.0
 11
6.129999999999999
 21
5.196999999999999
 31
0.0
  0
LINE
  5
215
330
1E
100
AcDbEntity
  8
0
100
AcDbLine
 10
5.522999999999999
 20
4.866999999999999
 30
0.0
 11
5.22
 21
4.866999999999999
 31
0.0
  0
ARC
  5
216
330
1E
100
AcDbEntity
  8
0
100
AcDbCircle
 10
5.025
 20
4.781999999999998
 30
0.0
 40
0.015
100
AcDbArc
 50
180.0
 51
270.0
  0
LINE
  5
217
330
1E
100
AcDbEntity
  8
0
100
AcDbLine
 10
5.919000000000002
 20
4.862999999999999
 30
0.0
 11
5.816000000000002
 21
4.862999999999999
 31
0.0
  0
LINE
  5
218
330
1E
100
AcDbEntity
  8
0
100
AcDbLine
 10
5.670000000000001
 20
4.945999999999999
 30
0.0
 11
5.654000000000001
 21
4.900999999999996
 31
0.0
  0
LINE
  5
219
330
1E
100
AcDbEntity
  8
0
100
AcDbLine
 10
5.592000000000002
 20
4.945999999999999
 30
0.0
 11
5.670000000000001
 21
4.945999999999999
 31
0.0
  0
LINE
  5
21A
330
1E
100
AcDbEntity
  8
0
100
AcDbLine
 10
5.632000000000001
 20
4.964
 30
0.0
 11
5.632000000000001
 21
4.945999999999999
 31
0.0
  0
LINE
  5
21B
330
1E
100
AcDbEntity
  8
0
100
AcDbLine
 10
5.632000000000001
 20
4.945999999999999
 30
0.0
 11
5.616000000000001
 21
4.900999999999996
 31
0.0
  0
LINE
  5
21C
330
1E
100
AcDbEntity
  8
0
100
AcDbLine
 10
5.592000000000002
 20
4.945999999999999
 30
0.0
 11
5.576000000000002
 21
4.900999999999996
 31
0.0
  0
LINE
  5
21D
330
1E
100
AcDbEntity
  8
0
100
AcDbLine
 10
5.523000000000001
 20
4.964
 30
0.0
 11
5.632000000000001
 21
4.964
 31
0.0
  0
TEXT
  5
21E
330
1E
100
AcDbEntity
  8
0
100
AcDbText
 10
5.546079434040427
 20
5.051999999999997
 30
0.0
 40
0.1
  1
-
100
AcDbText
  0
LINE
  5
21F
330
1E
100
AcDbEntity
  8
0
100
AcDbLine
 10
6.076999999999999
 20
4.862999999999999
 30
0.0
 11
5.974000000000001
 21
4.862999999999999
 31
0.0
  0
TEXT
  5
220
330
1E
100
AcDbEntity
  8
0
100
AcDbText
 10
5.849000000000001
 20
5.042999999999995
 30
0.0
 40
0.05
  1
LPWR
100
AcDbText
  0
CIRCLE
  5
221
330
1E
100
AcDbEntity
  8
0
100
AcDbCircle
 10
5.943999999999999
 20
4.956999999999998
 30
0.0
 40
0.038
  0
LINE
  5
222
330
1E
100
AcDbEntity
  8
0
100
AcDbLine
 10
5.220000000000002
 20
5.353999999999995
 30
0.0
 11
5.523000000000001
 21
5.353999999999995
 31
0.0
  0
LINE
  5
223
330
1E
100
AcDbEntity
  8
0
100
AcDbLine
 10
5.220000000000002
 20
5.403999999999996
 30
0.0
 11
5.523000000000001
 21
5.403999999999996
 31
0.0
  0
TEXT
  5
224
330
1E
100
AcDbEntity
  8
0
100
AcDbText
 10
5.189000000000001
 20
5.465999999999995
 30
0.0
 40
0.05
  1
RS-232
 50
90.0
100
AcDbText
  0
LINE
  5
225
330
1E
100
AcDbEntity
  8
0
100
AcDbLine
 10
5.221000000000001
 20
5.792999999999995
 30
0.0
 11
5.12
 21
5.792999999999995
 31
0.0
  0
TEXT
  5
226
330
1E
100
AcDbEntity
  8
0
100
AcDbText
 10
5.096000000000001
 20
5.704999999999996
 30
0.0
 40
0.05
  1
COMM
 50
90.0
100
AcDbText
  0
TEXT
  5
227
330
1E
100
AcDbEntity
  8
0
100
AcDbText
 10
5.557000000000002
 20
5.625
 30
0.0
 40
0.06
  1
RCV
100
AcDbText
  0
LINE
  5
228
330
1E
100
AcDbEntity
  8
0
100
AcDbLine
 10
6.076999999999999
 20
5.517999999999998
 30
0.0
 11
6.076999999999999
 21
6.038999999999997
 31
0.0
  0
LINE
  5
229
330
1E
100
AcDbEntity
  8
0
100
AcDbLine
 10
5.816000000000002
 20
6.038999999999997
 30
0.0
 11
5.816000000000002
 21
5.517999999999998
 31
0.0
  0
CIRCLE
  5
22A
330
1E
100
AcDbEntity
  8
0
100
AcDbCircle
 10
5.943999999999999
 20
5.606999999999999
 30
0.0
 40
0.038
  0
LINE
  5
22B
330
1E
100
AcDbEntity
  8
0
100
AcDbLine
 10
5.919000000000002
 20
5.388999999999999
 30
0.0
 11
5.816000000000002
 21
5.388999999999999
 31
0.0
  0
LINE
  5
22C
330
1E
100
AcDbEntity
  8
0
100
AcDbLine
 10
5.919000000000002
 20
5.517999999999998
 30
0.0
 11
5.816000000000002
 21
5.517999999999998
 31
0.0
  0
TEXT
  5
22D
330
1E
100
AcDbEntity
  8
0
100
AcDbText
 10
5.546079434040427
 20
5.188999999999998
 30
0.0
 40
0.1
  1
+
100
AcDbText
  0
TEXT
  5
22E
330
1E
100
AcDbEntity
  8
0
100
AcDbText
 10
5.557000000000002
 20
5.483999999999999
 30
0.0
 40
0.06
  1
XMIT
100
AcDbText
  0
TEXT
  5
22F
330
1E
100
AcDbEntity
  8
0
100
AcDbText
 10
5.881000000000002
 20
5.311999999999997
 30
0.0
 40
0.05
  1
I/O
100
AcDbText
  0
CIRCLE
  5
230
330
1E
100
AcDbEntity
  8
0
100
AcDbCircle
 10
5.943999999999999
 20
5.231999999999999
 30
0.0
 40
0.038
  0
LINE
  5
231
330
1E
100
AcDbEntity
  8
0
100
AcDbLine
 10
6.076999999999999
 20
5.388999999999999
 30
0.0
 11
5.974000000000001
 21
5.388999999999999
 31
0.0
  0
LINE
  5
232
330
1E
100
AcDbEntity
  8
0
100
AcDbLine
 10
6.076999999999999
 20
5.517999999999998
 30
0.0
 11
5.974000000000001
 21
5.517999999999998
 31
0.0
  0
LINE
  5
233
330
1E
100
AcDbEntity
  8
0
100
AcDbLine
 10
5.919000000000002
 20
6.038999999999997
 30
0.0
 11
5.816000000000002
 21
6.038999999999997
 31
0.0
  0
LINE
  5
234
330
1E
100
AcDbEntity
  8
0
100
AcDbLine
 10
5.674000000000001
 20
5.770999999999997
 30
0.0
 11
5.598
 21
5.770999999999997
 31
0.0
  0
LINE
  5
235
330
1E
100
AcDbEntity
  8
0
100
AcDbLine
 10
5.636000000000001
 20
5.704999999999994
 30
0.0
 11
5.674000000000001
 21
5.770999999999997
 31
0.0
  0
LINE
  5
236
330
1E
100
AcDbEntity
  8
0
100
AcDbLine
 10
5.636000000000001
 20
5.770999999999997
 30
0.0
 11
5.636000000000001
 21
5.791999999999996
 31
0.0
  0
LINE
  5
237
330
1E
100
AcDbEntity
  8
0
100
AcDbLine
 10
5.598
 20
5.770999999999997
 30
0.0
 11
5.636000000000001
 21
5.704999999999994
 31
0.0
  0
LINE
  5
238
330
1E
100
AcDbEntity
  8
0
100
AcDbLine
 10
5.636000000000001
 20
5.791999999999996
 30
0.0
 11
5.523000000000001
 21
5.791999999999996
 31
0.0
  0
TEXT
  5
239
330
1E
100
AcDbEntity
  8
0
100
AcDbText
 10
5.553
 20
5.877
 30
0.0
 40
0.1
  1
-
100
AcDbText
  0
TEXT
  5
23A
330
1E
100
AcDbEntity
  8
0
100
AcDbText
 10
5.553
 20
6.011999999999998
 30
0.0
 40
0.1
  1
+
100
AcDbText
  0
CIRCLE
  5
23B
330
1E
100
AcDbEntity
  8
0
100
AcDbCircle
 10
5.943999999999999
 20
5.881999999999997
 30
0.0
 40
0.038
  0
TEXT
  5
23C
330
1E
100
AcDbEntity
  8
0
100
AcDbText
 10
5.881
 20
5.701999999999999
 30
0.0
 40
0.05
  1
RCV
100
AcDbText
  0
LINE
  5
23D
330
1E
100
AcDbEntity
  8
0
100
AcDbLine
 10
6.076999999999999
 20
6.038999999999997
 30
0.0
 11
5.974000000000001
 21
6.038999999999997
 31
0.0
  0
TEXT
  5
23E
330
1E
100
AcDbEntity
  8
0
100
AcDbText
 10
5.858999999999999
 20
5.969999999999998
 30
0.0
 40
0.05
  1
XMIT
100
AcDbText
  0
LINE
  5
23F
330
1E
100
AcDbEntity
  8
0
100
AcDbLine
 10
5.522999999999999
 20
6.314999999999995
 30
0.0
 11
5.22
 21
6.314999999999995
 31
0.0
  0
ARC
  5
240
330
1E
100
AcDbEntity
  8
0
100
AcDbCircle
 10
5.025
 20
6.381999999999997
 30
0.0
 40
0.015
100
AcDbArc
 50
90.0
 51
180.0
  0
TEXT
  5
241
330
1E
100
AcDbEntity
  8
0
100
AcDbText
 10
5.867999999999998
 20
6.242999999999998
 30
0.0
 40
0.05
  1
PWR
100
AcDbText
  0
LINE
  5
242
330
1E
100
AcDbEntity
  8
0
100
AcDbLine
 10
7.439999999999999
 20
6.196999999999999
 30
0.0
 11
7.48
 21
6.136999999999998
 31
0.0
  0
LINE
  5
243
330
1E
100
AcDbEntity
  8
0
100
AcDbLine
 10
7.439999999999999
 20
6.196999999999999
 30
0.0
 11
7.39
 21
6.136999999999998
 31
0.0
  0
CIRCLE
  5
244
330
1E
100
AcDbEntity
  8
0
100
AcDbCircle
 10
7.195
 20
6.131999999999997
 30
0.0
 40
0.0749999999999997
  0
LINE
  5
245
330
1E
100
AcDbEntity
  8
0
100
AcDbLine
 10
6.987999999999999
 20
6.265999999999998
 30
0.0
 11
6.987999999999999
 21
5.571999999999999
 31
0.0
  0
LINE
  5
246
330
1E
100
AcDbEntity
  8
0
100
AcDbLine
 10
6.201999999999999
 20
6.265999999999998
 30
0.0
 11
6.201999999999999
 21
5.571999999999999
 31
0.0
  0
LINE
  5
247
330
1E
100
AcDbEntity
  8
0
100
AcDbLine
 10
7.58
 20
4.781999999999998
 30
0.0
 11
7.58
 21
6.381999999999997
 31
0.0
  0
LINE
  5
248
330
1E
100
AcDbEntity
  8
0
100
AcDbLine
 10
7.449999999999999
 20
6.086999999999997
 30
0.0
 11
7.419999999999999
 21
6.086999999999997
 31
0.0
  0
LINE
  5
249
330
1E
100
AcDbEntity
  8
0
100
AcDbLine
 10
7.439999999999999
 20
5.661999999999999
 30
0.0
 11
7.39
 21
5.721999999999999
 31
0.0
  0
LINE
  5
24A
330
1E
100
AcDbEntity
  8
0
100
AcDbLine
 10
7.449999999999999
 20
5.772
 30
0.0
 11
7.419999999999999
 21
5.772
 31
0.0
  0
LINE
  5
24B
330
1E
100
AcDbEntity
  8
0
100
AcDbLine
 10
7.394000000000001
 20
4.796999999999998
 30
0.0
 11
7.394000000000001
 21
5.196999999999999
 31
0.0
  0
LINE
  5
24C
330
1E
100
AcDbEntity
  8
0
100
AcDbLine
 10
6.179999999999999
 20
5.131999999999997
 30
0.0
 11
6.179999999999999
 21
4.861999999999998
 31
0.0
  0
LINE
  5
24D
330
1E
100
AcDbEntity
  8
0
100
AcDbLine
 10
7.343999999999999
 20
5.131999999999997
 30
0.0
 11
7.343999999999999
 21
4.861999999999998
 31
0.0
  0
LINE
  5
24E
330
1E
100
AcDbEntity
  8
0
100
AcDbLine
 10
6.195
 20
4.846999999999997
 30
0.0
 11
7.328999999999998
 21
4.846999999999997
 31
0.0
  0
ARC
  5
24F
330
1E
100
AcDbEntity
  8
0
100
AcDbCircle
 10
6.195
 20
4.861999999999998
 30
0.0
 40
0.0150000000000001
100
AcDbArc
 50
180.0
 51
270.0
  0
ARC
  5
250
330
1E
100
AcDbEntity
  8
0
100
AcDbCircle
 10
7.329
 20
4.861999999999998
 30
0.0
 40
0.0150000000000004
100
AcDbArc
 50
269.9999999999991
 51
359.9999999999991
  0
LINE
  5
251
330
1E
100
AcDbEntity
  8
0
100
AcDbLine
 10
6.744000000000001
 20
5.453999999999998
 30
0.0
 11
6.794000000000002
 21
5.453999999999998
 31
0.0
  0
LINE
  5
252
330
1E
100
AcDbEntity
  8
0
100
AcDbLine
 10
6.794000000000002
 20
5.483999999999998
 30
0.0
 11
6.744000000000001
 21
5.483999999999998
 31
0.0
  0
CIRCLE
  5
253
330
1E
100
AcDbEntity
  8
0
100
AcDbCircle
 10
6.794999999999999
 20
5.316999999999998
 30
0.0
 40
0.0750000000000002
  0
LINE
  5
254
330
1E
100
AcDbEntity
  8
0
100
AcDbLine
 10
6.972999999999998
 20
5.556999999999998
 30
0.0
 11
6.216999999999998
 21
5.556999999999998
 31
0.0
  0
LINE
  5
255
330
1E
100
AcDbEntity
  8
0
100
AcDbLine
 10
7.328999999999998
 20
5.146999999999998
 30
0.0
 11
6.195
 21
5.146999999999998
 31
0.0
  0
CIRCLE
  5
256
330
1E
100
AcDbEntity
  8
0
100
AcDbCircle
 10
6.394999999999999
 20
5.316999999999998
 30
0.0
 40
0.075
  0
ARC
  5
257
330
1E
100
AcDbEntity
  8
0
100
AcDbCircle
 10
6.195
 20
5.131999999999997
 30
0.0
 40
0.0149999999999999
100
AcDbArc
 50
89.9999999999992
 51
179.9999999999991
  0
ARC
  5
258
330
1E
100
AcDbEntity
  8
0
100
AcDbCircle
 10
6.217
 20
5.571999999999999
 30
0.0
 40
0.0150000000000001
100
AcDbArc
 50
180.0
 51
270.0
  0
LINE
  5
259
330
1E
100
AcDbEntity
  8
0
100
AcDbLine
 10
6.396
 20
5.487999999999994
 30
0.0
 11
6.396
 21
5.517999999999993
 31
0.0
  0
LINE
  5
25A
330
1E
100
AcDbEntity
  8
0
100
AcDbLine
 10
6.396
 20
5.457999999999994
 30
0.0
 11
6.446000000000001
 21
5.457999999999994
 31
0.0
  0
LINE
  5
25B
330
1E
100
AcDbEntity
  8
0
100
AcDbLine
 10
6.446000000000001
 20
5.487999999999994
 30
0.0
 11
6.396
 21
5.487999999999994
 31
0.0
  0
LINE
  5
25C
330
1E
100
AcDbEntity
  8
0
100
AcDbLine
 10
6.446000000000001
 20
5.457999999999994
 30
0.0
 11
6.446000000000001
 21
5.487999999999994
 31
0.0
  0
LINE
  5
25D
330
1E
100
AcDbEntity
  8
0
100
AcDbLine
 10
6.396
 20
5.427999999999993
 30
0.0
 11
6.396
 21
5.457999999999994
 31
0.0
  0
LINE
  5
25E
330
1E
100
AcDbEntity
  8
0
100
AcDbLine
 10
6.336
 20
5.467999999999994
 30
0.0
 11
6.396
 21
5.517999999999993
 31
0.0
  0
LINE
  5
25F
330
1E
100
AcDbEntity
  8
0
100
AcDbLine
 10
6.336
 20
5.467999999999994
 30
0.0
 11
6.396
 21
5.427999999999993
 31
0.0
  0
LINE
  5
260
330
1E
100
AcDbEntity
  8
0
100
AcDbLine
 10
6.744000000000001
 20
5.483999999999998
 30
0.0
 11
6.744000000000001
 21
5.453999999999998
 31
0.0
  0
CIRCLE
  5
261
330
1E
100
AcDbEntity
  8
0
100
AcDbCircle
 10
7.195
 20
5.706999999999998
 30
0.0
 40
0.0749999999999997
  0
LINE
  5
262
330
1E
100
AcDbEntity
  8
0
100
AcDbLine
 10
6.854000000000002
 20
5.473999999999998
 30
0.0
 11
6.794000000000002
 21
5.513999999999999
 31
0.0
  0
LINE
  5
263
330
1E
100
AcDbEntity
  8
0
100
AcDbLine
 10
6.794000000000002
 20
5.513999999999999
 30
0.0
 11
6.794000000000002
 21
5.483999999999998
 31
0.0
  0
LINE
  5
264
330
1E
100
AcDbEntity
  8
0
100
AcDbLine
 10
6.854000000000002
 20
5.473999999999998
 30
0.0
 11
6.794000000000002
 21
5.423999999999999
 31
0.0
  0
LINE
  5
265
330
1E
100
AcDbEntity
  8
0
100
AcDbLine
 10
6.794000000000002
 20
5.453999999999998
 30
0.0
 11
6.794000000000002
 21
5.423999999999999
 31
0.0
  0
ARC
  5
266
330
1E
100
AcDbEntity
  8
0
100
AcDbCircle
 10
6.972999999999998
 20
5.571999999999999
 30
0.0
 40
0.0150000000000004
100
AcDbArc
 50
269.9999999999991
 51
359.9999999999991
  0
ARC
  5
267
330
1E
100
AcDbEntity
  8
0
100
AcDbCircle
 10
7.329
 20
5.131999999999997
 30
0.0
 40
0.0150000000000001
100
AcDbArc
 50
0.0000000000017302
 51
90.00000000000175
  0
LINE
  5
268
330
1E
100
AcDbEntity
  8
0
100
AcDbLine
 10
7.419999999999999
 20
5.772
 30
0.0
 11
7.419999999999999
 21
5.721999999999999
 31
0.0
  0
LINE
  5
269
330
1E
100
AcDbEntity
  8
0
100
AcDbLine
 10
7.419999999999999
 20
5.721999999999999
 30
0.0
 11
7.39
 21
5.721999999999999
 31
0.0
  0
LINE
  5
26A
330
1E
100
AcDbEntity
  8
0
100
AcDbLine
 10
7.419999999999999
 20
6.086999999999997
 30
0.0
 11
7.419999999999999
 21
6.136999999999998
 31
0.0
  0
LINE
  5
26B
330
1E
100
AcDbEntity
  8
0
100
AcDbLine
 10
7.419999999999999
 20
6.136999999999998
 30
0.0
 11
7.39
 21
6.136999999999998
 31
0.0
  0
ARC
  5
26C
330
1E
100
AcDbEntity
  8
0
100
AcDbCircle
 10
7.564999999999999
 20
4.781999999999998
 30
0.0
 40
0.0150000000000001
100
AcDbArc
 50
270.0
 51
0.0
  0
LINE
  5
26D
330
1E
100
AcDbEntity
  8
0
100
AcDbLine
 10
7.439999999999999
 20
5.661999999999999
 30
0.0
 11
7.48
 21
5.721999999999999
 31
0.0
  0
LINE
  5
26E
330
1E
100
AcDbEntity
  8
0
100
AcDbLine
 10
7.48
 20
5.721999999999999
 30
0.0
 11
7.449999999999999
 21
5.721999999999999
 31
0.0
  0
LINE
  5
26F
330
1E
100
AcDbEntity
  8
0
100
AcDbLine
 10
7.449999999999999
 20
5.721999999999999
 30
0.0
 11
7.449999999999999
 21
5.772
 31
0.0
  0
LINE
  5
270
330
1E
100
AcDbEntity
  8
0
100
AcDbLine
 10
7.449999999999999
 20
6.136999999999998
 30
0.0
 11
7.449999999999999
 21
6.086999999999997
 31
0.0
  0
LINE
  5
271
330
1E
100
AcDbEntity
  8
0
100
AcDbLine
 10
7.48
 20
6.136999999999998
 30
0.0
 11
7.449999999999999
 21
6.136999999999998
 31
0.0
  0
LINE
  5
272
330
1E
100
AcDbEntity
  8
0
100
AcDbLine
 10
6.216999999999998
 20
6.280999999999998
 30
0.0
 11
6.972999999999998
 21
6.280999999999998
 31
0.0
  0
ARC
  5
273
330
1E
100
AcDbEntity
  8
0
100
AcDbCircle
 10
6.216999999999998
 20
6.265999999999998
 30
0.0
 40
0.0149999999999998
100
AcDbArc
 50
89.99999999999884
 51
179.9999999999988
  0
ARC
  5
274
330
1E
100
AcDbEntity
  8
0
100
AcDbCircle
 10
6.972999999999998
 20
6.265999999999998
 30
0.0
 40
0.0150000000000001
100
AcDbArc
 50
0.0000000000017302
 51
90.00000000000175
  0
ARC
  5
275
330
1E
100
AcDbEntity
  8
0
100
AcDbCircle
 10
7.564999999999999
 20
6.381999999999997
 30
0.0
 40
0.0150000000000001
100
AcDbArc
 50
0.0
 51
90.0
  0
TEXT
  5
282
330
1E
100
AcDbEntity
  8
0
100
AcDbText
 10
6.412412767373756
 20
4.180575949991311
 30
0.0
 40
0.05
  1
3
 72
     1
 11
6.429079434040422
 21
4.180575949991311
 31
0.0
100
AcDbText
  0
LINE
  5
283
330
1E
100
AcDbEntity
  8
0
100
AcDbLine
 10
7.612079434040414
 20
4.376575949991313
 30
0.0
 11
4.972079434040422
 21
4.376575949991313
 31
0.0
  0
LINE
  5
284
330
1E
100
AcDbEntity
  8
0
100
AcDbLine
 10
4.972079434040422
 20
3.916575949991312
 30
0.0
 11
7.612079434040414
 21
3.916575949991312
 31
0.0
  0
LINE
  5
289
330
1E
100
AcDbEntity
  8
0
100
AcDbLine
 10
5.252079434040423
 20
4.225575949991311
 30
0.0
 11
5.951079434040421
 21
4.225575949991311
 31
0.0
  0
LINE
  5
28A
330
1E
100
AcDbEntity
  8
0
100
AcDbLine
 10
4.972079434040422
 20
3.916575949991312
 30
0.0
 11
4.972079434040422
 21
4.376575949991313
 31
0.0
  0
LINE
  5
28B
330
1E
100
AcDbEntity
  8
0
100
AcDbLine
 10
5.252079434040416
 20
4.063575949991312
 30
0.0
 11
5.252079434040416
 21
3.933575949991313
 31
0.0
  0
TEXT
  5
28C
330
1E
100
AcDbEntity
  8
0
100
AcDbText
 10
5.552079434040417
 20
4.122575949991311
 30
0.0
 40
0.05
  1
5V
 72
     1
 11
5.602079434040417
 21
4.122575949991311
 31
0.0
100
AcDbText
  0
LINE
  5
28D
330
1E
100
AcDbEntity
  8
0
100
AcDbLine
 10
5.55207943404042
 20
4.063575949991312
 30
0.0
 11
5.55207943404042
 21
3.933575949991313
 31
0.0
  0
LINE
  5
28E
330
1E
100
AcDbEntity
  8
0
100
AcDbLine
 10
5.452079434040419
 20
4.063575949991312
 30
0.0
 11
5.452079434040419
 21
3.933575949991313
 31
0.0
  0
LINE
  5
28F
330
1E
100
AcDbEntity
  8
0
100
AcDbLine
 10
5.352079434040417
 20
4.063575949991312
 30
0.0
 11
5.352079434040417
 21
3.933575949991313
 31
0.0
  0
LINE
  5
290
330
1E
100
AcDbEntity
  8
0
100
AcDbLine
 10
5.852079434040417
 20
4.063575949991312
 30
0.0
 11
5.852079434040417
 21
3.933575949991313
 31
0.0
  0
LINE
  5
291
330
1E
100
AcDbEntity
  8
0
100
AcDbLine
 10
5.752079434040419
 20
4.063575949991312
 30
0.0
 11
5.752079434040419
 21
3.933575949991313
 31
0.0
  0
LINE
  5
292
330
1E
100
AcDbEntity
  8
0
100
AcDbLine
 10
5.652079434040418
 20
4.063575949991312
 30
0.0
 11
5.652079434040418
 21
3.933575949991313
 31
0.0
  0
LINE
  5
293
330
1E
100
AcDbEntity
  8
0
100
AcDbLine
 10
5.952079434040419
 20
4.063575949991312
 30
0.0
 11
5.952079434040419
 21
3.933575949991313
 31
0.0
  0
LINE
  5
294
330
1E
100
AcDbEntity
  8
0
100
AcDbLine
 10
6.42914792524216
 20
4.063575949991312
 30
0.0
 11
6.42914792524216
 21
3.933575949991313
 31
0.0
  0
LINE
  5
295
330
1E
100
AcDbEntity
  8
0
100
AcDbLine
 10
6.29214792524216
 20
4.063575949991312
 30
0.0
 11
6.29214792524216
 21
3.933575949991313
 31
0.0
  0
LINE
  5
296
330
1E
100
AcDbEntity
  8
0
100
AcDbLine
 10
6.155147925242159
 20
4.063575949991312
 30
0.0
 11
6.155147925242159
 21
3.933575949991313
 31
0.0
  0
TEXT
  5
297
330
1E
100
AcDbEntity
  8
0
100
AcDbText
 10
5.514579434040417
 20
4.276575949991311
 30
0.0
 40
0.05
  1
20mA
 72
     4
 11
5.602079434040417
 21
4.301575949991311
 31
0.0
100
AcDbText
  0
TEXT
  5
298
330
1E
100
AcDbEntity
  8
0
100
AcDbText
 10
6.275481258575493
 20
4.180575949991311
 30
0.0
 40
0.05
  1
2
 72
     1
 11
6.29214792524216
 21
4.180575949991311
 31
0.0
100
AcDbText
  0
TEXT
  5
299
330
1E
100
AcDbEntity
  8
0
100
AcDbText
 10
6.146746100707088
 20
4.180575949991311
 30
0.0
 40
0.05
  1
1
 72
     1
 11
6.155079434040422
 21
4.180575949991311
 31
0.0
100
AcDbText
  0
LINE
  5
29A
330
1E
100
AcDbEntity
  8
0
100
AcDbLine
 10
6.566147925242161
 20
4.063575949991312
 30
0.0
 11
6.566147925242161
 21
3.933575949991313
 31
0.0
  0
LINE
  5
29B
330
1E
100
AcDbEntity
  8
0
100
AcDbLine
 10
6.703147925242161
 20
4.063575949991312
 30
0.0
 11
6.703147925242161
 21
3.933575949991313
 31
0.0
  0
LINE
  5
29C
330
1E
100
AcDbEntity
  8
0
100
AcDbLine
 10
6.977147925242162
 20
4.063575949991312
 30
0.0
 11
6.977147925242162
 21
3.933575949991313
 31
0.0
  0
LINE
  5
29D
330
1E
100
AcDbEntity
  8
0
100
AcDbLine
 10
6.840147925242161
 20
4.063575949991312
 30
0.0
 11
6.840147925242161
 21
3.933575949991313
 31
0.0
  0
LINE
  5
29E
330
1E
100
AcDbEntity
  8
0
100
AcDbLine
 10
7.251147925242156
 20
4.063575949991312
 30
0.0
 11
7.251147925242156
 21
3.933575949991313
 31
0.0
  0
LINE
  5
29F
330
1E
100
AcDbEntity
  8
0
100
AcDbLine
 10
7.114147925242155
 20
4.063575949991312
 30
0.0
 11
7.114147925242155
 21
3.933575949991313
 31
0.0
  0
LINE
  5
2A0
330
1E
100
AcDbEntity
  8
0
100
AcDbLine
 10
7.388147925242155
 20
4.063575949991312
 30
0.0
 11
7.388147925242155
 21
3.933575949991313
 31
0.0
  0
TEXT
  5
2A5
330
1E
100
AcDbEntity
  8
0
100
AcDbText
 10
6.68641276737375
 20
4.180575949991311
 30
0.0
 40
0.05
  1
5
 72
     1
 11
6.703079434040416
 21
4.180575949991311
 31
0.0
100
AcDbText
  0
TEXT
  5
2A6
330
1E
100
AcDbEntity
  8
0
100
AcDbText
 10
6.549481258575494
 20
4.180575949991311
 30
0.0
 40
0.05
  1
4
 72
     1
 11
6.566147925242161
 21
4.180575949991311
 31
0.0
100
AcDbText
  0
TEXT
  5
2A7
330
1E
100
AcDbEntity
  8
0
100
AcDbText
 10
6.736746100707087
 20
4.276575949991311
 30
0.0
 40
0.05
  1
AI
 72
     4
 11
6.77007943404042
 21
4.301575949991311
 31
0.0
100
AcDbText
  0
TEXT
  5
2A8
330
1E
100
AcDbEntity
  8
0
100
AcDbText
 10
6.960412767373751
 20
4.180575949991311
 30
0.0
 40
0.05
  1
7
 72
     1
 11
6.977079434040417
 21
4.180575949991311
 31
0.0
100
AcDbText
  0
TEXT
  5
2A9
330
1E
100
AcDbEntity
  8
0
100
AcDbText
 10
6.823481258575495
 20
4.180575949991311
 30
0.0
 40
0.05
  1
6
 72
     1
 11
6.840147925242161
 21
4.180575949991311
 31
0.0
100
AcDbText
  0
TEXT
  5
2AA
330
1E
100
AcDbEntity
  8
0
100
AcDbText
 10
7.234412767373751
 20
4.180575949991311
 30
0.0
 40
0.05
  1
C
 72
     1
 11
7.251079434040418
 21
4.180575949991311
 31
0.0
100
AcDbText
  0
TEXT
  5
2AB
330
1E
100
AcDbEntity
  8
0
100
AcDbText
 10
7.097481258575489
 20
4.180575949991311
 30
0.0
 40
0.05
  1
8
 72
     1
 11
7.114147925242155
 21
4.180575949991311
 31
0.0
100
AcDbText
  0
TEXT
  5
2AC
330
1E
100
AcDbEntity
  8
0
100
AcDbText
 10
7.371412767373751
 20
4.180575949991311
 30
0.0
 40
0.05
  1
C
 72
     1
 11
7.388079434040418
 21
4.180575949991311
 31
0.0
100
AcDbText
  0
LINE
  5
2AD
330
1E
100
AcDbEntity
  8
0
100
AcDbLine
 10
7.612079434040414
 20
3.916575949991312
 30
0.0
 11
7.612079434040414
 21
4.376575949991313
 31
0.0
  0
LINE
  5
2B2
330
1E
100
AcDbEntity
  8
0
100
AcDbLine
 10
7.611920565959563
 20
7.258424050008677
 30
0.0
 11
4.971920565959569
 21
7.258424050008677
 31
0.0
  0
LINE
  5
2B3
330
1E
100
AcDbEntity
  8
0
100
AcDbLine
 10
4.971920565959569
 20
6.798424050008676
 30
0.0
 11
7.611920565959563
 21
6.798424050008676
 31
0.0
  0
LINE
  5
2B4
330
1E
100
AcDbEntity
  8
0
100
AcDbLine
 10
7.611920565959563
 20
7.258424050008677
 30
0.0
 11
7.611920565959563
 21
6.798424050008676
 31
0.0
  0
TEXT
  5
2B5
330
1E
100
AcDbEntity
  8
0
100
AcDbText
 10
7.031920565959567
 20
7.052424050008678
 30
0.0
 40
0.05
  1
5V
 50
180.0
 72
     1
 11
6.981920565959567
 21
7.052424050008678
 31
0.0
100
AcDbText
  0
LINE
  5
2B6
330
1E
100
AcDbEntity
  8
0
100
AcDbLine
 10
7.331920565959569
 20
7.111424050008677
 30
0.0
 11
7.331920565959569
 21
7.241424050008676
 31
0.0
  0
LINE
  5
2B7
330
1E
100
AcDbEntity
  8
0
100
AcDbLine
 10
7.231920565959567
 20
7.111424050008677
 30
0.0
 11
7.231920565959567
 21
7.241424050008676
 31
0.0
  0
LINE
  5
2B8
330
1E
100
AcDbEntity
  8
0
100
AcDbLine
 10
7.131920565959566
 20
7.111424050008677
 30
0.0
 11
7.131920565959566
 21
7.241424050008676
 31
0.0
  0
LINE
  5
2B9
330
1E
100
AcDbEntity
  8
0
100
AcDbLine
 10
7.031920565959564
 20
7.111424050008677
 30
0.0
 11
7.031920565959564
 21
7.241424050008676
 31
0.0
  0
LINE
  5
2BA
330
1E
100
AcDbEntity
  8
0
100
AcDbLine
 10
6.931920565959567
 20
7.111424050008677
 30
0.0
 11
6.931920565959567
 21
7.241424050008676
 31
0.0
  0
LINE
  5
2BB
330
1E
100
AcDbEntity
  8
0
100
AcDbLine
 10
6.831920565959565
 20
7.111424050008677
 30
0.0
 11
6.831920565959565
 21
7.241424050008676
 31
0.0
  0
LINE
  5
2BC
330
1E
100
AcDbEntity
  8
0
100
AcDbLine
 10
6.731920565959567
 20
7.111424050008677
 30
0.0
 11
6.731920565959567
 21
7.241424050008676
 31
0.0
  0
LINE
  5
2BD
330
1E
100
AcDbEntity
  8
0
100
AcDbLine
 10
6.631920565959566
 20
7.111424050008677
 30
0.0
 11
6.631920565959566
 21
7.241424050008676
 31
0.0
  0
LINE
  5
2BE
330
1E
100
AcDbEntity
  8
0
100
AcDbLine
 10
6.428852074757825
 20
7.111424050008677
 30
0.0
 11
6.428852074757825
 21
7.241424050008676
 31
0.0
  0
LINE
  5
2BF
330
1E
100
AcDbEntity
  8
0
100
AcDbLine
 10
7.331920565959562
 20
6.949424050008678
 30
0.0
 11
6.632920565959564
 21
6.949424050008678
 31
0.0
  0
TEXT
  5
2C0
330
1E
100
AcDbEntity
  8
0
100
AcDbText
 10
7.069420565959568
 20
6.898424050008678
 30
0.0
 40
0.05
  1
20mA
 50
180.0
 72
     4
 11
6.981920565959567
 21
6.873424050008678
 31
0.0
100
AcDbText
  0
TEXT
  5
2C1
330
1E
100
AcDbEntity
  8
0
100
AcDbText
 10
6.44558723262623
 20
6.994424050008678
 30
0.0
 40
0.05
  1
9
 50
180.0
 72
     1
 11
6.428920565959563
 21
6.994424050008678
 31
0.0
100
AcDbText
  0
LINE
  5
2C6
330
1E
100
AcDbEntity
  8
0
100
AcDbLine
 10
6.291852074757825
 20
7.111424050008677
 30
0.0
 11
6.291852074757825
 21
7.241424050008676
 31
0.0
  0
LINE
  5
2C7
330
1E
100
AcDbEntity
  8
0
100
AcDbLine
 10
6.154852074757824
 20
7.111424050008677
 30
0.0
 11
6.154852074757824
 21
7.241424050008676
 31
0.0
  0
LINE
  5
2C8
330
1E
100
AcDbEntity
  8
0
100
AcDbLine
 10
5.880852074757823
 20
7.111424050008677
 30
0.0
 11
5.880852074757823
 21
7.241424050008676
 31
0.0
  0
LINE
  5
2C9
330
1E
100
AcDbEntity
  8
0
100
AcDbLine
 10
6.017852074757824
 20
7.111424050008677
 30
0.0
 11
6.017852074757824
 21
7.241424050008676
 31
0.0
  0
LINE
  5
2CA
330
1E
100
AcDbEntity
  8
0
100
AcDbLine
 10
5.743852074757823
 20
7.111424050008677
 30
0.0
 11
5.743852074757823
 21
7.241424050008676
 31
0.0
  0
LINE
  5
2CB
330
1E
100
AcDbEntity
  8
0
100
AcDbLine
 10
5.606852074757822
 20
7.111424050008677
 30
0.0
 11
5.606852074757822
 21
7.241424050008676
 31
0.0
  0
LINE
  5
2CC
330
1E
100
AcDbEntity
  8
0
100
AcDbLine
 10
5.469852074757829
 20
7.111424050008677
 30
0.0
 11
5.469852074757829
 21
7.241424050008676
 31
0.0
  0
LINE
  5
2CD
330
1E
100
AcDbEntity
  8
0
100
AcDbLine
 10
5.332852074757829
 20
7.111424050008677
 30
0.0
 11
5.332852074757829
 21
7.241424050008676
 31
0.0
  0
TEXT
  5
2CE
330
1E
100
AcDbEntity
  8
0
100
AcDbText
 10
5.847253899292898
 20
6.898424050008678
 30
0.0
 40
0.05
  1
AI
 50
180.0
 72
     4
 11
5.813920565959564
 21
6.873424050008678
 31
0.0
100
AcDbText
  0
TEXT
  5
2CF
330
1E
100
AcDbEntity
  8
0
100
AcDbText
 10
6.321018741424492
 20
6.994424050008678
 30
0.0
 40
0.05
  1
10
 50
180.0
 72
     1
 11
6.291852074757825
 21
6.994424050008678
 31
0.0
100
AcDbText
  0
TEXT
  5
2D0
330
1E
100
AcDbEntity
  8
0
100
AcDbText
 10
6.179920565959562
 20
6.994424050008678
 30
0.0
 40
0.05
  1
11
 50
180.0
 72
     1
 11
6.154920565959562
 21
6.994424050008678
 31
0.0
100
AcDbText
  0
TEXT
  5
2D1
330
1E
100
AcDbEntity
  8
0
100
AcDbText
 10
6.051185408091157
 20
6.994424050008678
 30
0.0
 40
0.05
  1
12
 50
180.0
 72
     1
 11
6.017852074757824
 21
6.994424050008678
 31
0.0
100
AcDbText
  0
TEXT
  5
2D2
330
1E
100
AcDbEntity
  8
0
100
AcDbText
 10
5.914253899292901
 20
6.994424050008678
 30
0.0
 40
0.05
  1
13
 50
180.0
 72
     1
 11
5.880920565959568
 21
6.994424050008678
 31
0.0
100
AcDbText
  0
TEXT
  5
2D3
330
1E
100
AcDbEntity
  8
0
100
AcDbText
 10
5.777185408091156
 20
6.994424050008678
 30
0.0
 40
0.05
  1
14
 50
180.0
 72
     1
 11
5.743852074757823
 21
6.994424050008678
 31
0.0
100
AcDbText
  0
TEXT
  5
2D4
330
1E
100
AcDbEntity
  8
0
100
AcDbText
 10
5.6402538992929
 20
6.994424050008678
 30
0.0
 40
0.05
  1
15
 50
180.0
 72
     1
 11
5.606920565959567
 21
6.994424050008678
 31
0.0
100
AcDbText
  0
TEXT
  5
2D5
330
1E
100
AcDbEntity
  8
0
100
AcDbText
 10
5.503185408091162
 20
6.994424050008678
 30
0.0
 40
0.05
  1
16
 50
180.0
 72
     1
 11
5.469852074757829
 21
6.994424050008678
 31
0.0
100
AcDbText
  0
TEXT
  5
2D6
330
1E
100
AcDbEntity
  8
0
100
AcDbText
 10
5.349587232626233
 20
6.994424050008678
 30
0.0
 40
0.05
  1
C
 50
180.0
 72
     1
 11
5.332920565959566
 21
6.994424050008678
 31
0.0
100
AcDbText
  0
LINE
  5
2D7
330
1E
100
AcDbEntity
  8
0
100
AcDbLine
 10
4.971920565959569
 20
7.258424050008677
 30
0.0
 11
4.971920565959569
 21
6.798424050008676
 31
0.0
  0
LINE
  5
2D8
330
1E
100
AcDbEntity
  8
0
100
AcDbLine
 10
5.195852074757828
 20
7.111424050008677
 30
0.0
 11
5.195852074757828
 21
7.241424050008676
 31
0.0
  0
TEXT
  5
2D9
330
1E
100
AcDbEntity
  8
0
100
AcDbText
 10
5.212587232626233
 20
6.994424050008678
 30
0.0
 40
0.05
  1
C
 50
180.0
 72
     1
 11
5.195920565959566
 21
6.994424050008678
 31
0.0
100
AcDbText
  0
LINE
  5
2E1
330
1E
100
AcDbEntity
  8
0
100
AcDbLine
 10
6.29999999999999
 20
3.728999999999992
 30
0.0
 11
6.29999999999999
 21
3.652999999999992
 31
0.0
  0
LINE
  5
2E2
330
1E
100
AcDbEntity
  8
0
100
AcDbLine
 10
6.281999999999991
 20
3.728999999999992
 30
0.0
 11
6.281999999999991
 21
3.652999999999992
 31
0.0
  0
LINE
  5
2E3
330
1E
100
AcDbEntity
  8
0
100
AcDbLine
 10
6.162999999999994
 20
3.728999999999992
 30
0.0
 11
6.162999999999994
 21
3.652999999999992
 31
0.0
  0
LINE
  5
2E4
330
1E
100
AcDbEntity
  8
0
100
AcDbLine
 10
6.144999999999994
 20
3.728999999999992
 30
0.0
 11
6.144999999999994
 21
3.652999999999992
 31
0.0
  0
LINE
  5
2E5
330
1E
100
AcDbEntity
  8
0
100
AcDbLine
 10
7.395999999999994
 20
3.728999999999992
 30
0.0
 11
7.395999999999994
 21
3.652999999999992
 31
0.0
  0
LINE
  5
2E6
330
1E
100
AcDbEntity
  8
0
100
AcDbLine
 10
7.377999999999994
 20
3.728999999999992
 30
0.0
 11
7.377999999999994
 21
3.652999999999992
 31
0.0
  0
LINE
  5
2E7
330
1E
100
AcDbEntity
  8
0
100
AcDbLine
 10
7.25899999999999
 20
3.728999999999992
 30
0.0
 11
7.25899999999999
 21
3.652999999999992
 31
0.0
  0
LINE
  5
2E8
330
1E
100
AcDbEntity
  8
0
100
AcDbLine
 10
7.24099999999999
 20
3.728999999999992
 30
0.0
 11
7.24099999999999
 21
3.652999999999992
 31
0.0
  0
LINE
  5
2E9
330
1E
100
AcDbEntity
  8
0
100
AcDbLine
 10
7.121999999999993
 20
3.728999999999992
 30
0.0
 11
7.121999999999993
 21
3.652999999999992
 31
0.0
  0
LINE
  5
2EA
330
1E
100
AcDbEntity
  8
0
100
AcDbLine
 10
7.103999999999993
 20
3.728999999999992
 30
0.0
 11
7.103999999999993
 21
3.652999999999992
 31
0.0
  0
LINE
  5
2EB
330
1E
100
AcDbEntity
  8
0
100
AcDbLine
 10
6.98299999999999
 20
3.728999999999992
 30
0.0
 11
6.98299999999999
 21
3.652999999999992
 31
0.0
  0
LINE
  5
2EC
330
1E
100
AcDbEntity
  8
0
100
AcDbLine
 10
6.96499999999999
 20
3.728999999999992
 30
0.0
 11
6.96499999999999
 21
3.652999999999992
 31
0.0
  0
LINE
  5
2ED
330
1E
100
AcDbEntity
  8
0
100
AcDbLine
 10
6.847999999999992
 20
3.728999999999992
 30
0.0
 11
6.847999999999992
 21
3.652999999999992
 31
0.0
  0
LINE
  5
2EE
330
1E
100
AcDbEntity
  8
0
100
AcDbLine
 10
6.829999999999992
 20
3.728999999999992
 30
0.0
 11
6.829999999999992
 21
3.652999999999992
 31
0.0
  0
LINE
  5
2EF
330
1E
100
AcDbEntity
  8
0
100
AcDbLine
 10
6.711999999999993
 20
3.728999999999992
 30
0.0
 11
6.711999999999993
 21
3.652999999999992
 31
0.0
  0
LINE
  5
2F0
330
1E
100
AcDbEntity
  8
0
100
AcDbLine
 10
6.693999999999993
 20
3.728999999999992
 30
0.0
 11
6.693999999999993
 21
3.652999999999992
 31
0.0
  0
LINE
  5
2F1
330
1E
100
AcDbEntity
  8
0
100
AcDbLine
 10
6.573999999999991
 20
3.728999999999992
 30
0.0
 11
6.573999999999991
 21
3.652999999999992
 31
0.0
  0
LINE
  5
2F2
330
1E
100
AcDbEntity
  8
0
100
AcDbLine
 10
6.555999999999992
 20
3.728999999999992
 30
0.0
 11
6.555999999999992
 21
3.652999999999992
 31
0.0
  0
LINE
  5
2F3
330
1E
100
AcDbEntity
  8
0
100
AcDbLine
 10
6.436999999999991
 20
3.728999999999992
 30
0.0
 11
6.436999999999991
 21
3.652999999999992
 31
0.0
  0
LINE
  5
2F4
330
1E
100
AcDbEntity
  8
0
100
AcDbLine
 10
6.418999999999991
 20
3.728999999999992
 30
0.0
 11
6.418999999999991
 21
3.652999999999992
 31
0.0
  0
LINE
  5
2F5
330
1E
100
AcDbEntity
  8
0
100
AcDbLine
 10
6.144999999999991
 20
7.435999999999992
 30
0.0
 11
6.144999999999991
 21
7.511999999999993
 31
0.0
  0
LINE
  5
2F6
330
1E
100
AcDbEntity
  8
0
100
AcDbLine
 10
6.162999999999991
 20
7.435999999999992
 30
0.0
 11
6.162999999999992
 21
7.511999999999993
 31
0.0
  0
LINE
  5
2F7
330
1E
100
AcDbEntity
  8
0
100
AcDbLine
 10
6.281999999999992
 20
7.435999999999992
 30
0.0
 11
6.281999999999992
 21
7.511999999999993
 31
0.0
  0
LINE
  5
2F8
330
1E
100
AcDbEntity
  8
0
100
AcDbLine
 10
6.299999999999991
 20
7.435999999999992
 30
0.0
 11
6.299999999999992
 21
7.511999999999993
 31
0.0
  0
LINE
  5
2F9
330
1E
100
AcDbEntity
  8
0
100
AcDbLine
 10
5.869999999999993
 20
7.435999999999992
 30
0.0
 11
5.869999999999993
 21
7.511999999999993
 31
0.0
  0
LINE
  5
2FA
330
1E
100
AcDbEntity
  8
0
100
AcDbLine
 10
5.887999999999992
 20
7.435999999999992
 30
0.0
 11
5.887999999999993
 21
7.511999999999993
 31
0.0
  0
LINE
  5
2FB
330
1E
100
AcDbEntity
  8
0
100
AcDbLine
 10
6.007999999999991
 20
7.435999999999992
 30
0.0
 11
6.007999999999991
 21
7.511999999999993
 31
0.0
  0
LINE
  5
2FC
330
1E
100
AcDbEntity
  8
0
100
AcDbLine
 10
6.02599999999999
 20
7.435999999999992
 30
0.0
 11
6.025999999999991
 21
7.511999999999993
 31
0.0
  0
LINE
  5
2FD
330
1E
100
AcDbEntity
  8
0
100
AcDbLine
 10
5.598999999999992
 20
7.435999999999992
 30
0.0
 11
5.598999999999992
 21
7.511999999999993
 31
0.0
  0
LINE
  5
2FE
330
1E
100
AcDbEntity
  8
0
100
AcDbLine
 10
5.616999999999991
 20
7.435999999999992
 30
0.0
 11
5.616999999999992
 21
7.511999999999993
 31
0.0
  0
LINE
  5
2FF
330
1E
100
AcDbEntity
  8
0
100
AcDbLine
 10
5.733999999999993
 20
7.435999999999992
 30
0.0
 11
5.733999999999993
 21
7.511999999999993
 31
0.0
  0
LINE
  5
300
330
1E
100
AcDbEntity
  8
0
100
AcDbLine
 10
5.751999999999993
 20
7.435999999999992
 30
0.0
 11
5.751999999999994
 21
7.511999999999993
 31
0.0
  0
LINE
  5
301
330
1E
100
AcDbEntity
  8
0
100
AcDbLine
 10
5.459999999999992
 20
7.435999999999992
 30
0.0
 11
5.459999999999992
 21
7.511999999999993
 31
0.0
  0
LINE
  5
302
330
1E
100
AcDbEntity
  8
0
100
AcDbLine
 10
5.477999999999992
 20
7.435999999999992
 30
0.0
 11
5.477999999999993
 21
7.511999999999993
 31
0.0
  0
LINE
  5
303
330
1E
100
AcDbEntity
  8
0
100
AcDbLine
 10
5.185999999999991
 20
7.435999999999992
 30
0.0
 11
5.185999999999991
 21
7.511999999999993
 31
0.0
  0
LINE
  5
304
330
1E
100
AcDbEntity
  8
0
100
AcDbLine
 10
5.203999999999991
 20
7.435999999999992
 30
0.0
 11
5.203999999999992
 21
7.511999999999993
 31
0.0
  0
LINE
  5
305
330
1E
100
AcDbEntity
  8
0
100
AcDbLine
 10
5.322999999999992
 20
7.435999999999992
 30
0.0
 11
5.322999999999992
 21
7.511999999999993
 31
0.0
  0
LINE
  5
306
330
1E
100
AcDbEntity
  8
0
100
AcDbLine
 10
5.340999999999992
 20
7.435999999999992
 30
0.0
 11
5.340999999999993
 21
7.511999999999993
 31
0.0
  0
LINE
  5
307
330
1E
100
AcDbEntity
  8
0
100
AcDbLine
 10
6.418999999999992
 20
7.435999999999992
 30
0.0
 11
6.418999999999992
 21
7.511999999999993
 31
0.0
  0
LINE
  5
308
330
1E
100
AcDbEntity
  8
0
100
AcDbLine
 10
6.436999999999992
 20
7.435999999999992
 30
0.0
 11
6.436999999999993
 21
7.511999999999993
 31
0.0
  0
LINE
  5
310
330
1E
100
AcDbEntity
  8
0
100
AcDbLine
 10
6.704079434040417
 20
4.301575949991311
 30
0.0
 11
6.155079434040418
 21
4.301575949991311
 31
0.0
  0
LINE
  5
311
330
1E
100
AcDbEntity
  8
0
100
AcDbLine
 10
7.388079434040418
 20
4.301575949991311
 30
0.0
 11
6.840079434040417
 21
4.301575949991311
 31
0.0
  0
LINE
  5
312
330
1E
100
AcDbEntity
  8
0
100
AcDbLine
 10
5.321999999999992
 20
5.897999999999991
 30
0.0
 11
5.321999999999992
 21
5.937999999999992
 31
0.0
  0
LINE
  5
313
330
1E
100
AcDbEntity
  8
0
100
AcDbLine
 10
5.321999999999992
 20
5.937999999999992
 30
0.0
 11
5.399327356709925
 21
5.937999999999992
 31
0.0
  0
LINE
  5
314
330
1E
100
AcDbEntity
  8
0
100
AcDbLine
 10
5.399327356709925
 20
5.937999999999992
 30
0.0
 11
5.399327356709925
 21
5.897999999999991
 31
0.0
  0
LINE
  5
315
330
1E
100
AcDbEntity
  8
0
100
AcDbLine
 10
5.399327356709925
 20
5.897999999999991
 30
0.0
 11
5.321999999999992
 21
5.897999999999991
 31
0.0
  0
LINE
  5
316
330
1E
100
AcDbEntity
  8
0
100
AcDbLine
 10
5.325999999999995
 20
4.944999999999991
 30
0.0
 11
5.325999999999995
 21
4.984999999999992
 31
0.0
  0
LINE
  5
317
330
1E
100
AcDbEntity
  8
0
100
AcDbLine
 10
5.325999999999995
 20
4.984999999999992
 30
0.0
 11
5.401327356709925
 21
4.984999999999992
 31
0.0
  0
LINE
  5
318
330
1E
100
AcDbEntity
  8
0
100
AcDbLine
 10
5.401327356709925
 20
4.984999999999992
 30
0.0
 11
5.401327356709925
 21
4.944999999999991
 31
0.0
  0
LINE
  5
319
330
1E
100
AcDbEntity
  8
0
100
AcDbLine
 10
5.401327356709925
 20
4.944999999999991
 30
0.0
 11
5.325999999999995
 21
4.944999999999991
 31
0.0
  0
LINE
  5
31A
330
1E
100
AcDbEntity
  8
0
100
AcDbLine
 10
5.325999999999995
 20
5.081999999999991
 30
0.0
 11
5.325999999999995
 21
5.121999999999991
 31
0.0
  0
LINE
  5
31B
330
1E
100
AcDbEntity
  8
0
100
AcDbLine
 10
5.325999999999995
 20
5.121999999999991
 30
0.0
 11
5.401327356709925
 21
5.121999999999991
 31
0.0
  0
LINE
  5
31C
330
1E
100
AcDbEntity
  8
0
100
AcDbLine
 10
5.401327356709925
 20
5.121999999999991
 30
0.0
 11
5.401327356709925
 21
5.081999999999991
 31
0.0
  0
LINE
  5
31D
330
1E
100
AcDbEntity
  8
0
100
AcDbLine
 10
5.401327356709925
 20
5.081999999999991
 30
0.0
 11
5.325999999999995
 21
5.081999999999991
 31
0.0
  0
LINE
  5
31E
330
1E
100
AcDbEntity
  8
0
100
AcDbLine
 10
5.325999999999995
 20
5.218999999999992
 30
0.0
 11
5.325999999999995
 21
5.258999999999991
 31
0.0
  0
LINE
  5
31F
330
1E
100
AcDbEntity
  8
0
100
AcDbLine
 10
5.325999999999995
 20
5.258999999999991
 30
0.0
 11
5.400327356709928
 21
5.258999999999991
 31
0.0
  0
LINE
  5
320
330
1E
100
AcDbEntity
  8
0
100
AcDbLine
 10
5.400327356709928
 20
5.258999999999991
 30
0.0
 11
5.400327356709928
 21
5.218999999999992
 31
0.0
  0
LINE
  5
321
330
1E
100
AcDbEntity
  8
0
100
AcDbLine
 10
5.400327356709928
 20
5.218999999999992
 30
0.0
 11
5.325999999999995
 21
5.218999999999992
 31
0.0
  0
LINE
  5
322
330
1E
100
AcDbEntity
  8
0
100
AcDbLine
 10
5.321999999999992
 20
5.487999999999991
 30
0.0
 11
5.321999999999992
 21
5.527999999999992
 31
0.0
  0
LINE
  5
323
330
1E
100
AcDbEntity
  8
0
100
AcDbLine
 10
5.321999999999992
 20
5.527999999999992
 30
0.0
 11
5.399327356709925
 21
5.527999999999992
 31
0.0
  0
LINE
  5
324
330
1E
100
AcDbEntity
  8
0
100
AcDbLine
 10
5.399327356709925
 20
5.527999999999992
 30
0.0
 11
5.399327356709925
 21
5.487999999999991
 31
0.0
  0
LINE
  5
325
330
1E
100
AcDbEntity
  8
0
100
AcDbLine
 10
5.399327356709925
 20
5.487999999999991
 30
0.0
 11
5.321999999999992
 21
5.487999999999991
 31
0.0
  0
LINE
  5
326
330
1E
100
AcDbEntity
  8
0
100
AcDbLine
 10
5.321999999999992
 20
5.624999999999992
 30
0.0
 11
5.321999999999992
 21
5.664999999999992
 31
0.0
  0
LINE
  5
327
330
1E
100
AcDbEntity
  8
0
100
AcDbLine
 10
5.321999999999992
 20
5.664999999999992
 30
0.0
 11
5.399327356709925
 21
5.664999999999992
 31
0.0
  0
LINE
  5
328
330
1E
100
AcDbEntity
  8
0
100
AcDbLine
 10
5.399327356709925
 20
5.664999999999992
 30
0.0
 11
5.399327356709925
 21
5.624999999999992
 31
0.0
  0
LINE
  5
329
330
1E
100
AcDbEntity
  8
0
100
AcDbLine
 10
5.399327356709925
 20
5.624999999999992
 30
0.0
 11
5.321999999999992
 21
5.624999999999992
 31
0.0
  0
LINE
  5
32A
330
1E
100
AcDbEntity
  8
0
100
AcDbLine
 10
5.321999999999992
 20
5.760999999999991
 30
0.0
 11
5.321999999999992
 21
5.800999999999992
 31
0.0
  0
LINE
  5
32B
330
1E
100
AcDbEntity
  8
0
100
AcDbLine
 10
5.321999999999992
 20
5.800999999999992
 30
0.0
 11
5.399327356709925
 21
5.800999999999992
 31
0.0
  0
LINE
  5
32C
330
1E
100
AcDbEntity
  8
0
100
AcDbLine
 10
5.399327356709925
 20
5.800999999999992
 30
0.0
 11
5.399327356709925
 21
5.760999999999991
 31
0.0
  0
LINE
  5
32D
330
1E
100
AcDbEntity
  8
0
100
AcDbLine
 10
5.399327356709925
 20
5.760999999999991
 30
0.0
 11
5.321999999999992
 21
5.760999999999991
 31
0.0
  0
LINE
  5
32E
330
1E
100
AcDbEntity
  8
0
100
AcDbLine
 10
4.921999999999992
 20
6.497999999999992
 30
0.0
 11
4.921999999999993
 21
6.773999999999992
 31
0.0
  0
LINE
  5
32F
330
1E
100
AcDbEntity
  8
0
100
AcDbLine
 10
4.921999999999993
 20
6.773999999999992
 30
0.0
 11
7.668999999999993
 21
6.773999999999992
 31
0.0
  0
LINE
  5
330
330
1E
100
AcDbEntity
  8
0
100
AcDbLine
 10
7.668999999999993
 20
6.773999999999992
 30
0.0
 11
7.668999999999993
 21
6.497999999999992
 31
0.0
  0
LINE
  5
331
330
1E
100
AcDbEntity
  8
0
100
AcDbLine
 10
5.321999999999992
 20
6.034999999999992
 30
0.0
 11
5.321999999999992
 21
6.074999999999993
 31
0.0
  0
LINE
  5
332
330
1E
100
AcDbEntity
  8
0
100
AcDbLine
 10
5.321999999999992
 20
6.074999999999993
 30
0.0
 11
5.399327356709925
 21
6.074999999999993
 31
0.0
  0
LINE
  5
333
330
1E
100
AcDbEntity
  8
0
100
AcDbLine
 10
5.399327356709925
 20
6.074999999999993
 30
0.0
 11
5.399327356709925
 21
6.034999999999992
 31
0.0
  0
LINE
  5
334
330
1E
100
AcDbEntity
  8
0
100
AcDbLine
 10
5.399327356709925
 20
6.034999999999992
 30
0.0
 11
5.321999999999992
 21
6.034999999999992
 31
0.0
  0
LINE
  5
335
330
1E
100
AcDbEntity
  8
0
100
AcDbLine
 10
5.321999999999992
 20
6.170999999999991
 30
0.0
 11
5.321999999999992
 21
6.210999999999991
 31
0.0
  0
LINE
  5
336
330
1E
100
AcDbEntity
  8
0
100
AcDbLine
 10
5.321999999999992
 20
6.210999999999991
 30
0.0
 11
5.397327356709926
 21
6.210999999999991
 31
0.0
  0
LINE
  5
337
330
1E
100
AcDbEntity
  8
0
100
AcDbLine
 10
5.397327356709926
 20
6.210999999999991
 30
0.0
 11
5.397327356709926
 21
6.170999999999991
 31
0.0
  0
LINE
  5
338
330
1E
100
AcDbEntity
  8
0
100
AcDbLine
 10
5.397327356709926
 20
6.170999999999991
 30
0.0
 11
5.321999999999992
 21
6.170999999999991
 31
0.0
  0
LINE
  5
339
330
1E
100
AcDbEntity
  8
0
100
AcDbLine
 10
4.921999999999993
 20
6.773999999999992
 30
0.0
 11
4.921999999999993
 21
7.271999999999992
 31
0.0
  0
LINE
  5
33A
330
1E
100
AcDbEntity
  8
0
100
AcDbLine
 10
4.921999999999993
 20
7.271999999999992
 30
0.0
 11
7.668999999999993
 21
7.271999999999992
 31
0.0
  0
LINE
  5
33B
330
1E
100
AcDbEntity
  8
0
100
AcDbLine
 10
7.668999999999993
 20
7.271999999999992
 30
0.0
 11
7.668999999999993
 21
6.773999999999992
 31
0.0
  0
LINE
  5
33C
330
1E
100
AcDbEntity
  8
0
100
AcDbLine
 10
5.879920565959567
 20
6.873424050008678
 30
0.0
 11
6.428920565959566
 21
6.873424050008678
 31
0.0
  0
LINE
  5
33D
330
1E
100
AcDbEntity
  8
0
100
AcDbLine
 10
5.195920565959566
 20
6.873424050008678
 30
0.0
 11
5.743920565959568
 21
6.873424050008678
 31
0.0
  0
LINE
  5
361
330
1E
100
AcDbEntity
  8
0
100
AcDbLine
 10
6.968670565959562
 20
7.337999999999992
 30
0.0
 11
6.897170565959561
 21
7.337999999999992
 31
0.0
  0
LINE
  5
362
330
1E
100
AcDbEntity
  8
0
100
AcDbLine
 10
7.375920565959563
 20
7.298999999999993
 30
0.0
 11
6.583920565959565
 21
7.298999999999993
 31
0.0
  0
LINE
  5
363
330
1E
100
AcDbEntity
  8
0
100
AcDbLine
 10
6.664670565959563
 20
7.337999999999992
 30
0.0
 11
6.593170565959563
 21
7.337999999999992
 31
0.0
  0
LINE
  5
364
330
1E
100
AcDbEntity
  8
0
100
AcDbLine
 10
6.593170565959563
 20
7.298999999999993
 30
0.0
 11
6.593170565959563
 21
7.337999999999992
 31
0.0
  0
LINE
  5
365
330
1E
100
AcDbEntity
  8
0
100
AcDbLine
 10
6.583920565959565
 20
7.298999999999993
 30
0.0
 11
6.583920565959565
 21
7.271999999999992
 31
0.0
  0
LINE
  5
366
330
1E
100
AcDbEntity
  8
0
100
AcDbLine
 10
6.897170565959561
 20
7.298999999999993
 30
0.0
 11
6.897170565959561
 21
7.337999999999992
 31
0.0
  0
LINE
  5
367
330
1E
100
AcDbEntity
  8
0
100
AcDbLine
 10
6.796170565959562
 20
7.298999999999993
 30
0.0
 11
6.796170565959562
 21
7.337999999999992
 31
0.0
  0
LINE
  5
368
330
1E
100
AcDbEntity
  8
0
100
AcDbLine
 10
6.867670565959563
 20
7.337999999999992
 30
0.0
 11
6.796170565959562
 21
7.337999999999992
 31
0.0
  0
LINE
  5
369
330
1E
100
AcDbEntity
  8
0
100
AcDbLine
 10
6.867670565959563
 20
7.298999999999993
 30
0.0
 11
6.867670565959563
 21
7.337999999999992
 31
0.0
  0
LINE
  5
36A
330
1E
100
AcDbEntity
  8
0
100
AcDbLine
 10
6.664670565959563
 20
7.298999999999993
 30
0.0
 11
6.664670565959563
 21
7.337999999999992
 31
0.0
  0
LINE
  5
36B
330
1E
100
AcDbEntity
  8
0
100
AcDbLine
 10
6.765670565959562
 20
7.337999999999992
 30
0.0
 11
6.694170565959562
 21
7.337999999999992
 31
0.0
  0
LINE
  5
36C
330
1E
100
AcDbEntity
  8
0
100
AcDbLine
 10
6.694170565959562
 20
7.298999999999993
 30
0.0
 11
6.694170565959562
 21
7.337999999999992
 31
0.0
  0
LINE
  5
36D
330
1E
100
AcDbEntity
  8
0
100
AcDbLine
 10
6.765670565959562
 20
7.298999999999993
 30
0.0
 11
6.765670565959562
 21
7.337999999999992
 31
0.0
  0
LINE
  5
36E
330
1E
100
AcDbEntity
  8
0
100
AcDbLine
 10
7.266670565959564
 20
7.298999999999993
 30
0.0
 11
7.266670565959564
 21
7.337999999999992
 31
0.0
  0
LINE
  5
36F
330
1E
100
AcDbEntity
  8
0
100
AcDbLine
 10
7.266670565959564
 20
7.337999999999992
 30
0.0
 11
7.195170565959563
 21
7.337999999999992
 31
0.0
  0
LINE
  5
370
330
1E
100
AcDbEntity
  8
0
100
AcDbLine
 10
7.195170565959563
 20
7.298999999999993
 30
0.0
 11
7.195170565959563
 21
7.337999999999992
 31
0.0
  0
LINE
  5
371
330
1E
100
AcDbEntity
  8
0
100
AcDbLine
 10
7.164670565959563
 20
7.337999999999992
 30
0.0
 11
7.093170565959563
 21
7.337999999999992
 31
0.0
  0
LINE
  5
372
330
1E
100
AcDbEntity
  8
0
100
AcDbLine
 10
7.164670565959563
 20
7.298999999999993
 30
0.0
 11
7.164670565959563
 21
7.337999999999992
 31
0.0
  0
LINE
  5
373
330
1E
100
AcDbEntity
  8
0
100
AcDbLine
 10
7.093170565959563
 20
7.298999999999993
 30
0.0
 11
7.093170565959563
 21
7.337999999999992
 31
0.0
  0
LINE
  5
374
330
1E
100
AcDbEntity
  8
0
100
AcDbLine
 10
6.992170565959564
 20
7.298999999999993
 30
0.0
 11
6.992170565959564
 21
7.337999999999992
 31
0.0
  0
LINE
  5
375
330
1E
100
AcDbEntity
  8
0
100
AcDbLine
 10
7.063670565959564
 20
7.337999999999992
 30
0.0
 11
6.992170565959564
 21
7.337999999999992
 31
0.0
  0
LINE
  5
376
330
1E
100
AcDbEntity
  8
0
100
AcDbLine
 10
7.063670565959564
 20
7.298999999999993
 30
0.0
 11
7.063670565959564
 21
7.337999999999992
 31
0.0
  0
LINE
  5
377
330
1E
100
AcDbEntity
  8
0
100
AcDbLine
 10
6.968670565959562
 20
7.298999999999993
 30
0.0
 11
6.968670565959562
 21
7.337999999999992
 31
0.0
  0
LINE
  5
378
330
1E
100
AcDbEntity
  8
0
100
AcDbLine
 10
7.296170565959562
 20
7.298999999999993
 30
0.0
 11
7.296170565959562
 21
7.337999999999992
 31
0.0
  0
LINE
  5
379
330
1E
100
AcDbEntity
  8
0
100
AcDbLine
 10
7.367670565959563
 20
7.298999999999993
 30
0.0
 11
7.367670565959563
 21
7.337999999999992
 31
0.0
  0
LINE
  5
37A
330
1E
100
AcDbEntity
  8
0
100
AcDbLine
 10
7.367670565959563
 20
7.337999999999992
 30
0.0
 11
7.296170565959562
 21
7.337999999999992
 31
0.0
  0
LINE
  5
37B
330
1E
100
AcDbEntity
  8
0
100
AcDbLine
 10
7.375920565959563
 20
7.271999999999992
 30
0.0
 11
7.375920565959563
 21
7.298999999999993
 31
0.0
  0
LINE
  5
37C
330
1E
100
AcDbEntity
  8
0
100
AcDbLine
 10
5.31417056595956
 20
3.864999999999991
 30
0.0
 11
5.31417056595956
 21
3.825999999999991
 31
0.0
  0
LINE
  5
37D
330
1E
100
AcDbEntity
  8
0
100
AcDbLine
 10
5.385670565959561
 20
3.864999999999991
 30
0.0
 11
5.385670565959561
 21
3.825999999999991
 31
0.0
  0
LINE
  5
37E
330
1E
100
AcDbEntity
  8
0
100
AcDbLine
 10
5.416170565959561
 20
3.864999999999991
 30
0.0
 11
5.416170565959561
 21
3.825999999999991
 31
0.0
  0
LINE
  5
37F
330
1E
100
AcDbEntity
  8
0
100
AcDbLine
 10
5.487670565959561
 20
3.864999999999991
 30
0.0
 11
5.487670565959561
 21
3.825999999999991
 31
0.0
  0
LINE
  5
380
330
1E
100
AcDbEntity
  8
0
100
AcDbLine
 10
5.51717056595956
 20
3.864999999999991
 30
0.0
 11
5.51717056595956
 21
3.825999999999991
 31
0.0
  0
LINE
  5
381
330
1E
100
AcDbEntity
  8
0
100
AcDbLine
 10
5.284670565959562
 20
3.864999999999991
 30
0.0
 11
5.284670565959562
 21
3.825999999999991
 31
0.0
  0
LINE
  5
382
330
1E
100
AcDbEntity
  8
0
100
AcDbLine
 10
5.213170565959561
 20
3.864999999999991
 30
0.0
 11
5.213170565959561
 21
3.825999999999991
 31
0.0
  0
LINE
  5
383
330
1E
100
AcDbEntity
  8
0
100
AcDbLine
 10
5.987670565959563
 20
3.864999999999991
 30
0.0
 11
5.987670565959563
 21
3.825999999999991
 31
0.0
  0
LINE
  5
384
330
1E
100
AcDbEntity
  8
0
100
AcDbLine
 10
5.683670565959564
 20
3.864999999999991
 30
0.0
 11
5.683670565959564
 21
3.825999999999991
 31
0.0
  0
LINE
  5
385
330
1E
100
AcDbEntity
  8
0
100
AcDbLine
 10
5.784670565959563
 20
3.864999999999991
 30
0.0
 11
5.784670565959563
 21
3.825999999999991
 31
0.0
  0
LINE
  5
386
330
1E
100
AcDbEntity
  8
0
100
AcDbLine
 10
5.713170565959563
 20
3.864999999999991
 30
0.0
 11
5.713170565959563
 21
3.825999999999991
 31
0.0
  0
LINE
  5
387
330
1E
100
AcDbEntity
  8
0
100
AcDbLine
 10
5.916170565959562
 20
3.864999999999991
 30
0.0
 11
5.916170565959562
 21
3.825999999999991
 31
0.0
  0
LINE
  5
388
330
1E
100
AcDbEntity
  8
0
100
AcDbLine
 10
5.886670565959564
 20
3.864999999999991
 30
0.0
 11
5.886670565959564
 21
3.825999999999991
 31
0.0
  0
LINE
  5
389
330
1E
100
AcDbEntity
  8
0
100
AcDbLine
 10
5.815170565959563
 20
3.864999999999991
 30
0.0
 11
5.815170565959563
 21
3.825999999999991
 31
0.0
  0
LINE
  5
38A
330
1E
100
AcDbEntity
  8
0
100
AcDbLine
 10
5.58867056595956
 20
3.864999999999991
 30
0.0
 11
5.58867056595956
 21
3.825999999999991
 31
0.0
  0
LINE
  5
38B
330
1E
100
AcDbEntity
  8
0
100
AcDbLine
 10
5.612170565959562
 20
3.864999999999991
 30
0.0
 11
5.612170565959562
 21
3.825999999999991
 31
0.0
  0
LINE
  5
38C
330
1E
100
AcDbEntity
  8
0
100
AcDbLine
 10
5.204920565959561
 20
3.864999999999991
 30
0.0
 11
5.996920565959561
 21
3.864999999999991
 31
0.0
  0
LINE
  5
38D
330
1E
100
AcDbEntity
  8
0
100
AcDbLine
 10
5.31417056595956
 20
3.825999999999991
 30
0.0
 11
5.385670565959561
 21
3.825999999999991
 31
0.0
  0
LINE
  5
38E
330
1E
100
AcDbEntity
  8
0
100
AcDbLine
 10
5.416170565959561
 20
3.825999999999991
 30
0.0
 11
5.487670565959561
 21
3.825999999999991
 31
0.0
  0
LINE
  5
38F
330
1E
100
AcDbEntity
  8
0
100
AcDbLine
 10
5.213170565959561
 20
3.825999999999991
 30
0.0
 11
5.284670565959562
 21
3.825999999999991
 31
0.0
  0
LINE
  5
390
330
1E
100
AcDbEntity
  8
0
100
AcDbLine
 10
5.612170565959562
 20
3.825999999999991
 30
0.0
 11
5.683670565959564
 21
3.825999999999991
 31
0.0
  0
LINE
  5
391
330
1E
100
AcDbEntity
  8
0
100
AcDbLine
 10
5.916170565959562
 20
3.825999999999991
 30
0.0
 11
5.987670565959563
 21
3.825999999999991
 31
0.0
  0
LINE
  5
392
330
1E
100
AcDbEntity
  8
0
100
AcDbLine
 10
5.713170565959563
 20
3.825999999999991
 30
0.0
 11
5.784670565959563
 21
3.825999999999991
 31
0.0
  0
LINE
  5
393
330
1E
100
AcDbEntity
  8
0
100
AcDbLine
 10
5.815170565959563
 20
3.825999999999991
 30
0.0
 11
5.886670565959564
 21
3.825999999999991
 31
0.0
  0
LINE
  5
394
330
1E
100
AcDbEntity
  8
0
100
AcDbLine
 10
5.51717056595956
 20
3.825999999999991
 30
0.0
 11
5.58867056595956
 21
3.825999999999991
 31
0.0
  0
LINE
  5
395
330
1E
100
AcDbEntity
  8
0
100
AcDbLine
 10
5.204920565959561
 20
3.891999999999992
 30
0.0
 11
5.204920565959561
 21
3.864999999999991
 31
0.0
  0
LINE
  5
396
330
1E
100
AcDbEntity
  8
0
100
AcDbLine
 10
5.996920565959561
 20
3.864999999999991
 30
0.0
 11
5.996920565959561
 21
3.891999999999992
 31
0.0
  0
ENDSEC
  0
SECTION
  2
OBJECTS
  0
DICTIONARY
  5
C
330
0
100
AcDbDictionary
281
     1
  3
ACAD_GROUP
350
D
  3
ACAD_LAYOUT
350
19
  3
ACAD_MLINESTYLE
350
16
  3
ACAD_PLOTSETTINGS
350
18
  3
ACAD_PLOTSTYLENAME
350
E
  0
DICTIONARY
  5
D
102
{ACAD_REACTORS
330
C
102
}
330
C
100
AcDbDictionary
281
     1
  0
DICTIONARY
  5
19
102
{ACAD_REACTORS
330
C
102
}
330
C
100
AcDbDictionary
281
     1
  3
Layout1
350
1D
  3
Model
350
21
  0
DICTIONARY
  5
16
102
{ACAD_REACTORS
330
C
102
}
330
C
100
AcDbDictionary
281
     1
  3
Standard
350
17
  0
DICTIONARY
  5
18
102
{ACAD_REACTORS
330
C
102
}
330
C
100
AcDbDictionary
281
     1
  0
ACDBDICTIONARYWDFLT
  5
E
102
{ACAD_REACTORS
330
C
102
}
330
C
100
AcDbDictionary
281
     1
  3
Normal
350
F
100
AcDbDictionaryWithDefault
340
F
  0
LAYOUT
  5
1D
102
{ACAD_REACTORS
330
19
102
}
330
19
100
AcDbPlotSettings
  1

  2
\\ENGPRINTSERV\QMS 2425 Eng Printer
  4

  6

 40
0.0
 41
0.0
 42
0.0
 43
0.0
 44
0.0
 45
0.0
 46
0.0
 47
0.0
 48
0.0
 49
0.0
140
0.0
141
0.0
142
1.0
143
1.0
 70
   688
 72
     0
 73
     0
 74
     5
  7

 75
    16
147
1.0
148
0.0
149
0.0
100
AcDbLayout
  1
Layout1
 70
     1
 71
     1
 10
-108.0
 20
0.0
 11
-96.0
 21
9.0
 12
0.0
 22
0.0
 32
0.0
 14
-108.0
 24
0.0
 34
0.0
 15
17.0
 25
34.0
 35
0.0
146
0.0
 13
0.0
 23
0.0
 33
0.0
 16
1.0
 26
0.0
 36
0.0
 17
0.0
 27
1.0
 37
0.0
 76
     0
330
1A
  0
LAYOUT
  5
21
102
{ACAD_REACTORS
330
19
102
}
330
19
100
AcDbPlotSettings
  1

  2
none_device
  4
Letter_(8.50_x_11.00_Inches)
  6

 40
6.349999904632568
 41
6.349999904632568
 42
6.350006103515625
 43
6.350006103515625
 44
215.8999938964843
 45
279.3999938964843
 46
0.0
 47
0.0
 48
0.0
 49
0.0
140
0.0
141
0.0
142
1.0
143
1.0
 70
 11952
 72
     0
 73
     1
 74
     0
  7

 75
     0
147
1.0
148
-2768.651018623383
149
26.29810140809359
100
AcDbLayout
  1
Model
 70
     1
 71
     0
 10
0.0
 20
0.0
 11
12.0
 21
9.0
 12
0.0
 22
0.0
 32
0.0
 14
0.0
 24
0.0
 34
0.0
 15
0.0
 25
0.0
 35
0.0
146
0.0
 13
0.0
 23
0.0
 33
0.0
 16
1.0
 26
0.0
 36
0.0
 17
0.0
 27
1.0
 37
0.0
 76
     0
330
1E
  0
MLINESTYLE
  5
17
102
{ACAD_REACTORS
330
16
102
}
330
16
100
AcDbMlineStyle
  2
STANDARD
 70
     0
  3

 62
   256
 51
90.0
 52
90.0
 71
     2
 49
0.5
 62
   256
  6
BYLAYER
 49
-0.5
 62
   256
  6
BYLAYER
  0
ACDBPLACEHOLDER
  5
F
102
{ACAD_REACTORS
330
E
102
}
330
E
  0
ENDSEC
  0
EOF
