  0
SECTION
  2
HEADER
  9
$ACADVER
  1
AC1015
  9
$ACADMAINTVER
 70
    10
  9
$DWGCODEPAGE
  3
ANSI_1252
  9
$INSBASE
 10
0.0
 20
0.0
 30
0.0
  9
$EXTMIN
 10
1.73811165235168
 20
0.3591116523516782
 30
0.0
  9
$EXTMAX
 10
8.789888347648322
 20
6.410888347648312
 30
0.0
  9
$LIMMIN
 10
0.0
 20
0.0
  9
$LIMMAX
 10
12.0
 20
9.0
  9
$ORTHOMODE
 70
     1
  9
$REGENMODE
 70
     1
  9
$FILLMODE
 70
     1
  9
$QTEXTMODE
 70
     0
  9
$MIRRTEXT
 70
     1
  9
$LTSCALE
 40
1.0
  9
$ATTMODE
 70
     1
  9
$TEXTSIZE
 40
0.1
  9
$TRACEWID
 40
0.05
  9
$TEXTSTYLE
  7
BRUSHSCRIPT
  9
$CLAYER
  8
0
  9
$CELTYPE
  6
ByLayer
  9
$CECOLOR
 62
   256
  9
$CELTSCALE
 40
1.0
  9
$DISPSILH
 70
     0
  9
$DIMSCALE
 40
1.0
  9
$DIMASZ
 40
0.18
  9
$DIMEXO
 40
0.0625
  9
$DIMDLI
 40
0.38
  9
$DIMRND
 40
0.0
  9
$DIMDLE
 40
0.0
  9
$DIMEXE
 40
0.18
  9
$DIMTP
 40
0.0
  9
$DIMTM
 40
0.0
  9
$DIMTXT
 40
0.18
  9
$DIMCEN
 40
0.09
  9
$DIMTSZ
 40
0.0
  9
$DIMTOL
 70
     0
  9
$DIMLIM
 70
     0
  9
$DIMTIH
 70
     1
  9
$DIMTOH
 70
     1
  9
$DIMSE1
 70
     0
  9
$DIMSE2
 70
     0
  9
$DIMTAD
 70
     0
  9
$DIMZIN
 70
     0
  9
$DIMBLK
  1

  9
$DIMASO
 70
     1
  9
$DIMSHO
 70
     1
  9
$DIMPOST
  1

  9
$DIMAPOST
  1

  9
$DIMALT
 70
     0
  9
$DIMALTD
 70
     2
  9
$DIMALTF
 40
25.4
  9
$DIMLFAC
 40
1.0
  9
$DIMTOFL
 70
     0
  9
$DIMTVP
 40
0.0
  9
$DIMTIX
 70
     0
  9
$DIMSOXD
 70
     0
  9
$DIMSAH
 70
     0
  9
$DIMBLK1
  1

  9
$DIMBLK2
  1

  9
$DIMSTYLE
  2
Standard
  9
$DIMCLRD
 70
     0
  9
$DIMCLRE
 70
     0
  9
$DIMCLRT
 70
     0
  9
$DIMTFAC
 40
1.0
  9
$DIMGAP
 40
0.09
  9
$DIMJUST
 70
     0
  9
$DIMSD1
 70
     0
  9
$DIMSD2
 70
     0
  9
$DIMTOLJ
 70
     1
  9
$DIMTZIN
 70
     0
  9
$DIMALTZ
 70
     0
  9
$DIMALTTZ
 70
     0
  9
$DIMUPT
 70
     0
  9
$DIMDEC
 70
     4
  9
$DIMTDEC
 70
     4
  9
$DIMALTU
 70
     2
  9
$DIMALTTD
 70
     2
  9
$DIMTXSTY
  7
STANDARD
  9
$DIMAUNIT
 70
     0
  9
$DIMADEC
 70
     0
  9
$DIMALTRND
 40
0.0
  9
$DIMAZIN
 70
     0
  9
$DIMDSEP
 70
    46
  9
$DIMATFIT
 70
     3
  9
$DIMFRAC
 70
     0
  9
$DIMLDRBLK
  1

  9
$DIMLUNIT
 70
     2
  9
$DIMLWD
 70
    -2
  9
$DIMLWE
 70
    -2
  9
$DIMTMOVE
 70
     2
  9
$LUNITS
 70
     2
  9
$LUPREC
 70
     4
  9
$SKETCHINC
 40
0.1
  9
$FILLETRAD
 40
0.5
  9
$AUNITS
 70
     0
  9
$AUPREC
 70
     0
  9
$MENU
  1
acad
  9
$ELEVATION
 40
0.0
  9
$PELEVATION
 40
0.0
  9
$THICKNESS
 40
0.0
  9
$LIMCHECK
 70
     0
  9
$CHAMFERA
 40
0.5
  9
$CHAMFERB
 40
0.5
  9
$CHAMFERC
 40
0.0
  9
$CHAMFERD
 40
0.0
  9
$SKPOLY
 70
     0
  9
$TDCREATE
 40
2453297.541328009
  9
$TDUCREATE
 40
2453297.874661342
  9
$TDUPDATE
 40
2453692.458849387
  9
$TDUUPDATE
 40
2453692.792182720
  9
$TDINDWG
 40
0.0393900347
  9
$TDUSRTIMER
 40
0.0393900347
  9
$USRTIMER
 70
     1
  9
$ANGBASE
 50
0.0
  9
$ANGDIR
 70
     0
  9
$PDMODE
 70
     0
  9
$PDSIZE
 40
0.0
  9
$PLINEWID
 40
0.0
  9
$SPLFRAME
 70
     0
  9
$SPLINETYPE
 70
     6
  9
$SPLINESEGS
 70
     8
  9
$HANDSEED
  5
F7B6FDAF6BC6C94B
  9
$SURFTAB1
 70
     6
  9
$SURFTAB2
 70
     6
  9
$SURFTYPE
 70
     6
  9
$SURFU
 70
     6
  9
$SURFV
 70
     6
  9
$UCSBASE
  2

  9
$UCSNAME
  2

  9
$UCSORG
 10
0.0
 20
0.0
 30
0.0
  9
$UCSXDIR
 10
1.0
 20
0.0
 30
0.0
  9
$UCSYDIR
 10
0.0
 20
1.0
 30
0.0
  9
$UCSORTHOREF
  2

  9
$UCSORTHOVIEW
 70
     0
  9
$UCSORGTOP
 10
0.0
 20
0.0
 30
0.0
  9
$UCSORGBOTTOM
 10
0.0
 20
0.0
 30
0.0
  9
$UCSORGLEFT
 10
0.0
 20
0.0
 30
0.0
  9
$UCSORGRIGHT
 10
0.0
 20
0.0
 30
0.0
  9
$UCSORGFRONT
 10
0.0
 20
0.0
 30
0.0
  9
$UCSORGBACK
 10
0.0
 20
0.0
 30
0.0
  9
$PUCSBASE
  2

  9
$PUCSNAME
  2

  9
$PUCSORG
 10
0.0
 20
0.0
 30
0.0
  9
$PUCSXDIR
 10
1.0
 20
0.0
 30
0.0
  9
$PUCSYDIR
 10
0.0
 20
1.0
 30
0.0
  9
$PUCSORTHOREF
  2

  9
$PUCSORTHOVIEW
 70
     0
  9
$PUCSORGTOP
 10
0.0
 20
0.0
 30
0.0
  9
$PUCSORGBOTTOM
 10
0.0
 20
0.0
 30
0.0
  9
$PUCSORGLEFT
 10
0.0
 20
0.0
 30
0.0
  9
$PUCSORGRIGHT
 10
0.0
 20
0.0
 30
0.0
  9
$PUCSORGFRONT
 10
0.0
 20
0.0
 30
0.0
  9
$PUCSORGBACK
 10
0.0
 20
0.0
 30
0.0
  9
$USERI1
 70
     0
  9
$USERI2
 70
     0
  9
$USERI3
 70
     0
  9
$USERI4
 70
     0
  9
$USERI5
 70
     0
  9
$USERR1
 40
0.0
  9
$USERR2
 40
0.0
  9
$USERR3
 40
0.0
  9
$USERR4
 40
0.0
  9
$USERR5
 40
0.0
  9
$WORLDVIEW
 70
     1
  9
$SHADEDGE
 70
     3
  9
$SHADEDIF
 70
    70
  9
$TILEMODE
 70
     1
  9
$MAXACTVP
 70
    16
  9
$PINSBASE
 10
0.0
 20
0.0
 30
0.0
  9
$PLIMCHECK
 70
     0
  9
$PEXTMIN
 10
1.000000000000000E+20
 20
1.000000000000000E+20
 30
1.000000000000000E+20
  9
$PEXTMAX
 10
-1.000000000000000E+20
 20
-1.000000000000000E+20
 30
-1.000000000000000E+20
  9
$PLIMMIN
 10
0.0
 20
0.0
  9
$PLIMMAX
 10
12.0
 20
9.0
  9
$UNITMODE
 70
     0
  9
$VISRETAIN
 70
     0
  9
$PLINEGEN
 70
     0
  9
$PSLTSCALE
 70
     0
  9
$TREEDEPTH
 70
  3020
  9
$CMLSTYLE
  2
Standard
  9
$CMLJUST
 70
     0
  9
$CMLSCALE
 40
1.0
  9
$PROXYGRAPHICS
 70
     1
  9
$MEASUREMENT
 70
     0
  9
$CELWEIGHT
370
    -1
  9
$ENDCAPS
280
     0
  9
$JOINSTYLE
280
     0
  9
$LWDISPLAY
290
     0
  9
$INSUNITS
 70
     0
  9
$HYPERLINKBASE
  1

  9
$STYLESHEET
  1

  9
$XEDIT
290
     1
  9
$CEPSNTYPE
380
     0
  9
$PSTYLEMODE
290
     1
  9
$FINGERPRINTGUID
  2
{71D804F7-60FF-4460-8C90-946C6A3C0FDC}
  9
$VERSIONGUID
  2
{826C7638-CE9E-403F-9FA5-98A55558AB97}
  9
$EXTNAMES
290
     1
  9
$PSVPSCALE
 40
0.0
  9
$OLESTARTUP
290
     0
  0
ENDSEC
  0
SECTION
  2
CLASSES
  0
CLASS
  1
ACDBDICTIONARYWDFLT
  2
AcDbDictionaryWithDefault
  3
AutoCAD 2000
 90
        0
280
     0
281
     0
  0
CLASS
  1
ACDBPLACEHOLDER
  2
AcDbPlaceHolder
  3
AutoCAD 2000
 90
        0
280
     0
281
     0
  0
CLASS
  1
LAYOUT
  2
AcDbLayout
  3
AutoCAD 2000
 90
        0
280
     0
281
     0
  0
ENDSEC
  0
SECTION
  2
TABLES
  0
TABLE
  2
VPORT
  5
C829B246627CC806
330
0
100
AcDbSymbolTable
 70
     2
  0
VPORT
  5
F7B6FDAF6BC6C94A
330
C829B246627CC806
100
AcDbSymbolTableRecord
100
AcDbViewportTableRecord
  2
*Active
 70
     0
 10
0.0
 20
0.0
 11
1.0
 21
1.0
 12
7.182050757148983
 22
2.391857093210989
 13
0.0
 23
0.0
 14
0.001
 24
0.001
 15
0.0
 25
0.0
 16
0.0
 26
0.0
 36
1.0
 17
0.0
 27
0.0
 37
0.0
 40
9.249358798388874
 41
1.767754318618042
 42
50.0
 43
0.0
 44
0.0
 50
0.0
 51
0.0
 71
     0
 72
   100
 73
     1
 74
     0
 75
     1
 76
     1
 77
     0
 78
     0
281
     0
 65
     1
110
0.0
120
0.0
130
0.0
111
1.0
121
0.0
131
0.0
112
0.0
122
1.0
132
0.0
 79
     0
146
0.0
  0
ENDTAB
  0
TABLE
  2
LTYPE
  5
C829B246627CC803
330
0
100
AcDbSymbolTable
 70
     1
  0
LTYPE
  5
C829B246627CC811
330
C829B246627CC803
100
AcDbSymbolTableRecord
100
AcDbLinetypeTableRecord
  2
ByBlock
 70
     0
  3

 72
    65
 73
     0
 40
0.0
  0
LTYPE
  5
C829B246627CC812
330
C829B246627CC803
100
AcDbSymbolTableRecord
100
AcDbLinetypeTableRecord
  2
ByLayer
 70
     0
  3

 72
    65
 73
     0
 40
0.0
  0
LTYPE
  5
C829B246627CC813
330
C829B246627CC803
100
AcDbSymbolTableRecord
100
AcDbLinetypeTableRecord
  2
CONTINUOUS
 70
     0
  3
Solid line
 72
    65
 73
     0
 40
0.0
  0
ENDTAB
  0
TABLE
  2
LAYER
  5
C829B246627CC800
330
0
100
AcDbSymbolTable
 70
     4
  0
LAYER
  5
C829B246627CC80E
330
C829B246627CC800
100
AcDbSymbolTableRecord
100
AcDbLayerTableRecord
  2
0
 70
     0
 62
     7
  6
CONTINUOUS
370
    -3
390
C829B246627CC80D
  0
LAYER
  5
C829B246627CC837
330
C829B246627CC800
100
AcDbSymbolTableRecord
100
AcDbLayerTableRecord
  2
CASE
 70
     0
 62
     7
  6
CONTINUOUS
370
    -3
390
C829B246627CC80D
  0
LAYER
  5
C829B246627CC838
330
C829B246627CC800
100
AcDbSymbolTableRecord
100
AcDbLayerTableRecord
  2
LABEL
 70
     0
 62
     7
  6
CONTINUOUS
370
    -3
390
C829B246627CC80D
  0
LAYER
  5
C829B246627CC839
330
C829B246627CC800
100
AcDbSymbolTableRecord
100
AcDbLayerTableRecord
  2
COMP
 70
     0
 62
     7
  6
CONTINUOUS
370
    -3
390
C829B246627CC80D
  0
ENDTAB
  0
TABLE
  2
STYLE
  5
C829B246627CC801
330
0
100
AcDbSymbolTable
 70
     3
  0
STYLE
  5
C829B246627CC80F
330
C829B246627CC801
100
AcDbSymbolTableRecord
100
AcDbTextStyleTableRecord
  2
STANDARD
 70
     0
 40
0.0
 41
1.0
 50
0.0
 71
     0
 42
0.2
  3
txt
  4

  0
STYLE
  5
C829B246627CC832
330
C829B246627CC801
100
AcDbSymbolTableRecord
100
AcDbTextStyleTableRecord
  2
ADESK1
 70
     0
 40
0.0
 41
1.0
 50
0.0
 71
     0
 42
0.25
  3
romans
  4

  0
STYLE
  5
C829B246627CC833
330
C829B246627CC801
100
AcDbSymbolTableRecord
100
AcDbTextStyleTableRecord
  2
BRUSHSCRIPT
 70
     0
 40
0.1
 41
1.0
 50
0.0
 71
     0
 42
0.1
  3
brushscript.shx
  4

  0
ENDTAB
  0
TABLE
  2
VIEW
  5
C829B246627CC804
330
0
100
AcDbSymbolTable
 70
     0
  0
ENDTAB
  0
TABLE
  2
UCS
  5
C829B246627CC805
330
0
100
AcDbSymbolTable
 70
     0
  0
ENDTAB
  0
TABLE
  2
APPID
  5
C829B246627CC807
330
0
100
AcDbSymbolTable
 70
     1
  0
APPID
  5
C829B246627CC810
330
C829B246627CC807
100
AcDbSymbolTableRecord
100
AcDbRegAppTableRecord
  2
ACAD
 70
     0
  0
ENDTAB
  0
TABLE
  2
DIMSTYLE
  5
C829B246627CC808
330
0
100
AcDbSymbolTable
 70
     1
100
AcDbDimStyleTable
 71
     0
  0
DIMSTYLE
105
F7B6FDAF6BC6C6BF
330
C829B246627CC808
100
AcDbSymbolTableRecord
100
AcDbDimStyleTableRecord
  2
Standard
 70
     0
340
C829B246627CC80F
  0
ENDTAB
  0
TABLE
  2
BLOCK_RECORD
  5
C829B246627CC7FF
330
0
100
AcDbSymbolTable
 70
     8
  0
BLOCK_RECORD
  5
C829B246627CC81C
330
C829B246627CC7FF
100
AcDbSymbolTableRecord
100
AcDbBlockTableRecord
  2
*Model_Space
340
C829B246627CC81F
  0
BLOCK_RECORD
  5
C829B246627CC818
330
C829B246627CC7FF
100
AcDbSymbolTableRecord
100
AcDbBlockTableRecord
  2
*Paper_Space
340
C829B246627CC81B
  0
BLOCK_RECORD
  5
C829B246627CC821
330
C829B246627CC7FF
100
AcDbSymbolTableRecord
100
AcDbBlockTableRecord
  2
ACAD1C6F
340
0
102
{BLKREFS
331
994DA9C2708C5050
102
}
  0
BLOCK_RECORD
  5
C829B246627CC822
330
C829B246627CC7FF
100
AcDbSymbolTableRecord
100
AcDbBlockTableRecord
  2
ACAD006E
340
0
102
{BLKREFS
331
994DA9C2708C4EF2
102
}
  0
BLOCK_RECORD
  5
C829B246627CC823
330
C829B246627CC7FF
100
AcDbSymbolTableRecord
100
AcDbBlockTableRecord
  2
ACAD0312
340
0
102
{BLKREFS
331
994DA9C2708C505D
102
}
  0
BLOCK_RECORD
  5
C829B246627CC824
330
C829B246627CC7FF
100
AcDbSymbolTableRecord
100
AcDbBlockTableRecord
  2
ACAD0626
340
0
102
{BLKREFS
331
994DA9C2708C4EA6
102
}
  0
BLOCK_RECORD
  5
C829B246627CC826
330
C829B246627CC7FF
100
AcDbSymbolTableRecord
100
AcDbBlockTableRecord
  2
ACAD3A27
340
0
102
{BLKREFS
331
994DA9C2708C504F
331
994DA9C2708C5051
331
994DA9C2708C5066
331
994DA9C2708C5067
102
}
  0
BLOCK_RECORD
  5
C829B246627CC827
330
C829B246627CC7FF
100
AcDbSymbolTableRecord
100
AcDbBlockTableRecord
  2
ACAD037A
340
0
102
{BLKREFS
331
994DA9C2708C4EC2
331
994DA9C2708C4EC3
331
994DA9C2708C4EC4
331
994DA9C2708C4EC5
331
994DA9C2708C4EC8
331
994DA9C2708C4EC9
331
994DA9C2708C4EEA
331
994DA9C2708C4EEC
102
}
  0
BLOCK_RECORD
  5
C829B246627CC828
330
C829B246627CC7FF
100
AcDbSymbolTableRecord
100
AcDbBlockTableRecord
  2
ACAD3267
340
0
102
{BLKREFS
331
994DA9C2708C4EB8
102
}
  0
BLOCK_RECORD
  5
C829B246627CC82D
330
C829B246627CC7FF
100
AcDbSymbolTableRecord
100
AcDbBlockTableRecord
  2
ACAD0C1E
340
0
102
{BLKREFS
331
994DA9C2708C4ED0
331
994DA9C2708C4ED9
331
994DA9C2708C4EDA
331
994DA9C2708C4EDC
331
994DA9C2708C4EE5
331
994DA9C2708C4EE6
331
994DA9C2708C4EED
331
994DA9C2708C4EEF
102
}
  0
ENDTAB
  0
ENDSEC
  0
SECTION
  2
BLOCKS
  0
BLOCK
  5
C829B246627CC83D
330
C829B246627CC81C
100
AcDbEntity
  8
0
100
AcDbBlockBegin
  2
*Model_Space
 70
     0
 10
0.0
 20
0.0
 30
0.0
  3
*Model_Space
  1

  0
ENDBLK
  5
C829B246627CC83E
330
C829B246627CC81C
100
AcDbEntity
  8
0
100
AcDbBlockEnd
  0
BLOCK
  5
C829B246627CC83B
330
C829B246627CC818
100
AcDbEntity
 67
     1
  8
0
100
AcDbBlockBegin
  2
*Paper_Space
 70
     0
 10
0.0
 20
0.0
 30
0.0
  3
*Paper_Space
  1

  0
ENDBLK
  5
C829B246627CC83C
330
C829B246627CC818
100
AcDbEntity
 67
     1
  8
0
100
AcDbBlockEnd
  0
BLOCK
  5
3
330
C829B246627CC821
100
AcDbEntity
  8
0
100
AcDbBlockBegin
  2
ACAD1C6F
 70
     0
 10
0.0
 20
0.0
 30
0.0
  3
ACAD1C6F
  1

  0
ARC
  5
4
330
C829B246627CC821
100
AcDbEntity
  8
CASE
100
AcDbCircle
 10
0.0
 20
0.0
 30
0.0
 40
0.1180000000000003
100
AcDbArc
 50
90.0
 51
270.0
  0
LINE
  5
5
330
C829B246627CC821
100
AcDbEntity
  8
CASE
100
AcDbLine
 10
0.0
 20
0.1180000000000005
 30
0.0
 11
0.2949999999999999
 21
0.1180000000000005
 31
0.0
  0
LINE
  5
6
330
C829B246627CC821
100
AcDbEntity
  8
CASE
100
AcDbLine
 10
0.0
 20
-0.1180000000000003
 30
0.0
 11
0.2949999999999999
 21
-0.1180000000000003
 31
0.0
  0
ARC
  5
7
330
C829B246627CC821
100
AcDbEntity
  8
CASE
100
AcDbCircle
 10
0.4501085714285705
 20
0.0000000000000013
 30
0.0
 40
0.1948914285714288
100
AcDbArc
 50
217.2623329576324
 51
142.7376670423683
  0
LINE
  5
8
330
C829B246627CC821
100
AcDbEntity
  8
CASE
100
AcDbLine
 10
0.0
 20
-0.1180000000000003
 30
0.0
 11
0.0
 21
-0.1180000000000003
 31
0.0
  0
LINE
  5
9
330
C829B246627CC821
100
AcDbEntity
  8
CASE
100
AcDbLine
 10
0.0
 20
0.1180000000000005
 30
0.0
 11
0.0
 21
0.1180000000000005
 31
0.0
  0
ENDBLK
  5
A
330
C829B246627CC821
100
AcDbEntity
  8
0
100
AcDbBlockEnd
  0
BLOCK
  5
B
330
C829B246627CC822
100
AcDbEntity
  8
0
100
AcDbBlockBegin
  2
ACAD006E
 70
     0
 10
0.0
 20
0.0
 30
0.0
  3
ACAD006E
  1

  0
ARC
  5
C
330
C829B246627CC822
100
AcDbEntity
  8
CASE
100
AcDbCircle
 10
0.0
 20
0.0
 30
0.0
 40
0.1180000000000003
100
AcDbArc
 50
90.0
 51
270.0
  0
LINE
  5
D
330
C829B246627CC822
100
AcDbEntity
  8
CASE
100
AcDbLine
 10
0.0
 20
0.1180000000000005
 30
0.0
 11
0.2949999999999999
 21
0.1180000000000005
 31
0.0
  0
LINE
  5
E
330
C829B246627CC822
100
AcDbEntity
  8
CASE
100
AcDbLine
 10
0.0
 20
-0.1180000000000003
 30
0.0
 11
0.2949999999999999
 21
-0.1180000000000003
 31
0.0
  0
ARC
  5
F
330
C829B246627CC822
100
AcDbEntity
  8
CASE
100
AcDbCircle
 10
0.4501085714285705
 20
0.0000000000000013
 30
0.0
 40
0.1948914285714288
100
AcDbArc
 50
217.2623329576324
 51
142.7376670423683
  0
LINE
  5
10
330
C829B246627CC822
100
AcDbEntity
  8
CASE
100
AcDbLine
 10
0.0
 20
-0.1180000000000003
 30
0.0
 11
0.0
 21
-0.1180000000000003
 31
0.0
  0
LINE
  5
11
330
C829B246627CC822
100
AcDbEntity
  8
CASE
100
AcDbLine
 10
0.0
 20
0.1180000000000005
 30
0.0
 11
0.0
 21
0.1180000000000005
 31
0.0
  0
ENDBLK
  5
12
330
C829B246627CC822
100
AcDbEntity
  8
0
100
AcDbBlockEnd
  0
BLOCK
  5
13
330
C829B246627CC823
100
AcDbEntity
  8
0
100
AcDbBlockBegin
  2
ACAD0312
 70
     0
 10
0.0
 20
0.0
 30
0.0
  3
ACAD0312
  1

  0
ARC
  5
14
330
C829B246627CC823
100
AcDbEntity
  8
CASE
100
AcDbCircle
 10
0.0
 20
0.0
 30
0.0
 40
0.1180000000000003
100
AcDbArc
 50
90.0
 51
270.0
  0
LINE
  5
15
330
C829B246627CC823
100
AcDbEntity
  8
CASE
100
AcDbLine
 10
0.0
 20
0.1180000000000005
 30
0.0
 11
0.2949999999999999
 21
0.1180000000000005
 31
0.0
  0
LINE
  5
16
330
C829B246627CC823
100
AcDbEntity
  8
CASE
100
AcDbLine
 10
0.0
 20
-0.1180000000000003
 30
0.0
 11
0.2949999999999999
 21
-0.1180000000000003
 31
0.0
  0
ARC
  5
17
330
C829B246627CC823
100
AcDbEntity
  8
CASE
100
AcDbCircle
 10
0.4501085714285705
 20
0.0000000000000013
 30
0.0
 40
0.1948914285714288
100
AcDbArc
 50
217.2623329576324
 51
142.7376670423683
  0
LINE
  5
18
330
C829B246627CC823
100
AcDbEntity
  8
CASE
100
AcDbLine
 10
0.0
 20
-0.1180000000000003
 30
0.0
 11
0.0
 21
-0.1180000000000003
 31
0.0
  0
LINE
  5
19
330
C829B246627CC823
100
AcDbEntity
  8
CASE
100
AcDbLine
 10
0.0
 20
0.1180000000000005
 30
0.0
 11
0.0
 21
0.1180000000000005
 31
0.0
  0
ENDBLK
  5
1A
330
C829B246627CC823
100
AcDbEntity
  8
0
100
AcDbBlockEnd
  0
BLOCK
  5
1B
330
C829B246627CC824
100
AcDbEntity
  8
0
100
AcDbBlockBegin
  2
ACAD0626
 70
     0
 10
0.0
 20
0.0
 30
0.0
  3
ACAD0626
  1

  0
ARC
  5
1C
330
C829B246627CC824
100
AcDbEntity
  8
CASE
100
AcDbCircle
 10
0.0
 20
0.0
 30
0.0
 40
0.1180000000000003
100
AcDbArc
 50
90.0
 51
270.0
  0
LINE
  5
1D
330
C829B246627CC824
100
AcDbEntity
  8
CASE
100
AcDbLine
 10
0.0
 20
0.1180000000000005
 30
0.0
 11
0.2949999999999999
 21
0.1180000000000005
 31
0.0
  0
LINE
  5
1E
330
C829B246627CC824
100
AcDbEntity
  8
CASE
100
AcDbLine
 10
0.0
 20
-0.1180000000000003
 30
0.0
 11
0.2949999999999999
 21
-0.1180000000000003
 31
0.0
  0
ARC
  5
1F
330
C829B246627CC824
100
AcDbEntity
  8
CASE
100
AcDbCircle
 10
0.4501085714285705
 20
0.0000000000000013
 30
0.0
 40
0.1948914285714288
100
AcDbArc
 50
217.2623329576324
 51
142.7376670423683
  0
LINE
  5
20
330
C829B246627CC824
100
AcDbEntity
  8
CASE
100
AcDbLine
 10
0.0
 20
-0.1180000000000003
 30
0.0
 11
0.0
 21
-0.1180000000000003
 31
0.0
  0
LINE
  5
21
330
C829B246627CC824
100
AcDbEntity
  8
CASE
100
AcDbLine
 10
0.0
 20
0.1180000000000005
 30
0.0
 11
0.0
 21
0.1180000000000005
 31
0.0
  0
ENDBLK
  5
22
330
C829B246627CC824
100
AcDbEntity
  8
0
100
AcDbBlockEnd
  0
BLOCK
  5
F7B6FDAF6BC6C6BE
330
C829B246627CC826
100
AcDbEntity
  8
0
100
AcDbBlockBegin
  2
ACAD3A27
 70
     0
 10
0.0
 20
0.0
 30
0.0
  3
ACAD3A27
  1

  0
LWPOLYLINE
  5
2774B59CE724F8B2
330
C829B246627CC826
100
AcDbEntity
  8
COMP
100
AcDbPolyline
 90
        6
 70
     1
 43
0.01
 10
-0.9000000000000056
 20
0.0250000000000004
 10
-0.9000000000000056
 20
0.4000000000000004
 10
0.0
 20
0.4000000000000004
 10
0.0
 20
0.0
 10
-0.9000000000000056
 20
0.0
 10
-0.9000000000000056
 20
0.0250000000000004
  0
LINE
  5
2774B59CE724F8BB
330
C829B246627CC826
100
AcDbEntity
  8
COMP
100
AcDbLine
 10
-0.7680000000000078
 20
0.1259999999999968
 30
0.0
 11
-0.7680000000000078
 21
0.2639999999999967
 31
0.0
  0
LINE
  5
2774B59CE724F8BA
330
C829B246627CC826
100
AcDbEntity
  8
COMP
100
AcDbLine
 10
-0.8320000000000078
 20
0.2639999999999967
 30
0.0
 11
-0.8320000000000078
 21
0.1259999999999968
 31
0.0
  0
LINE
  5
2774B59CE724F9BE
330
C829B246627CC826
100
AcDbEntity
  8
COMP
100
AcDbLine
 10
-0.7830000000000084
 20
0.2319999999999966
 30
0.0
 11
-0.7830000000000084
 21
0.1609999999999969
 31
0.0
  0
LINE
  5
2774B59CE724F995
330
C829B246627CC826
100
AcDbEntity
  8
COMP
100
AcDbLine
 10
-0.8160000000000096
 20
0.1609999999999969
 30
0.0
 11
-0.8160000000000096
 21
0.2319999999999966
 31
0.0
  0
LINE
  5
2774B59CE724F994
330
C829B246627CC826
100
AcDbEntity
  8
COMP
100
AcDbLine
 10
-0.8160000000000096
 20
0.163999999999997
 30
0.0
 11
-0.7830000000000084
 21
0.163999999999997
 31
0.0
  0
LINE
  5
2774B59CE724F993
330
C829B246627CC826
100
AcDbEntity
  8
COMP
100
AcDbLine
 10
-0.8160000000000096
 20
0.1669999999999971
 30
0.0
 11
-0.7830000000000084
 21
0.1669999999999971
 31
0.0
  0
LINE
  5
2774B59CE724F992
330
C829B246627CC826
100
AcDbEntity
  8
COMP
100
AcDbLine
 10
-0.8160000000000096
 20
0.1709999999999967
 30
0.0
 11
-0.7830000000000084
 21
0.1709999999999967
 31
0.0
  0
LINE
  5
2774B59CE724F991
330
C829B246627CC826
100
AcDbEntity
  8
COMP
100
AcDbLine
 10
-0.8160000000000096
 20
0.1749999999999963
 30
0.0
 11
-0.7830000000000084
 21
0.1749999999999963
 31
0.0
  0
LINE
  5
2774B59CE724F990
330
C829B246627CC826
100
AcDbEntity
  8
COMP
100
AcDbLine
 10
-0.8160000000000096
 20
0.1789999999999967
 30
0.0
 11
-0.7830000000000084
 21
0.1789999999999967
 31
0.0
  0
LINE
  5
2774B59CE724F98F
330
C829B246627CC826
100
AcDbEntity
  8
COMP
100
AcDbLine
 10
-0.8160000000000096
 20
0.1829999999999972
 30
0.0
 11
-0.7830000000000084
 21
0.1829999999999972
 31
0.0
  0
LINE
  5
2774B59CE724F98E
330
C829B246627CC826
100
AcDbEntity
  8
COMP
100
AcDbLine
 10
-0.8160000000000096
 20
0.1869999999999967
 30
0.0
 11
-0.7830000000000084
 21
0.1869999999999967
 31
0.0
  0
LINE
  5
2774B59CE724F98D
330
C829B246627CC826
100
AcDbEntity
  8
COMP
100
AcDbLine
 10
-0.7830000000000084
 20
0.1609999999999969
 30
0.0
 11
-0.8160000000000096
 21
0.1609999999999969
 31
0.0
  0
LINE
  5
2774B59CE724F98C
330
C829B246627CC826
100
AcDbEntity
  8
COMP
100
AcDbLine
 10
-0.8160000000000096
 20
0.2319999999999966
 30
0.0
 11
-0.7830000000000084
 21
0.2319999999999966
 31
0.0
  0
LWPOLYLINE
  5
2774B59CE724F8D4
330
C829B246627CC826
100
AcDbEntity
  8
COMP
100
AcDbPolyline
 90
        2
 70
     1
 43
0.005
 10
-0.9000000000000056
 20
0.0024999999999995
 42
1.0
 10
-0.9000000000000056
 20
-0.0024999999999995
 42
1.0
  0
LWPOLYLINE
  5
2774B59CE724F8D0
330
C829B246627CC826
100
AcDbEntity
  8
COMP
100
AcDbPolyline
 90
        2
 70
     1
 43
0.005
 10
-0.9000000000000056
 20
0.0274999999999999
 42
1.0
 10
-0.9000000000000056
 20
0.0225000000000009
 42
1.0
  0
LWPOLYLINE
  5
2774B59CE724F8CC
330
C829B246627CC826
100
AcDbEntity
  8
COMP
100
AcDbPolyline
 90
        2
 70
     1
 43
0.005
 10
-0.9000000000000056
 20
0.0274999999999999
 42
1.0
 10
-0.9000000000000056
 20
0.0225000000000009
 42
1.0
  0
LINE
  5
2774B59CE724F8CB
330
C829B246627CC826
100
AcDbEntity
  8
COMP
100
AcDbLine
 10
-0.8320000000000078
 20
0.1259999999999968
 30
0.0
 11
-0.7680000000000078
 21
0.1259999999999968
 31
0.0
  0
LWPOLYLINE
  5
2774B59CE724F996
330
C829B246627CC826
100
AcDbEntity
  8
COMP
100
AcDbPolyline
 90
        2
 70
     1
 43
0.005
 10
-0.9000000000000056
 20
0.4024999999999999
 42
1.0
 10
-0.9000000000000056
 20
0.3975
 42
1.0
  0
LINE
  5
2774B59CE724F98B
330
C829B246627CC826
100
AcDbEntity
  8
COMP
100
AcDbLine
 10
-0.7680000000000078
 20
0.2639999999999967
 30
0.0
 11
-0.8320000000000078
 21
0.2639999999999967
 31
0.0
  0
LINE
  5
2774B59CE724F8C9
330
C829B246627CC826
100
AcDbEntity
  8
COMP
100
AcDbLine
 10
-0.068000000000005
 20
0.1259999999999968
 30
0.0
 11
-0.068000000000005
 21
0.2639999999999967
 31
0.0
  0
LINE
  5
2774B59CE724F8C8
330
C829B246627CC826
100
AcDbEntity
  8
COMP
100
AcDbLine
 10
-0.132000000000005
 20
0.2639999999999967
 30
0.0
 11
-0.132000000000005
 21
0.1259999999999968
 31
0.0
  0
LINE
  5
2774B59CE724F8C7
330
C829B246627CC826
100
AcDbEntity
  8
COMP
100
AcDbLine
 10
-0.1679999999999993
 20
0.1259999999999968
 30
0.0
 11
-0.1679999999999993
 21
0.2639999999999967
 31
0.0
  0
LINE
  5
2774B59CE724F8C6
330
C829B246627CC826
100
AcDbEntity
  8
COMP
100
AcDbLine
 10
-0.2319999999999993
 20
0.2639999999999967
 30
0.0
 11
-0.2319999999999993
 21
0.1259999999999968
 31
0.0
  0
LINE
  5
2774B59CE724F8C5
330
C829B246627CC826
100
AcDbEntity
  8
COMP
100
AcDbLine
 10
-0.2680000000000007
 20
0.1259999999999968
 30
0.0
 11
-0.2680000000000007
 21
0.2639999999999967
 31
0.0
  0
LINE
  5
2774B59CE724F8C4
330
C829B246627CC826
100
AcDbEntity
  8
COMP
100
AcDbLine
 10
-0.3320000000000007
 20
0.2639999999999967
 30
0.0
 11
-0.3320000000000007
 21
0.1259999999999968
 31
0.0
  0
LINE
  5
2774B59CE724F8C3
330
C829B246627CC826
100
AcDbEntity
  8
COMP
100
AcDbLine
 10
-0.3680000000000021
 20
0.1259999999999968
 30
0.0
 11
-0.3680000000000021
 21
0.2639999999999967
 31
0.0
  0
LINE
  5
2774B59CE724F8C2
330
C829B246627CC826
100
AcDbEntity
  8
COMP
100
AcDbLine
 10
-0.4320000000000022
 20
0.2639999999999967
 30
0.0
 11
-0.4320000000000022
 21
0.1259999999999968
 31
0.0
  0
LINE
  5
2774B59CE724F8C1
330
C829B246627CC826
100
AcDbEntity
  8
COMP
100
AcDbLine
 10
-0.4679999999999965
 20
0.1259999999999968
 30
0.0
 11
-0.4679999999999965
 21
0.2639999999999967
 31
0.0
  0
LINE
  5
2774B59CE724F8C0
330
C829B246627CC826
100
AcDbEntity
  8
COMP
100
AcDbLine
 10
-0.5319999999999965
 20
0.2639999999999967
 30
0.0
 11
-0.5319999999999965
 21
0.1259999999999968
 31
0.0
  0
LINE
  5
2774B59CE724F8BF
330
C829B246627CC826
100
AcDbEntity
  8
COMP
100
AcDbLine
 10
-0.5679999999999979
 20
0.1259999999999968
 30
0.0
 11
-0.5679999999999979
 21
0.2639999999999967
 31
0.0
  0
LINE
  5
2774B59CE724F8BE
330
C829B246627CC826
100
AcDbEntity
  8
COMP
100
AcDbLine
 10
-0.6319999999999979
 20
0.2639999999999967
 30
0.0
 11
-0.6319999999999979
 21
0.1259999999999968
 31
0.0
  0
LINE
  5
2774B59CE724F8BD
330
C829B246627CC826
100
AcDbEntity
  8
COMP
100
AcDbLine
 10
-0.6679999999999993
 20
0.1259999999999968
 30
0.0
 11
-0.6679999999999993
 21
0.2639999999999967
 31
0.0
  0
LINE
  5
2774B59CE724F8BC
330
C829B246627CC826
100
AcDbEntity
  8
COMP
100
AcDbLine
 10
-0.7319999999999994
 20
0.2639999999999967
 30
0.0
 11
-0.7319999999999994
 21
0.1259999999999968
 31
0.0
  0
LINE
  5
2774B59CE724F9C9
330
C829B246627CC826
100
AcDbEntity
  8
COMP
100
AcDbLine
 10
-0.3830000000000027
 20
0.2319999999999966
 30
0.0
 11
-0.3830000000000027
 21
0.1609999999999969
 31
0.0
  0
LINE
  5
2774B59CE724F9C8
330
C829B246627CC826
100
AcDbEntity
  8
COMP
100
AcDbLine
 10
-0.416000000000004
 20
0.1609999999999969
 30
0.0
 11
-0.416000000000004
 21
0.2319999999999966
 31
0.0
  0
LINE
  5
2774B59CE724F9C7
330
C829B246627CC826
100
AcDbEntity
  8
COMP
100
AcDbLine
 10
-0.416000000000004
 20
0.2319999999999966
 30
0.0
 11
-0.3830000000000027
 21
0.2319999999999966
 31
0.0
  0
LINE
  5
2774B59CE724F9C6
330
C829B246627CC826
100
AcDbEntity
  8
COMP
100
AcDbLine
 10
-0.3830000000000027
 20
0.1609999999999969
 30
0.0
 11
-0.416000000000004
 21
0.1609999999999969
 31
0.0
  0
LINE
  5
2774B59CE724F9C5
330
C829B246627CC826
100
AcDbEntity
  8
COMP
100
AcDbLine
 10
-0.416000000000004
 20
0.1869999999999967
 30
0.0
 11
-0.3830000000000027
 21
0.1869999999999967
 31
0.0
  0
LINE
  5
2774B59CE724F9C4
330
C829B246627CC826
100
AcDbEntity
  8
COMP
100
AcDbLine
 10
-0.416000000000004
 20
0.1829999999999972
 30
0.0
 11
-0.3830000000000027
 21
0.1829999999999972
 31
0.0
  0
LINE
  5
2774B59CE724F9C3
330
C829B246627CC826
100
AcDbEntity
  8
COMP
100
AcDbLine
 10
-0.416000000000004
 20
0.1789999999999967
 30
0.0
 11
-0.3830000000000027
 21
0.1789999999999967
 31
0.0
  0
LINE
  5
2774B59CE724F9C2
330
C829B246627CC826
100
AcDbEntity
  8
COMP
100
AcDbLine
 10
-0.416000000000004
 20
0.1749999999999963
 30
0.0
 11
-0.3830000000000027
 21
0.1749999999999963
 31
0.0
  0
LINE
  5
2774B59CE724F9C1
330
C829B246627CC826
100
AcDbEntity
  8
COMP
100
AcDbLine
 10
-0.416000000000004
 20
0.1709999999999967
 30
0.0
 11
-0.3830000000000027
 21
0.1709999999999967
 31
0.0
  0
LINE
  5
2774B59CE724F9C0
330
C829B246627CC826
100
AcDbEntity
  8
COMP
100
AcDbLine
 10
-0.416000000000004
 20
0.1669999999999971
 30
0.0
 11
-0.3830000000000027
 21
0.1669999999999971
 31
0.0
  0
LINE
  5
2774B59CE724F9BF
330
C829B246627CC826
100
AcDbEntity
  8
COMP
100
AcDbLine
 10
-0.416000000000004
 20
0.163999999999997
 30
0.0
 11
-0.3830000000000027
 21
0.163999999999997
 31
0.0
  0
LINE
  5
2774B59CE724F9BD
330
C829B246627CC826
100
AcDbEntity
  8
COMP
100
AcDbLine
 10
-0.482999999999997
 20
0.2319999999999966
 30
0.0
 11
-0.482999999999997
 21
0.1609999999999969
 31
0.0
  0
LINE
  5
2774B59CE724F9BC
330
C829B246627CC826
100
AcDbEntity
  8
COMP
100
AcDbLine
 10
-0.5159999999999983
 20
0.1609999999999969
 30
0.0
 11
-0.5159999999999983
 21
0.2319999999999966
 31
0.0
  0
LINE
  5
2774B59CE724F9BA
330
C829B246627CC826
100
AcDbEntity
  8
COMP
100
AcDbLine
 10
-0.5159999999999983
 20
0.2319999999999966
 30
0.0
 11
-0.482999999999997
 21
0.2319999999999966
 31
0.0
  0
LINE
  5
2774B59CE724F9B9
330
C829B246627CC826
100
AcDbEntity
  8
COMP
100
AcDbLine
 10
-0.482999999999997
 20
0.1609999999999969
 30
0.0
 11
-0.5159999999999983
 21
0.1609999999999969
 31
0.0
  0
LINE
  5
2774B59CE724F9B8
330
C829B246627CC826
100
AcDbEntity
  8
COMP
100
AcDbLine
 10
-0.5159999999999983
 20
0.1869999999999967
 30
0.0
 11
-0.482999999999997
 21
0.1869999999999967
 31
0.0
  0
LINE
  5
2774B59CE724F9B7
330
C829B246627CC826
100
AcDbEntity
  8
COMP
100
AcDbLine
 10
-0.5159999999999983
 20
0.1829999999999972
 30
0.0
 11
-0.482999999999997
 21
0.1829999999999972
 31
0.0
  0
LINE
  5
2774B59CE724F9B6
330
C829B246627CC826
100
AcDbEntity
  8
COMP
100
AcDbLine
 10
-0.5159999999999983
 20
0.1789999999999967
 30
0.0
 11
-0.482999999999997
 21
0.1789999999999967
 31
0.0
  0
LINE
  5
2774B59CE724F9B5
330
C829B246627CC826
100
AcDbEntity
  8
COMP
100
AcDbLine
 10
-0.5159999999999983
 20
0.1749999999999963
 30
0.0
 11
-0.482999999999997
 21
0.1749999999999963
 31
0.0
  0
LINE
  5
2774B59CE724F9B4
330
C829B246627CC826
100
AcDbEntity
  8
COMP
100
AcDbLine
 10
-0.5159999999999983
 20
0.1709999999999967
 30
0.0
 11
-0.482999999999997
 21
0.1709999999999967
 31
0.0
  0
LINE
  5
2774B59CE724F9B3
330
C829B246627CC826
100
AcDbEntity
  8
COMP
100
AcDbLine
 10
-0.5159999999999983
 20
0.1669999999999971
 30
0.0
 11
-0.482999999999997
 21
0.1669999999999971
 31
0.0
  0
LINE
  5
2774B59CE724F9B2
330
C829B246627CC826
100
AcDbEntity
  8
COMP
100
AcDbLine
 10
-0.5159999999999983
 20
0.163999999999997
 30
0.0
 11
-0.482999999999997
 21
0.163999999999997
 31
0.0
  0
LINE
  5
2774B59CE724F9B1
330
C829B246627CC826
100
AcDbEntity
  8
COMP
100
AcDbLine
 10
-0.5829999999999984
 20
0.2319999999999966
 30
0.0
 11
-0.5829999999999984
 21
0.1609999999999969
 31
0.0
  0
LINE
  5
2774B59CE724F9B0
330
C829B246627CC826
100
AcDbEntity
  8
COMP
100
AcDbLine
 10
-0.6159999999999997
 20
0.1609999999999969
 30
0.0
 11
-0.6159999999999997
 21
0.2319999999999966
 31
0.0
  0
LINE
  5
2774B59CE724F9AE
330
C829B246627CC826
100
AcDbEntity
  8
COMP
100
AcDbLine
 10
-0.6159999999999997
 20
0.2319999999999966
 30
0.0
 11
-0.5829999999999984
 21
0.2319999999999966
 31
0.0
  0
LINE
  5
2774B59CE724F9AD
330
C829B246627CC826
100
AcDbEntity
  8
COMP
100
AcDbLine
 10
-0.5829999999999984
 20
0.1609999999999969
 30
0.0
 11
-0.6159999999999997
 21
0.1609999999999969
 31
0.0
  0
LINE
  5
2774B59CE724F9AC
330
C829B246627CC826
100
AcDbEntity
  8
COMP
100
AcDbLine
 10
-0.6159999999999997
 20
0.1869999999999967
 30
0.0
 11
-0.5829999999999984
 21
0.1869999999999967
 31
0.0
  0
LINE
  5
2774B59CE724F9AB
330
C829B246627CC826
100
AcDbEntity
  8
COMP
100
AcDbLine
 10
-0.6159999999999997
 20
0.1829999999999972
 30
0.0
 11
-0.5829999999999984
 21
0.1829999999999972
 31
0.0
  0
LINE
  5
2774B59CE724F9AA
330
C829B246627CC826
100
AcDbEntity
  8
COMP
100
AcDbLine
 10
-0.6159999999999997
 20
0.1789999999999967
 30
0.0
 11
-0.5829999999999984
 21
0.1789999999999967
 31
0.0
  0
LINE
  5
2774B59CE724F9A9
330
C829B246627CC826
100
AcDbEntity
  8
COMP
100
AcDbLine
 10
-0.6159999999999997
 20
0.1749999999999963
 30
0.0
 11
-0.5829999999999984
 21
0.1749999999999963
 31
0.0
  0
LINE
  5
2774B59CE724F9A8
330
C829B246627CC826
100
AcDbEntity
  8
COMP
100
AcDbLine
 10
-0.6159999999999997
 20
0.1709999999999967
 30
0.0
 11
-0.5829999999999984
 21
0.1709999999999967
 31
0.0
  0
LINE
  5
2774B59CE724F9A7
330
C829B246627CC826
100
AcDbEntity
  8
COMP
100
AcDbLine
 10
-0.6159999999999997
 20
0.1669999999999971
 30
0.0
 11
-0.5829999999999984
 21
0.1669999999999971
 31
0.0
  0
LINE
  5
2774B59CE724F9A6
330
C829B246627CC826
100
AcDbEntity
  8
COMP
100
AcDbLine
 10
-0.6159999999999997
 20
0.163999999999997
 30
0.0
 11
-0.5829999999999984
 21
0.163999999999997
 31
0.0
  0
LINE
  5
2774B59CE724F9A5
330
C829B246627CC826
100
AcDbEntity
  8
COMP
100
AcDbLine
 10
-0.6829999999999999
 20
0.2319999999999966
 30
0.0
 11
-0.6829999999999999
 21
0.1609999999999969
 31
0.0
  0
LINE
  5
2774B59CE724F9A4
330
C829B246627CC826
100
AcDbEntity
  8
COMP
100
AcDbLine
 10
-0.7160000000000011
 20
0.1609999999999969
 30
0.0
 11
-0.7160000000000011
 21
0.2319999999999966
 31
0.0
  0
LINE
  5
2774B59CE724F9A2
330
C829B246627CC826
100
AcDbEntity
  8
COMP
100
AcDbLine
 10
-0.7160000000000011
 20
0.2319999999999966
 30
0.0
 11
-0.6829999999999999
 21
0.2319999999999966
 31
0.0
  0
LINE
  5
2774B59CE724F9A1
330
C829B246627CC826
100
AcDbEntity
  8
COMP
100
AcDbLine
 10
-0.6829999999999999
 20
0.1609999999999969
 30
0.0
 11
-0.7160000000000011
 21
0.1609999999999969
 31
0.0
  0
LINE
  5
2774B59CE724F9A0
330
C829B246627CC826
100
AcDbEntity
  8
COMP
100
AcDbLine
 10
-0.7160000000000011
 20
0.1869999999999967
 30
0.0
 11
-0.6829999999999999
 21
0.1869999999999967
 31
0.0
  0
LINE
  5
2774B59CE724F99F
330
C829B246627CC826
100
AcDbEntity
  8
COMP
100
AcDbLine
 10
-0.7160000000000011
 20
0.1829999999999972
 30
0.0
 11
-0.6829999999999999
 21
0.1829999999999972
 31
0.0
  0
LINE
  5
2774B59CE724F99E
330
C829B246627CC826
100
AcDbEntity
  8
COMP
100
AcDbLine
 10
-0.7160000000000011
 20
0.1789999999999967
 30
0.0
 11
-0.6829999999999999
 21
0.1789999999999967
 31
0.0
  0
LINE
  5
2774B59CE724F99D
330
C829B246627CC826
100
AcDbEntity
  8
COMP
100
AcDbLine
 10
-0.7160000000000011
 20
0.1749999999999963
 30
0.0
 11
-0.6829999999999999
 21
0.1749999999999963
 31
0.0
  0
LINE
  5
2774B59CE724F99C
330
C829B246627CC826
100
AcDbEntity
  8
COMP
100
AcDbLine
 10
-0.7160000000000011
 20
0.1709999999999967
 30
0.0
 11
-0.6829999999999999
 21
0.1709999999999967
 31
0.0
  0
LINE
  5
2774B59CE724F99B
330
C829B246627CC826
100
AcDbEntity
  8
COMP
100
AcDbLine
 10
-0.7160000000000011
 20
0.1669999999999971
 30
0.0
 11
-0.6829999999999999
 21
0.1669999999999971
 31
0.0
  0
LINE
  5
2774B59CE724F99A
330
C829B246627CC826
100
AcDbEntity
  8
COMP
100
AcDbLine
 10
-0.7160000000000011
 20
0.163999999999997
 30
0.0
 11
-0.6829999999999999
 21
0.163999999999997
 31
0.0
  0
LINE
  5
2774B59CE724F8DD
330
C829B246627CC826
100
AcDbEntity
  8
COMP
100
AcDbLine
 10
-0.4320000000000022
 20
0.1259999999999968
 30
0.0
 11
-0.3680000000000021
 21
0.1259999999999968
 31
0.0
  0
LINE
  5
2774B59CE724F8DA
330
C829B246627CC826
100
AcDbEntity
  8
COMP
100
AcDbLine
 10
-0.5319999999999965
 20
0.1259999999999968
 30
0.0
 11
-0.4679999999999965
 21
0.1259999999999968
 31
0.0
  0
LINE
  5
2774B59CE724F8D9
330
C829B246627CC826
100
AcDbEntity
  8
COMP
100
AcDbLine
 10
-0.6319999999999979
 20
0.1259999999999968
 30
0.0
 11
-0.5679999999999979
 21
0.1259999999999968
 31
0.0
  0
LINE
  5
2774B59CE724F8D8
330
C829B246627CC826
100
AcDbEntity
  8
COMP
100
AcDbLine
 10
-0.7319999999999994
 20
0.1259999999999968
 30
0.0
 11
-0.6679999999999993
 21
0.1259999999999968
 31
0.0
  0
LINE
  5
2774B59CE724F9E4
330
C829B246627CC826
100
AcDbEntity
  8
COMP
100
AcDbLine
 10
-0.0830000000000055
 20
0.2319999999999966
 30
0.0
 11
-0.0830000000000055
 21
0.1609999999999969
 31
0.0
  0
LINE
  5
2774B59CE724F9E2
330
C829B246627CC826
100
AcDbEntity
  8
COMP
100
AcDbLine
 10
-0.1160000000000068
 20
0.1609999999999969
 30
0.0
 11
-0.1160000000000068
 21
0.2319999999999966
 31
0.0
  0
LINE
  5
2774B59CE724F9E1
330
C829B246627CC826
100
AcDbEntity
  8
COMP
100
AcDbLine
 10
-0.1829999999999998
 20
0.2319999999999966
 30
0.0
 11
-0.1829999999999998
 21
0.1609999999999969
 31
0.0
  0
LINE
  5
2774B59CE724F9E0
330
C829B246627CC826
100
AcDbEntity
  8
COMP
100
AcDbLine
 10
-0.2160000000000011
 20
0.1609999999999969
 30
0.0
 11
-0.2160000000000011
 21
0.2319999999999966
 31
0.0
  0
LINE
  5
2774B59CE724F9DE
330
C829B246627CC826
100
AcDbEntity
  8
COMP
100
AcDbLine
 10
-0.2160000000000011
 20
0.2319999999999966
 30
0.0
 11
-0.1829999999999998
 21
0.2319999999999966
 31
0.0
  0
LINE
  5
2774B59CE724F9DD
330
C829B246627CC826
100
AcDbEntity
  8
COMP
100
AcDbLine
 10
-0.1829999999999998
 20
0.1609999999999969
 30
0.0
 11
-0.2160000000000011
 21
0.1609999999999969
 31
0.0
  0
LINE
  5
2774B59CE724F9DC
330
C829B246627CC826
100
AcDbEntity
  8
COMP
100
AcDbLine
 10
-0.2160000000000011
 20
0.1869999999999967
 30
0.0
 11
-0.1829999999999998
 21
0.1869999999999967
 31
0.0
  0
LINE
  5
2774B59CE724F9DB
330
C829B246627CC826
100
AcDbEntity
  8
COMP
100
AcDbLine
 10
-0.2160000000000011
 20
0.1829999999999972
 30
0.0
 11
-0.1829999999999998
 21
0.1829999999999972
 31
0.0
  0
LINE
  5
2774B59CE724F9DA
330
C829B246627CC826
100
AcDbEntity
  8
COMP
100
AcDbLine
 10
-0.2160000000000011
 20
0.1789999999999967
 30
0.0
 11
-0.1829999999999998
 21
0.1789999999999967
 31
0.0
  0
LINE
  5
2774B59CE724F9D9
330
C829B246627CC826
100
AcDbEntity
  8
COMP
100
AcDbLine
 10
-0.2160000000000011
 20
0.1749999999999963
 30
0.0
 11
-0.1829999999999998
 21
0.1749999999999963
 31
0.0
  0
LINE
  5
2774B59CE724F9D8
330
C829B246627CC826
100
AcDbEntity
  8
COMP
100
AcDbLine
 10
-0.2160000000000011
 20
0.1709999999999967
 30
0.0
 11
-0.1829999999999998
 21
0.1709999999999967
 31
0.0
  0
LINE
  5
2774B59CE724F9D7
330
C829B246627CC826
100
AcDbEntity
  8
COMP
100
AcDbLine
 10
-0.2160000000000011
 20
0.1669999999999971
 30
0.0
 11
-0.1829999999999998
 21
0.1669999999999971
 31
0.0
  0
LINE
  5
2774B59CE724F9D6
330
C829B246627CC826
100
AcDbEntity
  8
COMP
100
AcDbLine
 10
-0.2160000000000011
 20
0.163999999999997
 30
0.0
 11
-0.1829999999999998
 21
0.163999999999997
 31
0.0
  0
LINE
  5
2774B59CE724F9D5
330
C829B246627CC826
100
AcDbEntity
  8
COMP
100
AcDbLine
 10
-0.2830000000000012
 20
0.2319999999999966
 30
0.0
 11
-0.2830000000000012
 21
0.1609999999999969
 31
0.0
  0
LINE
  5
2774B59CE724F9D4
330
C829B246627CC826
100
AcDbEntity
  8
COMP
100
AcDbLine
 10
-0.3160000000000025
 20
0.1609999999999969
 30
0.0
 11
-0.3160000000000025
 21
0.2319999999999966
 31
0.0
  0
LINE
  5
2774B59CE724F9D2
330
C829B246627CC826
100
AcDbEntity
  8
COMP
100
AcDbLine
 10
-0.3160000000000025
 20
0.2319999999999966
 30
0.0
 11
-0.2830000000000012
 21
0.2319999999999966
 31
0.0
  0
LINE
  5
2774B59CE724F9D1
330
C829B246627CC826
100
AcDbEntity
  8
COMP
100
AcDbLine
 10
-0.2830000000000012
 20
0.1609999999999969
 30
0.0
 11
-0.3160000000000025
 21
0.1609999999999969
 31
0.0
  0
LINE
  5
2774B59CE724F9D0
330
C829B246627CC826
100
AcDbEntity
  8
COMP
100
AcDbLine
 10
-0.3160000000000025
 20
0.1869999999999967
 30
0.0
 11
-0.2830000000000012
 21
0.1869999999999967
 31
0.0
  0
LINE
  5
2774B59CE724F9CF
330
C829B246627CC826
100
AcDbEntity
  8
COMP
100
AcDbLine
 10
-0.3160000000000025
 20
0.1829999999999972
 30
0.0
 11
-0.2830000000000012
 21
0.1829999999999972
 31
0.0
  0
LINE
  5
2774B59CE724F9CE
330
C829B246627CC826
100
AcDbEntity
  8
COMP
100
AcDbLine
 10
-0.3160000000000025
 20
0.1789999999999967
 30
0.0
 11
-0.2830000000000012
 21
0.1789999999999967
 31
0.0
  0
LINE
  5
2774B59CE724F9CD
330
C829B246627CC826
100
AcDbEntity
  8
COMP
100
AcDbLine
 10
-0.3160000000000025
 20
0.1749999999999963
 30
0.0
 11
-0.2830000000000012
 21
0.1749999999999963
 31
0.0
  0
LINE
  5
2774B59CE724F9CC
330
C829B246627CC826
100
AcDbEntity
  8
COMP
100
AcDbLine
 10
-0.3160000000000025
 20
0.1709999999999967
 30
0.0
 11
-0.2830000000000012
 21
0.1709999999999967
 31
0.0
  0
LINE
  5
2774B59CE724F9CB
330
C829B246627CC826
100
AcDbEntity
  8
COMP
100
AcDbLine
 10
-0.3160000000000025
 20
0.1669999999999971
 30
0.0
 11
-0.2830000000000012
 21
0.1669999999999971
 31
0.0
  0
LINE
  5
2774B59CE724F9CA
330
C829B246627CC826
100
AcDbEntity
  8
COMP
100
AcDbLine
 10
-0.3160000000000025
 20
0.163999999999997
 30
0.0
 11
-0.2830000000000012
 21
0.163999999999997
 31
0.0
  0
LINE
  5
2774B59CE724F989
330
C829B246627CC826
100
AcDbEntity
  8
COMP
100
AcDbLine
 10
-0.1160000000000068
 20
0.2319999999999966
 30
0.0
 11
-0.0830000000000055
 21
0.2319999999999966
 31
0.0
  0
LINE
  5
2774B59CE724F988
330
C829B246627CC826
100
AcDbEntity
  8
COMP
100
AcDbLine
 10
-0.0830000000000055
 20
0.1609999999999969
 30
0.0
 11
-0.1160000000000068
 21
0.1609999999999969
 31
0.0
  0
LINE
  5
2774B59CE724F987
330
C829B246627CC826
100
AcDbEntity
  8
COMP
100
AcDbLine
 10
-0.1160000000000068
 20
0.1869999999999967
 30
0.0
 11
-0.0830000000000055
 21
0.1869999999999967
 31
0.0
  0
LINE
  5
2774B59CE724F986
330
C829B246627CC826
100
AcDbEntity
  8
COMP
100
AcDbLine
 10
-0.1160000000000068
 20
0.1829999999999972
 30
0.0
 11
-0.0830000000000055
 21
0.1829999999999972
 31
0.0
  0
LINE
  5
2774B59CE724F985
330
C829B246627CC826
100
AcDbEntity
  8
COMP
100
AcDbLine
 10
-0.1160000000000068
 20
0.1789999999999967
 30
0.0
 11
-0.0830000000000055
 21
0.1789999999999967
 31
0.0
  0
LINE
  5
2774B59CE724F984
330
C829B246627CC826
100
AcDbEntity
  8
COMP
100
AcDbLine
 10
-0.1160000000000068
 20
0.1749999999999963
 30
0.0
 11
-0.0830000000000055
 21
0.1749999999999963
 31
0.0
  0
LINE
  5
2774B59CE724F983
330
C829B246627CC826
100
AcDbEntity
  8
COMP
100
AcDbLine
 10
-0.1160000000000068
 20
0.1709999999999967
 30
0.0
 11
-0.0830000000000055
 21
0.1709999999999967
 31
0.0
  0
LINE
  5
2774B59CE724F982
330
C829B246627CC826
100
AcDbEntity
  8
COMP
100
AcDbLine
 10
-0.1160000000000068
 20
0.1669999999999971
 30
0.0
 11
-0.0830000000000055
 21
0.1669999999999971
 31
0.0
  0
LINE
  5
2774B59CE724F981
330
C829B246627CC826
100
AcDbEntity
  8
COMP
100
AcDbLine
 10
-0.1160000000000068
 20
0.163999999999997
 30
0.0
 11
-0.0830000000000055
 21
0.163999999999997
 31
0.0
  0
LWPOLYLINE
  5
2774B59CE724F8DE
330
C829B246627CC826
100
AcDbEntity
  8
COMP
100
AcDbPolyline
 90
        2
 70
     1
 43
0.005
 10
0.0
 20
0.0024999999999995
 42
1.0
 10
0.0
 20
-0.0024999999999995
 42
1.0
  0
LINE
  5
2774B59CE724F8DC
330
C829B246627CC826
100
AcDbEntity
  8
COMP
100
AcDbLine
 10
-0.2319999999999993
 20
0.1259999999999968
 30
0.0
 11
-0.1679999999999993
 21
0.1259999999999968
 31
0.0
  0
LINE
  5
2774B59CE724F8DB
330
C829B246627CC826
100
AcDbEntity
  8
COMP
100
AcDbLine
 10
-0.3320000000000007
 20
0.1259999999999968
 30
0.0
 11
-0.2680000000000007
 21
0.1259999999999968
 31
0.0
  0
LINE
  5
2774B59CE724F8CA
330
C829B246627CC826
100
AcDbEntity
  8
COMP
100
AcDbLine
 10
-0.132000000000005
 20
0.1259999999999968
 30
0.0
 11
-0.068000000000005
 21
0.1259999999999968
 31
0.0
  0
LINE
  5
2774B59CE724F9E3
330
C829B246627CC826
100
AcDbEntity
  8
COMP
100
AcDbLine
 10
-0.3680000000000021
 20
0.2639999999999967
 30
0.0
 11
-0.4320000000000022
 21
0.2639999999999967
 31
0.0
  0
LINE
  5
2774B59CE724F9BB
330
C829B246627CC826
100
AcDbEntity
  8
COMP
100
AcDbLine
 10
-0.4679999999999965
 20
0.2639999999999967
 30
0.0
 11
-0.5319999999999965
 21
0.2639999999999967
 31
0.0
  0
LINE
  5
2774B59CE724F9AF
330
C829B246627CC826
100
AcDbEntity
  8
COMP
100
AcDbLine
 10
-0.5679999999999979
 20
0.2639999999999967
 30
0.0
 11
-0.6319999999999979
 21
0.2639999999999967
 31
0.0
  0
LINE
  5
2774B59CE724F9A3
330
C829B246627CC826
100
AcDbEntity
  8
COMP
100
AcDbLine
 10
-0.6679999999999993
 20
0.2639999999999967
 30
0.0
 11
-0.7319999999999994
 21
0.2639999999999967
 31
0.0
  0
LWPOLYLINE
  5
2774B59CE724F9E5
330
C829B246627CC826
100
AcDbEntity
  8
COMP
100
AcDbPolyline
 90
        2
 70
     1
 43
0.005
 10
0.0
 20
0.4024999999999999
 42
1.0
 10
0.0
 20
0.3975
 42
1.0
  0
LINE
  5
2774B59CE724F9DF
330
C829B246627CC826
100
AcDbEntity
  8
COMP
100
AcDbLine
 10
-0.1679999999999993
 20
0.2639999999999967
 30
0.0
 11
-0.2319999999999993
 21
0.2639999999999967
 31
0.0
  0
LINE
  5
2774B59CE724F9D3
330
C829B246627CC826
100
AcDbEntity
  8
COMP
100
AcDbLine
 10
-0.2680000000000007
 20
0.2639999999999967
 30
0.0
 11
-0.3320000000000007
 21
0.2639999999999967
 31
0.0
  0
LINE
  5
2774B59CE724F98A
330
C829B246627CC826
100
AcDbEntity
  8
COMP
100
AcDbLine
 10
-0.068000000000005
 20
0.2639999999999967
 30
0.0
 11
-0.132000000000005
 21
0.2639999999999967
 31
0.0
  0
ENDBLK
  5
EF6DFB5ED78D8D7C
330
C829B246627CC826
100
AcDbEntity
  8
0
100
AcDbBlockEnd
  0
BLOCK
  5
EF6DFB5ED78D8D7E
330
C829B246627CC827
100
AcDbEntity
  8
0
100
AcDbBlockBegin
  2
ACAD037A
 70
     0
 10
0.0
 20
0.0
 30
0.0
  3
ACAD037A
  1

  0
LWPOLYLINE
  5
1F2BB34C52EBBFC2
330
C829B246627CC827
100
AcDbEntity
  8
COMP
100
AcDbPolyline
 90
        2
 70
     0
 43
0.01
 10
0.0
 20
-0.0819999999999999
 42
1.0
 10
0.0
 20
0.0820000000000008
  0
LWPOLYLINE
  5
1F2BB34C52EBBFC6
330
C829B246627CC827
100
AcDbEntity
  8
COMP
100
AcDbPolyline
 90
        2
 70
     0
 43
0.01
 10
0.0
 20
0.0820000000000008
 42
1.0
 10
0.0
 20
-0.0819999999999999
  0
LWPOLYLINE
  5
1F2BB34C52EBBFD6
330
C829B246627CC827
100
AcDbEntity
  8
COMP
100
AcDbPolyline
 90
        2
 70
     1
 43
0.005
 10
0.0
 20
-0.0794999999999995
 42
1.0
 10
0.0
 20
-0.0844999999999994
 42
1.0
  0
LWPOLYLINE
  5
1F2BB34C52EBBFD2
330
C829B246627CC827
100
AcDbEntity
  8
COMP
100
AcDbPolyline
 90
        2
 70
     1
 43
0.005
 10
0.0
 20
-0.0794999999999995
 42
1.0
 10
0.0
 20
-0.0844999999999994
 42
1.0
  0
LWPOLYLINE
  5
1F2BB34C52EBBFF6
330
C829B246627CC827
100
AcDbEntity
  8
COMP
100
AcDbPolyline
 90
        2
 70
     1
 43
0.005
 10
0.0
 20
0.0845000000000003
 42
1.0
 10
0.0
 20
0.0795000000000004
 42
1.0
  0
LWPOLYLINE
  5
1F2BB34C52EBBFF2
330
C829B246627CC827
100
AcDbEntity
  8
COMP
100
AcDbPolyline
 90
        2
 70
     1
 43
0.005
 10
0.0
 20
0.0845000000000003
 42
1.0
 10
0.0
 20
0.0795000000000004
 42
1.0
  0
ENDBLK
  5
DEDBF6BDAF1B1AFC
330
C829B246627CC827
100
AcDbEntity
  8
0
100
AcDbBlockEnd
  0
BLOCK
  5
7B6FDAF6BC6C6BFE
330
C829B246627CC828
100
AcDbEntity
  8
0
100
AcDbBlockBegin
  2
ACAD3267
 70
     0
 10
0.0
 20
0.0
 30
0.0
  3
ACAD3267
  1

  0
LWPOLYLINE
  5
AB2D92E437CAA115
330
C829B246627CC828
100
AcDbEntity
  8
COMP
100
AcDbPolyline
 90
        2
 70
     1
 43
0.036
 10
0.0
 20
0.0179999999999989
 42
1.0
 10
0.0
 20
-0.0180000000000007
 42
1.0
  0
LWPOLYLINE
  5
AB2D92E437CAA11D
330
C829B246627CC828
100
AcDbEntity
  8
COMP
100
AcDbPolyline
 90
        2
 70
     1
 43
0.036
 10
-0.1090000000000018
 20
0.0179999999999989
 42
1.0
 10
-0.1090000000000018
 20
-0.0180000000000007
 42
1.0
  0
LWPOLYLINE
  5
AB2D92E437CAA119
330
C829B246627CC828
100
AcDbEntity
  8
COMP
100
AcDbPolyline
 90
        2
 70
     1
 43
0.036
 10
-0.2180000000000035
 20
0.0179999999999989
 42
1.0
 10
-0.2180000000000035
 20
-0.0180000000000007
 42
1.0
  0
LWPOLYLINE
  5
AB2D92E437CAA111
330
C829B246627CC828
100
AcDbEntity
  8
COMP
100
AcDbPolyline
 90
        2
 70
     1
 43
0.085
 10
0.2739999999999938
 20
-0.0170000000000013
 42
1.0
 10
0.2739999999999938
 20
-0.1010000000000009
 42
1.0
  0
LINE
  5
AB2D92E437CAA0F5
330
C829B246627CC828
100
AcDbEntity
  8
COMP
100
AcDbLine
 10
0.090999999999994
 20
0.0759999999999987
 30
0.0
 11
0.0349999999999966
 21
-0.1920000000000002
 31
0.0
  0
SOLID
  5
AB2D92E437CAA0F0
330
C829B246627CC828
100
AcDbEntity
  8
COMP
100
AcDbTrace
 10
-0.4720000000000013
 20
0.0359999999999996
 30
0.0
 11
-0.4720000000000013
 21
-0.0360000000000014
 31
0.0
 12
-0.4000000000000057
 22
0.0359999999999996
 32
0.0
 13
-0.4000000000000057
 23
-0.0360000000000014
 33
0.0
  0
LWPOLYLINE
  5
AB2D92E437CAA0EC
330
C829B246627CC828
100
AcDbEntity
  8
COMP
100
AcDbPolyline
 90
        2
 70
     1
 43
0.085
 10
-0.7100000000000009
 20
-0.0170000000000013
 42
1.0
 10
-0.7100000000000009
 20
-0.1010000000000009
 42
1.0
  0
LINE
  5
AB2D92E437CAA0D7
330
C829B246627CC828
100
AcDbEntity
  8
COMP
100
AcDbLine
 10
-0.5270000000000011
 20
0.0759999999999987
 30
0.0
 11
-0.4710000000000037
 21
-0.1920000000000002
 31
0.0
  0
LWPOLYLINE
  5
AB2D92E437CAA0D1
330
C829B246627CC828
100
AcDbEntity
  8
COMP
100
AcDbPolyline
 90
        2
 70
     1
 43
0.036
 10
-0.3270000000000053
 20
0.0179999999999989
 42
1.0
 10
-0.3270000000000053
 20
-0.0180000000000007
 42
1.0
  0
LWPOLYLINE
  5
AB2D92E437CAA0CA
330
C829B246627CC828
100
AcDbEntity
  8
COMP
100
AcDbPolyline
 90
        5
 70
     1
 43
0.01
 10
0.3889999999999958
 20
0.1909999999999989
 10
0.3889999999999958
 20
-0.3030000000000008
 10
-0.8250000000000028
 20
-0.3030000000000008
 10
-0.8250000000000028
 20
0.1909999999999989
 10
0.3889999999999958
 20
0.1909999999999989
  0
LWPOLYLINE
  5
AB2D92E437CAA0E8
330
C829B246627CC828
100
AcDbEntity
  8
COMP
100
AcDbPolyline
 90
        2
 70
     1
 43
0.005
 10
-0.8250000000000028
 20
-0.3005000000000013
 42
1.0
 10
-0.8250000000000028
 20
-0.3055000000000003
 42
1.0
  0
LINE
  5
AB2D92E437CAA0D5
330
C829B246627CC828
100
AcDbEntity
  8
COMP
100
AcDbLine
 10
-0.4710000000000037
 20
-0.1920000000000002
 30
0.0
 11
0.0349999999999966
 21
-0.1920000000000002
 31
0.0
  0
LWPOLYLINE
  5
AB2D92E437CAA0C6
330
C829B246627CC828
100
AcDbEntity
  8
COMP
100
AcDbPolyline
 90
        2
 70
     1
 43
0.036
 10
-0.382000000000005
 20
-0.0940000000000012
 42
1.0
 10
-0.382000000000005
 20
-0.1300000000000008
 42
1.0
  0
LWPOLYLINE
  5
AB2D92E437CAA129
330
C829B246627CC828
100
AcDbEntity
  8
COMP
100
AcDbPolyline
 90
        2
 70
     1
 43
0.036
 10
-0.0549999999999997
 20
-0.0940000000000012
 42
1.0
 10
-0.0549999999999997
 20
-0.1300000000000008
 42
1.0
  0
LWPOLYLINE
  5
AB2D92E437CAA125
330
C829B246627CC828
100
AcDbEntity
  8
COMP
100
AcDbPolyline
 90
        2
 70
     1
 43
0.036
 10
-0.2730000000000032
 20
-0.0940000000000012
 42
1.0
 10
-0.2730000000000032
 20
-0.1300000000000008
 42
1.0
  0
LWPOLYLINE
  5
AB2D92E437CAA121
330
C829B246627CC828
100
AcDbEntity
  8
COMP
100
AcDbPolyline
 90
        2
 70
     1
 43
0.036
 10
-0.1640000000000015
 20
-0.0940000000000012
 42
1.0
 10
-0.1640000000000015
 20
-0.1300000000000008
 42
1.0
  0
LWPOLYLINE
  5
AB2D92E437CAA10C
330
C829B246627CC828
100
AcDbEntity
  8
COMP
100
AcDbPolyline
 90
        2
 70
     1
 43
0.005
 10
0.3889999999999958
 20
-0.3005000000000013
 42
1.0
 10
0.3889999999999958
 20
-0.3055000000000003
 42
1.0
  0
LINE
  5
AB2D92E437CAA0D6
330
C829B246627CC828
100
AcDbEntity
  8
COMP
100
AcDbLine
 10
-0.5270000000000011
 20
0.0759999999999987
 30
0.0
 11
0.090999999999994
 21
0.0759999999999987
 31
0.0
  0
LWPOLYLINE
  5
AB2D92E437CAA0F1
330
C829B246627CC828
100
AcDbEntity
  8
COMP
100
AcDbPolyline
 90
        2
 70
     1
 43
0.005
 10
-0.8250000000000028
 20
0.1935000000000002
 42
1.0
 10
-0.8250000000000028
 20
0.1884999999999994
 42
1.0
  0
LWPOLYLINE
  5
AB2D92E437CAA149
330
C829B246627CC828
100
AcDbEntity
  8
COMP
100
AcDbPolyline
 90
        2
 70
     1
 43
0.005
 10
0.3889999999999958
 20
0.1935000000000002
 42
1.0
 10
0.3889999999999958
 20
0.1884999999999994
 42
1.0
  0
LWPOLYLINE
  5
AB2D92E437CAA145
330
C829B246627CC828
100
AcDbEntity
  8
COMP
100
AcDbPolyline
 90
        2
 70
     1
 43
0.005
 10
0.3889999999999958
 20
0.1935000000000002
 42
1.0
 10
0.3889999999999958
 20
0.1884999999999994
 42
1.0
  0
ENDBLK
  5
F6DFB5ED78D8D7FC
330
C829B246627CC828
100
AcDbEntity
  8
0
100
AcDbBlockEnd
  0
BLOCK
  5
927C8721AA2A2777
330
C829B246627CC82D
100
AcDbEntity
  8
0
100
AcDbBlockBegin
  2
ACAD0C1E
 70
     0
 10
0.0
 20
0.0
 30
0.0
  3
ACAD0C1E
  1

  0
LINE
  5
24F90E4354544EEA
330
C829B246627CC82D
100
AcDbEntity
  8
LABEL
100
AcDbLine
 10
0.0559999999999974
 20
0.0559999999999992
 30
0.0
 11
0.0279999999999987
 21
0.0280000000000005
 31
0.0
  0
LINE
  5
24F90E4354544EEB
330
C829B246627CC82D
100
AcDbEntity
  8
LABEL
100
AcDbLine
 10
-0.0559999999999974
 20
0.0559999999999992
 30
0.0
 11
-0.0279999999999987
 21
0.0280000000000005
 31
0.0
  0
LINE
  5
24F90E4354544EE4
330
C829B246627CC82D
100
AcDbEntity
  8
LABEL
100
AcDbLine
 10
0.0559999999999974
 20
-0.0559999999999992
 30
0.0
 11
0.0279999999999987
 21
-0.0280000000000005
 31
0.0
  0
LINE
  5
24F90E4354544EE5
330
C829B246627CC82D
100
AcDbEntity
  8
LABEL
100
AcDbLine
 10
-0.0559999999999974
 20
-0.0559999999999992
 30
0.0
 11
-0.0279999999999987
 21
-0.0280000000000005
 31
0.0
  0
CIRCLE
  5
24F90E4354544EE2
330
C829B246627CC82D
100
AcDbEntity
  8
LABEL
100
AcDbCircle
 10
0.0
 20
0.0
 30
0.0
 40
0.0390000000000015
  0
ENDBLK
  5
24F90E4354544EEE
330
C829B246627CC82D
100
AcDbEntity
  8
0
100
AcDbBlockEnd
  0
ENDSEC
  0
SECTION
  2
ENTITIES
  0
LINE
  5
994DA9C2708C4E84
330
C829B246627CC81C
100
AcDbEntity
  8
CASE
100
AcDbLine
 10
8.215999999999999
 20
6.124999999999998
 30
0.0
 11
8.215999999999999
 21
0.6349999999999967
 31
0.0
  0
LINE
  5
994DA9C2708C4E85
330
C829B246627CC81C
100
AcDbEntity
  8
CASE
100
AcDbLine
 10
7.714000000000003
 20
0.6349999999999967
 30
0.0
 11
7.714000000000003
 21
5.184999999999996
 31
0.0
  0
LINE
  5
994DA9C2708C4E86
330
C829B246627CC81C
100
AcDbEntity
  8
CASE
100
AcDbLine
 10
2.312000000000002
 20
6.124999999999998
 30
0.0
 11
2.312000000000002
 21
0.6349999999999967
 31
0.0
  0
LINE
  5
994DA9C2708C4E87
330
C829B246627CC81C
100
AcDbEntity
  8
CASE
100
AcDbLine
 10
2.813999999999998
 20
0.6349999999999967
 30
0.0
 11
2.813999999999998
 21
5.184999999999996
 31
0.0
  0
LINE
  5
994DA9C2708C4E88
330
C829B246627CC81C
100
AcDbEntity
  8
CASE
100
AcDbLine
 10
8.764000000000001
 20
0.5100000000000003
 30
0.0
 11
8.764000000000001
 21
6.259999999999999
 31
0.0
  0
LINE
  5
994DA9C2708C4E89
330
C829B246627CC81C
100
AcDbEntity
  8
CASE
100
AcDbLine
 10
1.764000000000001
 20
0.5100000000000003
 30
0.0
 11
1.764000000000001
 21
6.259999999999999
 31
0.0
  0
LINE
  5
994DA9C2708C4E8A
330
C829B246627CC81C
100
AcDbEntity
  8
CASE
100
AcDbLine
 10
8.264000000000001
 20
0.3849999999999967
 30
0.0
 11
8.264000000000001
 21
6.384999999999996
 31
0.0
  0
LINE
  5
994DA9C2708C4E8B
330
C829B246627CC81C
100
AcDbEntity
  8
CASE
100
AcDbLine
 10
2.264000000000001
 20
0.3849999999999967
 30
0.0
 11
2.264000000000001
 21
6.384999999999996
 31
0.0
  0
LINE
  5
994DA9C2708C4E8C
330
C829B246627CC81C
100
AcDbEntity
  8
LABEL
100
AcDbLine
 10
7.302749999999994
 20
3.677999999999999
 30
0.0
 11
7.302749999999994
 21
3.741
 31
0.0
  0
LINE
  5
994DA9C2708C4E8D
330
C829B246627CC81C
100
AcDbEntity
  8
LABEL
100
AcDbLine
 10
7.408000000000006
 20
3.678500000000005
 30
0.0
 11
7.457999999999989
 21
3.694000000000004
 31
0.0
  0
LINE
  5
994DA9C2708C4E8E
330
C829B246627CC81C
100
AcDbEntity
  8
LABEL
100
AcDbLine
 10
7.355250000000003
 20
3.677999999999999
 30
0.0
 11
7.355250000000003
 21
3.741
 31
0.0
  0
LINE
  5
994DA9C2708C4E8F
330
C829B246627CC81C
100
AcDbEntity
  8
LABEL
100
AcDbLine
 10
7.235999999999995
 20
3.615
 30
0.0
 11
7.235999999999995
 21
3.695
 31
0.0
  0
LINE
  5
994DA9C2708C4E90
330
C829B246627CC81C
100
AcDbEntity
  8
LABEL
100
AcDbLine
 10
7.688999999999998
 20
0.6419999999999937
 30
0.0
 11
7.688999999999998
 21
5.160999999999994
 31
0.0
  0
LINE
  5
994DA9C2708C4E91
330
C829B246627CC81C
100
AcDbEntity
  8
LABEL
100
AcDbLine
 10
2.838999999999996
 20
5.161000000000001
 30
0.0
 11
2.838999999999996
 21
0.6419999999999937
 31
0.0
  0
TEXT
  5
994DA9C2708C4E92
330
C829B246627CC81C
100
AcDbEntity
  8
LABEL
100
AcDbText
 10
7.173999999999992
 20
3.060857142857146
 30
0.0
 40
0.075
  1
Universal Inputs
 50
90.0
  7
ADESK1
 72
     4
 11
7.148999999999992
 21
3.518000000000002
 31
0.0
100
AcDbText
  0
TEXT
  5
994DA9C2708C4E93
330
C829B246627CC81C
100
AcDbEntity
  8
LABEL
100
AcDbText
 10
3.353999999999996
 20
3.975142857142863
 30
0.0
 40
0.075
  1
Universal Inputs
 50
270.0
  7
ADESK1
 72
     4
 11
3.378999999999996
 21
3.518000000000006
 31
0.0
100
AcDbText
  0
LINE
  5
994DA9C2708C4E94
330
C829B246627CC81C
100
AcDbEntity
  8
LABEL
100
AcDbLine
 10
3.291999999999992
 20
3.614999999999993
 30
0.0
 11
3.291999999999992
 21
3.704999999999993
 31
0.0
  0
LINE
  5
994DA9C2708C4E95
330
C829B246627CC81C
100
AcDbEntity
  8
LABEL
100
AcDbLine
 10
3.198999999999989
 20
3.614999999999993
 30
0.0
 11
3.198999999999989
 21
3.688999999999993
 31
0.0
  0
LINE
  5
994DA9C2708C4E96
330
C829B246627CC81C
100
AcDbEntity
  8
LABEL
100
AcDbLine
 10
3.119999999999981
 20
3.68949999999999
 30
0.0
 11
3.069999999999984
 21
3.673999999999991
 31
0.0
  0
LINE
  5
994DA9C2708C4E99
330
C829B246627CC81C
100
AcDbEntity
  8
CASE
100
AcDbLine
 10
8.639000000000001
 20
0.3849999999999967
 30
0.0
 11
1.889000000000001
 21
0.3849999999999967
 31
0.0
  0
LINE
  5
994DA9C2708C4E9A
330
C829B246627CC81C
100
AcDbEntity
  8
LABEL
100
AcDbLine
 10
2.838999999999996
 20
0.6419999999999937
 30
0.0
 11
3.422999999999992
 21
0.6419999999999937
 31
0.0
  0
LWPOLYLINE
  5
994DA9C2708C4E9B
330
C829B246627CC81C
100
AcDbEntity
  8
LABEL
100
AcDbPolyline
 90
        3
 70
     0
 43
0.02
 10
3.378999999999996
 20
3.028000000000006
 10
3.378999999999996
 20
1.921999999999993
 10
2.838999999999996
 20
1.921999999999993
  0
LWPOLYLINE
  5
994DA9C2708C4EA0
330
C829B246627CC81C
100
AcDbEntity
  8
LABEL
100
AcDbPolyline
 90
        3
 70
     0
 43
0.02
 10
3.378999999999996
 20
0.9150000000000041
 10
3.378999999999996
 20
0.6879999999999935
 10
2.838999999999989
 20
0.6879999999999935
  0
ARC
  5
994DA9C2708C4EA5
330
C829B246627CC81C
100
AcDbEntity
  8
CASE
100
AcDbCircle
 10
1.889000000000001
 20
0.5099999999999985
 30
0.0
 40
0.1250000000000015
100
AcDbArc
 50
179.999999999999
 51
269.999999999999
  0
INSERT
  5
994DA9C2708C4EA6
330
C829B246627CC81C
100
AcDbEntity
  8
CASE
100
AcDbBlockReference
  2
ACAD0626
 10
2.014000000000001
 20
1.260108571428566
 30
0.0
 50
270.0
  0
LINE
  5
994DA9C2708C4EA7
330
C829B246627CC81C
100
AcDbEntity
  8
CASE
100
AcDbLine
 10
2.813999999999998
 20
0.6349999999999967
 30
0.0
 11
2.264000000000001
 21
0.6349999999999967
 31
0.0
  0
TEXT
  5
994DA9C2708C4EA8
330
C829B246627CC81C
100
AcDbEntity
  8
LABEL
100
AcDbText
 10
7.173999999999992
 20
1.004500000000002
 30
0.0
 40
0.075
  1
Analog Out
 50
90.0
  7
ADESK1
 72
     4
 11
7.148999999999992
 21
1.317000000000002
 31
0.0
100
AcDbText
  0
TEXT
  5
994DA9C2708C4EA9
330
C829B246627CC81C
100
AcDbEntity
  8
LABEL
100
AcDbText
 10
3.353999999999996
 20
1.629500000000005
 30
0.0
 40
0.075
  1
Analog Out
 50
270.0
  7
ADESK1
 72
     4
 11
3.378999999999996
 21
1.317000000000005
 31
0.0
100
AcDbText
  0
ARC
  5
994DA9C2708C4EAA
330
C829B246627CC81C
100
AcDbEntity
  8
CASE
100
AcDbCircle
 10
8.639000000000001
 20
0.5099999999999985
 30
0.0
 40
0.1250000000000018
100
AcDbArc
 50
270.0000000000008
 51
0.0000000000008142
  0
LINE
  5
994DA9C2708C4EAB
330
C829B246627CC81C
100
AcDbEntity
  8
CASE
100
AcDbLine
 10
3.444000000000007
 20
0.9399999999999945
 30
0.0
 11
3.444000000000007
 21
0.3849999999999949
 31
0.0
  0
LINE
  5
994DA9C2708C4EAC
330
C829B246627CC81C
100
AcDbEntity
  8
CASE
100
AcDbLine
 10
6.999
 20
0.9349999999999948
 30
0.0
 11
6.999
 21
0.3849999999999949
 31
0.0
  0
TEXT
  5
994DA9C2708C4EAD
330
C829B246627CC81C
100
AcDbEntity
  8
LABEL
100
AcDbText
 10
5.831142857142869
 20
1.317499999999994
 30
0.0
 40
0.075
  1
ADJ
  7
ADESK1
 72
     4
 11
5.924000000000011
 21
1.354999999999994
 31
0.0
100
AcDbText
  0
TEXT
  5
994DA9C2708C4EAE
330
C829B246627CC81C
100
AcDbEntity
  8
LABEL
100
AcDbText
 10
5.84007142857144
 20
1.395499999999993
 30
0.0
 40
0.075
  1
+V
  7
ADESK1
 72
     4
 11
5.924000000000011
 21
1.432999999999994
 31
0.0
100
AcDbText
  0
LINE
  5
994DA9C2708C4EAF
330
C829B246627CC81C
100
AcDbEntity
  8
CASE
100
AcDbLine
 10
6.054000000000007
 20
1.214999999999996
 30
0.0
 11
4.524000000000006
 21
1.214999999999996
 31
0.0
  0
LINE
  5
994DA9C2708C4EB0
330
C829B246627CC81C
100
AcDbEntity
  8
CASE
100
AcDbLine
 10
6.999
 20
0.4329999999999968
 30
0.0
 11
3.447999999999998
 21
0.4329999999999968
 31
0.0
  0
LINE
  5
994DA9C2708C4EB1
330
C829B246627CC81C
100
AcDbEntity
  8
LABEL
100
AcDbLine
 10
6.078000000000008
 20
1.236999999999994
 30
0.0
 11
4.500000000000005
 21
1.236999999999994
 31
0.0
  0
ARC
  5
994DA9C2708C4EB2
330
C829B246627CC81C
100
AcDbEntity
  8
LABEL
100
AcDbCircle
 10
4.374
 20
1.085999999999996
 30
0.0
 40
0.1260000000000021
100
AcDbArc
 50
269.9999999999992
 51
359.9999999999992
  0
ARC
  5
994DA9C2708C4EB3
330
C829B246627CC81C
100
AcDbEntity
  8
CASE
100
AcDbCircle
 10
4.399000000000006
 20
1.064999999999994
 30
0.0
 40
0.125
100
AcDbArc
 50
270.0
 51
0.0
  0
LINE
  5
994DA9C2708C4EB4
330
C829B246627CC81C
100
AcDbEntity
  8
LABEL
100
AcDbLine
 10
3.422999999999992
 20
0.9600000000000004
 30
0.0
 11
3.422999999999992
 21
0.6419999999999937
 31
0.0
  0
LINE
  5
994DA9C2708C4EB5
330
C829B246627CC81C
100
AcDbEntity
  8
LABEL
100
AcDbLine
 10
3.194040554970873
 20
0.814999999999992
 30
0.0
 11
3.194040554970873
 21
0.9717329567235356
 31
0.0
  0
LINE
  5
994DA9C2708C4EB6
330
C829B246627CC81C
100
AcDbEntity
  8
LABEL
100
AcDbLine
 10
3.128999999999988
 20
1.014999999999992
 30
0.0
 11
3.22899999999999
 21
0.9499999999999918
 31
0.0
  0
LINE
  5
994DA9C2708C4EB7
330
C829B246627CC81C
100
AcDbEntity
  8
LABEL
100
AcDbLine
 10
3.22899999999999
 20
1.079999999999992
 30
0.0
 11
3.22899999999999
 21
0.9499999999999918
 31
0.0
  0
INSERT
  5
994DA9C2708C4EB8
330
C829B246627CC81C
100
AcDbEntity
  8
CASE
100
AcDbBlockReference
  2
ACAD3267
 10
5.070999999999989
 20
0.7089999999999921
 30
0.0
 50
180.0
  0
LINE
  5
994DA9C2708C4EB9
330
C829B246627CC81C
100
AcDbEntity
  8
CASE
100
AcDbLine
 10
3.444000000000007
 20
0.9399999999999945
 30
0.0
 11
4.402000000000006
 21
0.9399999999999945
 31
0.0
  0
LWPOLYLINE
  5
994DA9C2708C4EBB
330
C829B246627CC81C
100
AcDbEntity
  8
COMP
100
AcDbPolyline
 90
        5
 70
     0
 43
0.02
 10
4.008999999999991
 20
0.7449999999999935
 10
4.10999999999999
 20
0.7449999999999935
 10
4.10999999999999
 20
0.5449999999999942
 10
4.008999999999991
 20
0.5449999999999942
 10
4.008999999999991
 20
0.7549999999999942
  0
INSERT
  5
994DA9C2708C4EC2
330
C829B246627CC81C
100
AcDbEntity
  8
CASE
100
AcDbBlockReference
  2
ACAD037A
 10
3.718999999999985
 20
0.6139999999999915
 30
0.0
  0
INSERT
  5
994DA9C2708C4EC3
330
C829B246627CC81C
100
AcDbEntity
  8
CASE
100
AcDbBlockReference
  2
ACAD037A
 10
3.538999999999992
 20
0.6139999999999915
 30
0.0
  0
INSERT
  5
994DA9C2708C4EC4
330
C829B246627CC81C
100
AcDbEntity
  8
CASE
100
AcDbBlockReference
  2
ACAD037A
 10
3.898999999999992
 20
0.6139999999999915
 30
0.0
  0
INSERT
  5
994DA9C2708C4EC5
330
C829B246627CC81C
100
AcDbEntity
  8
CASE
100
AcDbBlockReference
  2
ACAD037A
 10
3.538999999999992
 20
0.798999999999992
 30
0.0
  0
TEXT
  5
994DA9C2708C4EC6
330
C829B246627CC81C
100
AcDbEntity
  8
LABEL
100
AcDbText
 10
2.922499999999991
 20
0.777499999999992
 30
0.0
 40
0.075
  1
C
  7
ADESK1
 72
     4
 11
2.959999999999991
 21
0.814999999999992
 31
0.0
100
AcDbText
  0
LINE
  5
994DA9C2708C4EC7
330
C829B246627CC81C
100
AcDbEntity
  8
LABEL
100
AcDbLine
 10
3.069999999999991
 20
0.814999999999992
 30
0.0
 11
3.194040554970873
 21
0.814999999999992
 31
0.0
  0
INSERT
  5
994DA9C2708C4EC8
330
C829B246627CC81C
100
AcDbEntity
  8
CASE
100
AcDbBlockReference
  2
ACAD037A
 10
3.718999999999985
 20
0.798999999999992
 30
0.0
  0
INSERT
  5
994DA9C2708C4EC9
330
C829B246627CC81C
100
AcDbEntity
  8
CASE
100
AcDbBlockReference
  2
ACAD037A
 10
3.898999999999992
 20
0.798999999999992
 30
0.0
  0
TEXT
  5
994DA9C2708C4ECA
330
C829B246627CC81C
100
AcDbEntity
  8
LABEL
100
AcDbText
 10
4.347571428571424
 20
1.011857142857137
 30
0.0
 40
0.075
  1
+
  7
ADESK1
 72
     4
 11
4.393999999999996
 21
1.043999999999994
 31
0.0
100
AcDbText
  0
TEXT
  5
994DA9C2708C4ECB
330
C829B246627CC81C
100
AcDbEntity
  8
LABEL
100
AcDbText
 10
4.070428571428583
 20
1.248499999999993
 30
0.0
 40
0.075
  1
RS-485
  7
ADESK1
 72
     4
 11
4.299000000000011
 21
1.285999999999993
 31
0.0
100
AcDbText
  0
LINE
  5
994DA9C2708C4ECC
330
C829B246627CC81C
100
AcDbEntity
  8
LABEL
100
AcDbLine
 10
3.194040554970873
 20
1.214999999999992
 30
0.0
 11
3.194040554970873
 21
1.371732956723536
 31
0.0
  0
TEXT
  5
994DA9C2708C4ECD
330
C829B246627CC81C
100
AcDbEntity
  8
LABEL
100
AcDbText
 10
2.922499999999991
 20
1.177499999999992
 30
0.0
 40
0.075
  1
C
  7
ADESK1
 72
     4
 11
2.959999999999991
 21
1.214999999999992
 31
0.0
100
AcDbText
  0
LINE
  5
994DA9C2708C4ECE
330
C829B246627CC81C
100
AcDbEntity
  8
LABEL
100
AcDbLine
 10
3.422999999999992
 20
0.9599999999999941
 30
0.0
 11
4.374
 21
0.9599999999999941
 31
0.0
  0
TEXT
  5
994DA9C2708C4ECF
330
C829B246627CC81C
100
AcDbEntity
  8
LABEL
100
AcDbText
 10
3.503999999999998
 20
1.141500000000005
 30
0.0
 40
0.075
  1
CD
  7
ADESK1
 72
     4
 11
3.578999999999998
 21
1.179000000000005
 31
0.0
100
AcDbText
  0
INSERT
  5
994DA9C2708C4ED0
330
C829B246627CC81C
100
AcDbEntity
  8
COMP
100
AcDbBlockReference
  2
ACAD0C1E
 10
3.578999999999998
 20
1.053000000000004
 30
0.0
  0
LINE
  5
994DA9C2708C4ED1
330
C829B246627CC81C
100
AcDbEntity
  8
LABEL
100
AcDbLine
 10
3.22899999999999
 20
1.014999999999992
 30
0.0
 11
3.313999999999991
 21
1.014999999999992
 31
0.0
  0
TEXT
  5
994DA9C2708C4ED2
330
C829B246627CC81C
100
AcDbEntity
  8
LABEL
100
AcDbText
 10
2.924285714285706
 20
0.9774999999999922
 30
0.0
 40
0.075
  1
3
  7
ADESK1
 72
     4
 11
2.959999999999991
 21
1.014999999999992
 31
0.0
100
AcDbText
  0
LINE
  5
994DA9C2708C4ED3
330
C829B246627CC81C
100
AcDbEntity
  8
LABEL
100
AcDbLine
 10
3.069999999999991
 20
1.014999999999992
 30
0.0
 11
3.128999999999988
 21
1.014999999999992
 31
0.0
  0
TEXT
  5
994DA9C2708C4ED4
330
C829B246627CC81C
100
AcDbEntity
  8
LABEL
100
AcDbText
 10
3.069156496571538
 20
1.038940443282713
 30
0.0
 40
0.06
  1
+
  7
ADESK1
 72
     4
 11
3.106299353714396
 21
1.064654728996999
 31
0.0
100
AcDbText
  0
LINE
  5
994DA9C2708C4ED5
330
C829B246627CC81C
100
AcDbEntity
  8
LABEL
100
AcDbLine
 10
3.128999999999988
 20
1.014999999999992
 30
0.0
 11
3.22899999999999
 21
1.079999999999992
 31
0.0
  0
LINE
  5
994DA9C2708C4ED6
330
C829B246627CC81C
100
AcDbEntity
  8
LABEL
100
AcDbLine
 10
3.069999999999991
 20
1.214999999999992
 30
0.0
 11
3.194040554970873
 21
1.214999999999992
 31
0.0
  0
TEXT
  5
994DA9C2708C4ED7
330
C829B246627CC81C
100
AcDbEntity
  8
LABEL
100
AcDbText
 10
3.837214285714284
 20
1.141500000000005
 30
0.0
 40
0.075
  1
CTS
  7
ADESK1
 72
     4
 11
3.938999999999998
 21
1.179000000000005
 31
0.0
100
AcDbText
  0
TEXT
  5
994DA9C2708C4ED8
330
C829B246627CC81C
100
AcDbEntity
  8
LABEL
100
AcDbText
 10
3.685785714285705
 20
1.141500000000005
 30
0.0
 40
0.075
  1
EN
  7
ADESK1
 72
     4
 11
3.758999999999991
 21
1.179000000000005
 31
0.0
100
AcDbText
  0
INSERT
  5
994DA9C2708C4ED9
330
C829B246627CC81C
100
AcDbEntity
  8
COMP
100
AcDbBlockReference
  2
ACAD0C1E
 10
3.938999999999998
 20
1.053000000000004
 30
0.0
  0
INSERT
  5
994DA9C2708C4EDA
330
C829B246627CC81C
100
AcDbEntity
  8
COMP
100
AcDbBlockReference
  2
ACAD0C1E
 10
3.758999999999991
 20
1.053000000000004
 30
0.0
  0
TEXT
  5
994DA9C2708C4EDB
330
C829B246627CC81C
100
AcDbEntity
  8
LABEL
100
AcDbText
 10
4.147571428571436
 20
1.011857142857137
 30
0.0
 40
0.075
  1
-
  7
ADESK1
 72
     4
 11
4.194000000000007
 21
1.043999999999994
 31
0.0
100
AcDbText
  0
INSERT
  5
994DA9C2708C4EDC
330
C829B246627CC81C
100
AcDbEntity
  8
COMP
100
AcDbBlockReference
  2
ACAD0C1E
 10
3.578999999999998
 20
1.301000000000005
 30
0.0
  0
TEXT
  5
994DA9C2708C4EDD
330
C829B246627CC81C
100
AcDbEntity
  8
LABEL
100
AcDbText
 10
3.518285714285713
 20
1.389500000000005
 30
0.0
 40
0.075
  1
TX
  7
ADESK1
 72
     4
 11
3.578999999999998
 21
1.427000000000005
 31
0.0
100
AcDbText
  0
LINE
  5
994DA9C2708C4EDE
330
C829B246627CC81C
100
AcDbEntity
  8
LABEL
100
AcDbLine
 10
3.22899999999999
 20
1.414999999999992
 30
0.0
 11
3.313999999999991
 21
1.414999999999992
 31
0.0
  0
LINE
  5
994DA9C2708C4EDF
330
C829B246627CC81C
100
AcDbEntity
  8
LABEL
100
AcDbLine
 10
3.128999999999988
 20
1.414999999999992
 30
0.0
 11
3.22899999999999
 21
1.479999999999992
 31
0.0
  0
LINE
  5
994DA9C2708C4EE0
330
C829B246627CC81C
100
AcDbEntity
  8
LABEL
100
AcDbLine
 10
3.069999999999991
 20
1.414999999999992
 30
0.0
 11
3.128999999999988
 21
1.414999999999992
 31
0.0
  0
TEXT
  5
994DA9C2708C4EE1
330
C829B246627CC81C
100
AcDbEntity
  8
LABEL
100
AcDbText
 10
3.069156496571538
 20
1.438940443282713
 30
0.0
 40
0.06
  1
+
  7
ADESK1
 72
     4
 11
3.106299353714396
 21
1.464654728996999
 31
0.0
100
AcDbText
  0
LINE
  5
994DA9C2708C4EE2
330
C829B246627CC81C
100
AcDbEntity
  8
LABEL
100
AcDbLine
 10
3.22899999999999
 20
1.479999999999992
 30
0.0
 11
3.22899999999999
 21
1.349999999999992
 31
0.0
  0
LINE
  5
994DA9C2708C4EE3
330
C829B246627CC81C
100
AcDbEntity
  8
LABEL
100
AcDbLine
 10
3.128999999999988
 20
1.414999999999992
 30
0.0
 11
3.22899999999999
 21
1.349999999999992
 31
0.0
  0
TEXT
  5
994DA9C2708C4EE4
330
C829B246627CC81C
100
AcDbEntity
  8
LABEL
100
AcDbText
 10
2.924285714285706
 20
1.377499999999992
 30
0.0
 40
0.075
  1
2
  7
ADESK1
 72
     4
 11
2.959999999999991
 21
1.414999999999992
 31
0.0
100
AcDbText
  0
INSERT
  5
994DA9C2708C4EE5
330
C829B246627CC81C
100
AcDbEntity
  8
COMP
100
AcDbBlockReference
  2
ACAD0C1E
 10
3.758999999999991
 20
1.301000000000005
 30
0.0
  0
INSERT
  5
994DA9C2708C4EE6
330
C829B246627CC81C
100
AcDbEntity
  8
COMP
100
AcDbBlockReference
  2
ACAD0C1E
 10
3.938999999999998
 20
1.301000000000005
 30
0.0
  0
TEXT
  5
994DA9C2708C4EE7
330
C829B246627CC81C
100
AcDbEntity
  8
LABEL
100
AcDbText
 10
3.683999999999991
 20
1.389500000000005
 30
0.0
 40
0.075
  1
RX
  7
ADESK1
 72
     4
 11
3.758999999999991
 21
1.427000000000005
 31
0.0
100
AcDbText
  0
TEXT
  5
994DA9C2708C4EE8
330
C829B246627CC81C
100
AcDbEntity
  8
LABEL
100
AcDbText
 10
3.871142857142855
 20
1.389500000000005
 30
0.0
 40
0.075
  1
ST
  7
ADESK1
 72
     4
 11
3.938999999999998
 21
1.427000000000005
 31
0.0
100
AcDbText
  0
LINE
  5
994DA9C2708C4EE9
330
C829B246627CC81C
100
AcDbEntity
  8
LABEL
100
AcDbLine
 10
4.500000000000005
 20
1.236999999999994
 30
0.0
 11
4.500000000000005
 21
1.085999999999994
 31
0.0
  0
INSERT
  5
994DA9C2708C4EEA
330
C829B246627CC81C
100
AcDbEntity
  8
CASE
100
AcDbBlockReference
  2
ACAD037A
 10
5.183999999999988
 20
1.120999999999991
 30
0.0
  0
LINE
  5
994DA9C2708C4EEB
330
C829B246627CC81C
100
AcDbEntity
  8
CASE
100
AcDbLine
 10
4.524000000000006
 20
1.214999999999996
 30
0.0
 11
4.524000000000006
 21
1.064999999999994
 31
0.0
  0
INSERT
  5
994DA9C2708C4EEC
330
C829B246627CC81C
100
AcDbEntity
  8
CASE
100
AcDbBlockReference
  2
ACAD037A
 10
5.388999999999986
 20
1.120999999999991
 30
0.0
  0
INSERT
  5
994DA9C2708C4EED
330
C829B246627CC81C
100
AcDbEntity
  8
COMP
100
AcDbBlockReference
  2
ACAD0C1E
 10
5.183999999999979
 20
1.314000000000004
 30
0.0
  0
TEXT
  5
994DA9C2708C4EEE
330
C829B246627CC81C
100
AcDbEntity
  8
LABEL
100
AcDbText
 10
5.123285714285693
 20
1.398500000000004
 30
0.0
 40
0.075
  1
TX
  7
ADESK1
 72
     4
 11
5.183999999999979
 21
1.436000000000004
 31
0.0
100
AcDbText
  0
INSERT
  5
994DA9C2708C4EEF
330
C829B246627CC81C
100
AcDbEntity
  8
COMP
100
AcDbBlockReference
  2
ACAD0C1E
 10
5.388999999999978
 20
1.314000000000004
 30
0.0
  0
TEXT
  5
994DA9C2708C4EF0
330
C829B246627CC81C
100
AcDbEntity
  8
LABEL
100
AcDbText
 10
5.313999999999977
 20
1.398500000000004
 30
0.0
 40
0.075
  1
RX
  7
ADESK1
 72
     4
 11
5.388999999999978
 21
1.436000000000004
 31
0.0
100
AcDbText
  0
ARC
  5
994DA9C2708C4EF1
330
C829B246627CC81C
100
AcDbEntity
  8
LABEL
100
AcDbCircle
 10
6.204000000000013
 20
1.085999999999997
 30
0.0
 40
0.1260000000000048
100
AcDbArc
 50
180.0
 51
270.0
  0
INSERT
  5
994DA9C2708C4EF2
330
C829B246627CC81C
100
AcDbEntity
  8
CASE
100
AcDbBlockReference
  2
ACAD006E
 10
8.514000000000001
 20
1.260108571428566
 30
0.0
 50
270.0
  0
ARC
  5
994DA9C2708C4EF3
330
C829B246627CC81C
100
AcDbEntity
  8
CASE
100
AcDbCircle
 10
6.179000000000007
 20
1.059999999999994
 30
0.0
 40
0.125
100
AcDbArc
 50
180.0
 51
270.0
  0
LINE
  5
994DA9C2708C4EF4
330
C829B246627CC81C
100
AcDbEntity
  8
LABEL
100
AcDbLine
 10
7.333959445029099
 20
1.014999999999999
 30
0.0
 11
7.333959445029099
 21
0.8582670432764555
 31
0.0
  0
LINE
  5
994DA9C2708C4EF5
330
C829B246627CC81C
100
AcDbEntity
  8
LABEL
100
AcDbLine
 10
7.023000000000001
 20
0.6419999999999937
 30
0.0
 11
7.023000000000001
 21
0.9599999999999941
 31
0.0
  0
LWPOLYLINE
  5
994DA9C2708C4EF6
330
C829B246627CC81C
100
AcDbEntity
  8
LABEL
100
AcDbPolyline
 90
        3
 70
     0
 43
0.02
 10
7.148999999999992
 20
0.9659999999999882
 10
7.148999999999992
 20
0.6879999999999935
 10
7.688999999999984
 20
0.6879999999999935
  0
LINE
  5
994DA9C2708C4EFB
330
C829B246627CC81C
100
AcDbEntity
  8
LABEL
100
AcDbLine
 10
7.457999999999989
 20
0.8149999999999991
 30
0.0
 11
7.398999999999992
 21
0.8149999999999991
 31
0.0
  0
TEXT
  5
994DA9C2708C4EFC
330
C829B246627CC81C
100
AcDbEntity
  8
LABEL
100
AcDbText
 10
7.458843503428434
 20
0.7910595567172777
 30
0.0
 40
0.06
  1
+
 50
180.0
  7
ADESK1
 72
     4
 11
7.421700646285577
 21
0.765345271002992
 31
0.0
100
AcDbText
  0
LINE
  5
994DA9C2708C4EFD
330
C829B246627CC81C
100
AcDbEntity
  8
LABEL
100
AcDbLine
 10
7.688999999999998
 20
0.6419999999999937
 30
0.0
 11
7.023000000000001
 21
0.6419999999999937
 31
0.0
  0
LINE
  5
994DA9C2708C4EFF
330
C829B246627CC81C
100
AcDbEntity
  8
CASE
100
AcDbLine
 10
6.999
 20
0.9349999999999948
 30
0.0
 11
6.179000000000007
 21
0.9349999999999948
 31
0.0
  0
LINE
  5
994DA9C2708C4F00
330
C829B246627CC81C
100
AcDbEntity
  8
LABEL
100
AcDbLine
 10
7.398999999999992
 20
0.8149999999999991
 30
0.0
 11
7.298999999999997
 21
0.8799999999999993
 31
0.0
  0
LINE
  5
994DA9C2708C4F01
330
C829B246627CC81C
100
AcDbEntity
  8
LABEL
100
AcDbLine
 10
7.298999999999997
 20
0.8149999999999991
 30
0.0
 11
7.213999999999989
 21
0.8149999999999991
 31
0.0
  0
LINE
  5
994DA9C2708C4F02
330
C829B246627CC81C
100
AcDbEntity
  8
LABEL
100
AcDbLine
 10
7.398999999999992
 20
0.8149999999999991
 30
0.0
 11
7.298999999999997
 21
0.7499999999999987
 31
0.0
  0
LINE
  5
994DA9C2708C4F03
330
C829B246627CC81C
100
AcDbEntity
  8
LABEL
100
AcDbLine
 10
7.298999999999997
 20
0.7499999999999987
 30
0.0
 11
7.298999999999997
 21
0.8799999999999993
 31
0.0
  0
LINE
  5
994DA9C2708C4F04
330
C829B246627CC81C
100
AcDbEntity
  8
CASE
100
AcDbLine
 10
8.264000000000001
 20
0.6349999999999967
 30
0.0
 11
7.714000000000003
 21
0.6349999999999967
 31
0.0
  0
TEXT
  5
994DA9C2708C4F05
330
C829B246627CC81C
100
AcDbEntity
  8
LABEL
100
AcDbText
 10
7.530499999999989
 20
0.7784999999999968
 30
0.0
 40
0.075
  1
4
  7
ADESK1
 72
     4
 11
7.567999999999988
 21
0.8159999999999968
 31
0.0
100
AcDbText
  0
LINE
  5
994DA9C2708C4F06
330
C829B246627CC81C
100
AcDbEntity
  8
LABEL
100
AcDbLine
 10
7.457999999999989
 20
1.414999999999999
 30
0.0
 11
7.333959445029099
 21
1.414999999999999
 31
0.0
  0
LINE
  5
994DA9C2708C4F07
330
C829B246627CC81C
100
AcDbEntity
  8
LABEL
100
AcDbLine
 10
7.457999999999989
 20
1.214999999999999
 30
0.0
 11
7.398999999999992
 21
1.214999999999999
 31
0.0
  0
LINE
  5
994DA9C2708C4F08
330
C829B246627CC81C
100
AcDbEntity
  8
LABEL
100
AcDbLine
 10
7.457999999999989
 20
1.014999999999999
 30
0.0
 11
7.333959445029099
 21
1.014999999999999
 31
0.0
  0
TEXT
  5
994DA9C2708C4F09
330
C829B246627CC81C
100
AcDbEntity
  8
LABEL
100
AcDbText
 10
7.458843503428434
 20
1.191059556717278
 30
0.0
 40
0.06
  1
+
 50
180.0
  7
ADESK1
 72
     4
 11
7.421700646285577
 21
1.165345271002992
 31
0.0
100
AcDbText
  0
LINE
  5
994DA9C2708C4F0A
330
C829B246627CC81C
100
AcDbEntity
  8
LABEL
100
AcDbLine
 10
7.398999999999992
 20
1.214999999999999
 30
0.0
 11
7.298999999999997
 21
1.279999999999999
 31
0.0
  0
LINE
  5
994DA9C2708C4F0B
330
C829B246627CC81C
100
AcDbEntity
  8
LABEL
100
AcDbLine
 10
7.298999999999997
 20
1.149999999999999
 30
0.0
 11
7.298999999999997
 21
1.279999999999999
 31
0.0
  0
LWPOLYLINE
  5
994DA9C2708C4F0C
330
C829B246627CC81C
100
AcDbEntity
  8
LABEL
100
AcDbPolyline
 90
        2
 70
     0
 43
0.02
 10
6.528999999999987
 20
0.9599999999999941
 10
6.528999999999987
 20
1.405999999999995
  0
TEXT
  5
994DA9C2708C4F10
330
C829B246627CC81C
100
AcDbEntity
  8
LABEL
100
AcDbText
 10
6.223642857142856
 20
1.213499999999984
 30
0.0
 40
0.075
  1
Pwr
  7
ADESK1
 72
     4
 11
6.328999999999998
 21
1.250999999999984
 31
0.0
100
AcDbText
  0
TEXT
  5
994DA9C2708C4F11
330
C829B246627CC81C
100
AcDbEntity
  8
LABEL
100
AcDbText
 10
6.564142857142847
 20
1.214499999999995
 30
0.0
 40
0.075
  1
10-36Vdc
  7
ADESK1
 72
     4
 11
6.85699999999999
 21
1.251999999999995
 31
0.0
100
AcDbText
  0
LINE
  5
994DA9C2708C4F12
330
C829B246627CC81C
100
AcDbEntity
  8
LABEL
100
AcDbLine
 10
6.078000000000008
 20
1.236999999999994
 30
0.0
 11
6.078000000000008
 21
1.085999999999995
 31
0.0
  0
TEXT
  5
994DA9C2708C4F13
330
C829B246627CC81C
100
AcDbEntity
  8
LABEL
100
AcDbText
 10
6.564142857142847
 20
1.106499999999995
 30
0.0
 40
0.075
  1
10-26Vac
  7
ADESK1
 72
     4
 11
6.85699999999999
 21
1.143999999999995
 31
0.0
100
AcDbText
  0
LINE
  5
994DA9C2708C4F14
330
C829B246627CC81C
100
AcDbEntity
  8
LABEL
100
AcDbLine
 10
7.023000000000001
 20
0.9599999999999941
 30
0.0
 11
6.204000000000013
 21
0.9599999999999941
 31
0.0
  0
LINE
  5
994DA9C2708C4F15
330
C829B246627CC81C
100
AcDbEntity
  8
CASE
100
AcDbLine
 10
6.054000000000007
 20
1.214999999999996
 30
0.0
 11
6.054000000000007
 21
1.059999999999994
 31
0.0
  0
TEXT
  5
994DA9C2708C4F16
330
C829B246627CC81C
100
AcDbEntity
  8
LABEL
100
AcDbText
 10
6.582571428571424
 20
1.011857142857134
 30
0.0
 40
0.075
  1
-
  7
ADESK1
 72
     4
 11
6.628999999999996
 21
1.043999999999991
 31
0.0
100
AcDbText
  0
TEXT
  5
994DA9C2708C4F17
330
C829B246627CC81C
100
AcDbEntity
  8
LABEL
100
AcDbText
 10
6.382571428571421
 20
1.011857142857134
 30
0.0
 40
0.075
  1
+
  7
ADESK1
 72
     4
 11
6.428999999999993
 21
1.043999999999991
 31
0.0
100
AcDbText
  0
TEXT
  5
994DA9C2708C4F18
330
C829B246627CC81C
100
AcDbEntity
  8
LABEL
100
AcDbText
 10
6.182571428571418
 20
1.011857142857134
 30
0.0
 40
0.075
  1
-
  7
ADESK1
 72
     4
 11
6.22899999999999
 21
1.043999999999991
 31
0.0
100
AcDbText
  0
TEXT
  5
994DA9C2708C4F19
330
C829B246627CC81C
100
AcDbEntity
  8
LABEL
100
AcDbText
 10
6.232571428571427
 20
1.105499999999987
 30
0.0
 40
0.075
  1
Out
  7
ADESK1
 72
     4
 11
6.328999999999998
 21
1.142999999999987
 31
0.0
100
AcDbText
  0
LINE
  5
994DA9C2708C4F1A
330
C829B246627CC81C
100
AcDbEntity
  8
LABEL
100
AcDbLine
 10
7.298999999999997
 20
1.214999999999999
 30
0.0
 11
7.213999999999989
 21
1.214999999999999
 31
0.0
  0
LINE
  5
994DA9C2708C4F1B
330
C829B246627CC81C
100
AcDbEntity
  8
LABEL
100
AcDbLine
 10
7.398999999999992
 20
1.214999999999999
 30
0.0
 11
7.298999999999997
 21
1.149999999999999
 31
0.0
  0
TEXT
  5
994DA9C2708C4F1C
330
C829B246627CC81C
100
AcDbEntity
  8
LABEL
100
AcDbText
 10
6.782571428571427
 20
1.011857142857134
 30
0.0
 40
0.075
  1
+
  7
ADESK1
 72
     4
 11
6.828999999999998
 21
1.043999999999991
 31
0.0
100
AcDbText
  0
TEXT
  5
994DA9C2708C4F1D
330
C829B246627CC81C
100
AcDbEntity
  8
LABEL
100
AcDbText
 10
6.561571428571423
 20
1.317499999999995
 30
0.0
 40
0.075
  1
Power
  7
ADESK1
 72
     4
 11
6.732999999999995
 21
1.354999999999995
 31
0.0
100
AcDbText
  0
TEXT
  5
994DA9C2708C4F1E
330
C829B246627CC81C
100
AcDbEntity
  8
LABEL
100
AcDbText
 10
6.136142857142855
 20
1.317499999999987
 30
0.0
 40
0.075
  1
Sensor
  7
ADESK1
 72
     4
 11
6.328999999999998
 21
1.354999999999987
 31
0.0
100
AcDbText
  0
LINE
  5
994DA9C2708C4F1F
330
C829B246627CC81C
100
AcDbEntity
  8
LABEL
100
AcDbLine
 10
7.333959445029099
 20
1.414999999999999
 30
0.0
 11
7.333959445029099
 21
1.258267043276455
 31
0.0
  0
TEXT
  5
994DA9C2708C4F20
330
C829B246627CC81C
100
AcDbEntity
  8
LABEL
100
AcDbText
 10
7.532285714285703
 20
1.178499999999996
 30
0.0
 40
0.075
  1
5
  7
ADESK1
 72
     4
 11
7.567999999999988
 21
1.215999999999997
 31
0.0
100
AcDbText
  0
TEXT
  5
994DA9C2708C4F21
330
C829B246627CC81C
100
AcDbEntity
  8
LABEL
100
AcDbText
 10
7.530499999999989
 20
0.9784999999999969
 30
0.0
 40
0.075
  1
C
  7
ADESK1
 72
     4
 11
7.567999999999988
 21
1.015999999999996
 31
0.0
100
AcDbText
  0
TEXT
  5
994DA9C2708C4F22
330
C829B246627CC81C
100
AcDbEntity
  8
LABEL
100
AcDbText
 10
7.530499999999989
 20
1.378499999999997
 30
0.0
 40
0.075
  1
C
  7
ADESK1
 72
     4
 11
7.567999999999988
 21
1.415999999999997
 31
0.0
100
AcDbText
  0
LINE
  5
994DA9C2708C4F25
330
C829B246627CC81C
100
AcDbEntity
  8
LABEL
100
AcDbLine
 10
7.423999999999997
 20
2.615
 30
0.0
 11
7.423999999999997
 21
2.567000000000002
 31
0.0
  0
LINE
  5
994DA9C2708C4F26
330
C829B246627CC81C
100
AcDbEntity
  8
LABEL
100
AcDbLine
 10
7.328999999999998
 20
2.615
 30
0.0
 11
7.328999999999998
 21
2.541
 31
0.0
  0
LINE
  5
994DA9C2708C4F27
330
C829B246627CC81C
100
AcDbEntity
  8
LABEL
100
AcDbLine
 10
7.235999999999995
 20
2.615
 30
0.0
 11
7.235999999999995
 21
2.525
 31
0.0
  0
TEXT
  5
994DA9C2708C4F28
330
C829B246627CC81C
100
AcDbEntity
  8
LABEL
100
AcDbText
 10
7.530000000000001
 20
2.582500000000002
 30
0.0
 40
0.075
  1
C
  7
ADESK1
 72
     4
 11
7.5675
 21
2.620000000000002
 31
0.0
100
AcDbText
  0
LWPOLYLINE
  5
994DA9C2708C4F29
330
C829B246627CC81C
100
AcDbEntity
  8
LABEL
100
AcDbPolyline
 90
        3
 70
     0
 43
0.02
 10
7.148999999999992
 20
3.028000000000002
 10
7.148999999999992
 20
1.921999999999989
 10
7.688999999999998
 20
1.921999999999989
  0
TEXT
  5
994DA9C2708C4F2E
330
C829B246627CC81C
100
AcDbEntity
  8
LABEL
100
AcDbText
 10
3.205523809523804
 20
2.570285714285708
 30
0.0
 40
0.025
  1
+
  7
ADESK1
 72
     4
 11
3.220999999999994
 21
2.580999999999993
 31
0.0
100
AcDbText
  0
LINE
  5
994DA9C2708C4F2F
330
C829B246627CC81C
100
AcDbEntity
  8
LABEL
100
AcDbLine
 10
3.103999999999997
 20
2.614999999999992
 30
0.0
 11
3.103999999999997
 21
2.577999999999991
 31
0.0
  0
LINE
  5
994DA9C2708C4F30
330
C829B246627CC81C
100
AcDbEntity
  8
LABEL
100
AcDbLine
 10
3.198999999999996
 20
2.614999999999992
 30
0.0
 11
3.198999999999996
 21
2.551999999999993
 31
0.0
  0
LINE
  5
994DA9C2708C4F31
330
C829B246627CC81C
100
AcDbEntity
  8
LABEL
100
AcDbLine
 10
3.291999999999992
 20
2.614999999999992
 30
0.0
 11
3.291999999999992
 21
2.534999999999992
 31
0.0
  0
TEXT
  5
994DA9C2708C4F32
330
C829B246627CC81C
100
AcDbEntity
  8
LABEL
100
AcDbText
 10
2.924785714285708
 20
2.577499999999992
 30
0.0
 40
0.075
  1
7
  7
ADESK1
 72
     4
 11
2.960499999999994
 21
2.614999999999992
 31
0.0
100
AcDbText
  0
LINE
  5
994DA9C2708C4F34
330
C829B246627CC81C
100
AcDbEntity
  8
LABEL
100
AcDbLine
 10
3.291999999999992
 20
2.014999999999993
 30
0.0
 11
3.291999999999992
 21
2.104999999999992
 31
0.0
  0
LINE
  5
994DA9C2708C4F35
330
C829B246627CC81C
100
AcDbEntity
  8
LABEL
100
AcDbLine
 10
3.198999999999996
 20
2.014999999999993
 30
0.0
 11
3.198999999999996
 21
2.088999999999992
 31
0.0
  0
TEXT
  5
994DA9C2708C4F36
330
C829B246627CC81C
100
AcDbEntity
  8
LABEL
100
AcDbText
 10
2.922999999999994
 20
1.977499999999992
 30
0.0
 40
0.075
  1
C
  7
ADESK1
 72
     4
 11
2.960499999999994
 21
2.014999999999993
 31
0.0
100
AcDbText
  0
LINE
  5
994DA9C2708C4F37
330
C829B246627CC81C
100
AcDbEntity
  8
LABEL
100
AcDbLine
 10
3.103999999999997
 20
2.014999999999993
 30
0.0
 11
3.103999999999997
 21
2.062999999999991
 31
0.0
  0
LWPOLYLINE
  5
994DA9C2708C4F38
330
C829B246627CC81C
100
AcDbEntity
  8
LABEL
100
AcDbPolyline
 90
        3
 70
     0
 43
0.02
 10
3.378999999999996
 20
1.921999999999993
 10
3.378999999999996
 20
1.921999999999993
 10
3.378999999999996
 20
1.655000000000006
  0
LINE
  5
994DA9C2708C4F3D
330
C829B246627CC81C
100
AcDbEntity
  8
LABEL
100
AcDbLine
 10
3.22899999999999
 20
1.879999999999993
 30
0.0
 11
3.22899999999999
 21
1.749999999999992
 31
0.0
  0
LINE
  5
994DA9C2708C4F3E
330
C829B246627CC81C
100
AcDbEntity
  8
LABEL
100
AcDbLine
 10
3.128999999999988
 20
1.814999999999992
 30
0.0
 11
3.22899999999999
 21
1.749999999999992
 31
0.0
  0
LINE
  5
994DA9C2708C4F3F
330
C829B246627CC81C
100
AcDbEntity
  8
LABEL
100
AcDbLine
 10
3.194040554970873
 20
1.614999999999992
 30
0.0
 11
3.194040554970873
 21
1.771732956723536
 31
0.0
  0
LINE
  5
994DA9C2708C4F40
330
C829B246627CC81C
100
AcDbEntity
  8
LABEL
100
AcDbLine
 10
3.069999999999991
 20
1.614999999999992
 30
0.0
 11
3.194040554970873
 21
1.614999999999992
 31
0.0
  0
TEXT
  5
994DA9C2708C4F41
330
C829B246627CC81C
100
AcDbEntity
  8
LABEL
100
AcDbText
 10
2.922499999999991
 20
1.577499999999992
 30
0.0
 40
0.075
  1
C
  7
ADESK1
 72
     4
 11
2.959999999999991
 21
1.614999999999992
 31
0.0
100
AcDbText
  0
LINE
  5
994DA9C2708C4F42
330
C829B246627CC81C
100
AcDbEntity
  8
LABEL
100
AcDbLine
 10
3.291999999999992
 20
2.014999999999993
 30
0.0
 11
3.246999999999991
 21
2.014999999999993
 31
0.0
  0
LINE
  5
994DA9C2708C4F43
330
C829B246627CC81C
100
AcDbEntity
  8
LABEL
100
AcDbLine
 10
3.103999999999997
 20
2.014999999999993
 30
0.0
 11
3.058999999999995
 21
2.014999999999993
 31
0.0
  0
LINE
  5
994DA9C2708C4F44
330
C829B246627CC81C
100
AcDbEntity
  8
LABEL
100
AcDbLine
 10
3.198999999999996
 20
2.014999999999993
 30
0.0
 11
3.153999999999994
 21
2.014999999999993
 31
0.0
  0
LINE
  5
994DA9C2708C4F45
330
C829B246627CC81C
100
AcDbEntity
  8
LABEL
100
AcDbLine
 10
3.069999999999991
 20
1.814999999999992
 30
0.0
 11
3.128999999999988
 21
1.814999999999992
 31
0.0
  0
LINE
  5
994DA9C2708C4F46
330
C829B246627CC81C
100
AcDbEntity
  8
LABEL
100
AcDbLine
 10
3.128999999999988
 20
1.814999999999992
 30
0.0
 11
3.22899999999999
 21
1.879999999999993
 31
0.0
  0
LINE
  5
994DA9C2708C4F47
330
C829B246627CC81C
100
AcDbEntity
  8
LABEL
100
AcDbLine
 10
3.22899999999999
 20
1.814999999999992
 30
0.0
 11
3.313999999999991
 21
1.814999999999992
 31
0.0
  0
TEXT
  5
994DA9C2708C4F48
330
C829B246627CC81C
100
AcDbEntity
  8
LABEL
100
AcDbText
 10
3.069156496571538
 20
1.838940443282714
 30
0.0
 40
0.06
  1
+
  7
ADESK1
 72
     4
 11
3.106299353714396
 21
1.864654728996999
 31
0.0
100
AcDbText
  0
TEXT
  5
994DA9C2708C4F49
330
C829B246627CC81C
100
AcDbEntity
  8
LABEL
100
AcDbText
 10
2.929642857142848
 20
1.777499999999992
 30
0.0
 40
0.075
  1
1
  7
ADESK1
 72
     4
 11
2.959999999999991
 21
1.814999999999992
 31
0.0
100
AcDbText
  0
TEXT
  5
994DA9C2708C4F4A
330
C829B246627CC81C
100
AcDbEntity
  8
LABEL
100
AcDbText
 10
5.142357142857131
 20
1.520499999999993
 30
0.0
 40
0.075
  1
COM1
  7
ADESK1
 72
     4
 11
5.286999999999988
 21
1.557999999999994
 31
0.0
100
AcDbText
  0
LINE
  5
994DA9C2708C4F4B
330
C829B246627CC81C
100
AcDbEntity
  8
LABEL
100
AcDbLine
 10
3.198999999999996
 20
2.214999999999992
 30
0.0
 11
3.198999999999996
 21
2.151999999999993
 31
0.0
  0
TEXT
  5
994DA9C2708C4F4C
330
C829B246627CC81C
100
AcDbEntity
  8
LABEL
100
AcDbText
 10
3.205523809523804
 20
2.170285714285707
 30
0.0
 40
0.025
  1
+
  7
ADESK1
 72
     4
 11
3.220999999999994
 21
2.180999999999993
 31
0.0
100
AcDbText
  0
LINE
  5
994DA9C2708C4F4D
330
C829B246627CC81C
100
AcDbEntity
  8
LABEL
100
AcDbLine
 10
3.291999999999992
 20
2.214999999999992
 30
0.0
 11
3.246999999999991
 21
2.214999999999992
 31
0.0
  0
LINE
  5
994DA9C2708C4F4E
330
C829B246627CC81C
100
AcDbEntity
  8
LABEL
100
AcDbLine
 10
3.103999999999997
 20
2.214999999999992
 30
0.0
 11
3.103999999999997
 21
2.177999999999991
 31
0.0
  0
LINE
  5
994DA9C2708C4F4F
330
C829B246627CC81C
100
AcDbEntity
  8
LABEL
100
AcDbLine
 10
3.103999999999997
 20
2.177999999999991
 30
0.0
 11
3.069999999999991
 21
2.166999999999986
 31
0.0
  0
LINE
  5
994DA9C2708C4F50
330
C829B246627CC81C
100
AcDbEntity
  8
LABEL
100
AcDbLine
 10
3.069999999999991
 20
2.166999999999986
 30
0.0
 11
3.119999999999988
 21
2.151499999999987
 31
0.0
  0
LINE
  5
994DA9C2708C4F51
330
C829B246627CC81C
100
AcDbEntity
  8
LABEL
100
AcDbLine
 10
3.103999999999997
 20
2.214999999999992
 30
0.0
 11
3.058999999999995
 21
2.214999999999992
 31
0.0
  0
TEXT
  5
994DA9C2708C4F52
330
C829B246627CC81C
100
AcDbEntity
  8
LABEL
100
AcDbText
 10
2.924785714285708
 20
2.177499999999992
 30
0.0
 40
0.075
  1
8
  7
ADESK1
 72
     4
 11
2.960499999999994
 21
2.214999999999992
 31
0.0
100
AcDbText
  0
LINE
  5
994DA9C2708C4F53
330
C829B246627CC81C
100
AcDbEntity
  8
LABEL
100
AcDbLine
 10
3.172749999999991
 20
2.151999999999993
 30
0.0
 11
3.225249999999993
 21
2.151999999999993
 31
0.0
  0
LINE
  5
994DA9C2708C4F54
330
C829B246627CC81C
100
AcDbEntity
  8
LABEL
100
AcDbLine
 10
3.198999999999996
 20
2.214999999999992
 30
0.0
 11
3.153999999999994
 21
2.214999999999992
 31
0.0
  0
LINE
  5
994DA9C2708C4F55
330
C829B246627CC81C
100
AcDbEntity
  8
LABEL
100
AcDbLine
 10
3.265749999999995
 20
2.134999999999992
 30
0.0
 11
3.318249999999997
 21
2.134999999999992
 31
0.0
  0
LINE
  5
994DA9C2708C4F56
330
C829B246627CC81C
100
AcDbEntity
  8
LABEL
100
AcDbLine
 10
3.265749999999995
 20
2.104999999999992
 30
0.0
 11
3.318249999999997
 21
2.104999999999992
 31
0.0
  0
LINE
  5
994DA9C2708C4F57
330
C829B246627CC81C
100
AcDbEntity
  8
LABEL
100
AcDbLine
 10
3.069999999999991
 20
2.135999999999988
 30
0.0
 11
3.119999999999988
 21
2.120499999999988
 31
0.0
  0
LINE
  5
994DA9C2708C4F58
330
C829B246627CC81C
100
AcDbEntity
  8
LABEL
100
AcDbLine
 10
3.119999999999988
 20
2.120499999999988
 30
0.0
 11
3.069999999999991
 21
2.104999999999989
 31
0.0
  0
LINE
  5
994DA9C2708C4F59
330
C829B246627CC81C
100
AcDbEntity
  8
LABEL
100
AcDbLine
 10
3.069999999999991
 20
2.104999999999989
 30
0.0
 11
3.119999999999988
 21
2.089499999999989
 31
0.0
  0
LINE
  5
994DA9C2708C4F5A
330
C829B246627CC81C
100
AcDbEntity
  8
LABEL
100
AcDbLine
 10
3.119999999999988
 20
2.089499999999989
 30
0.0
 11
3.069999999999991
 21
2.07399999999999
 31
0.0
  0
LINE
  5
994DA9C2708C4F5B
330
C829B246627CC81C
100
AcDbEntity
  8
LABEL
100
AcDbLine
 10
3.069999999999991
 20
2.07399999999999
 30
0.0
 11
3.103999999999997
 21
2.062999999999991
 31
0.0
  0
LINE
  5
994DA9C2708C4F5C
330
C829B246627CC81C
100
AcDbEntity
  8
LABEL
100
AcDbLine
 10
3.172749999999991
 20
2.088999999999992
 30
0.0
 11
3.225249999999993
 21
2.088999999999992
 31
0.0
  0
LINE
  5
994DA9C2708C4F5D
330
C829B246627CC81C
100
AcDbEntity
  8
LABEL
100
AcDbLine
 10
3.291999999999992
 20
2.214999999999992
 30
0.0
 11
3.291999999999992
 21
2.134999999999992
 31
0.0
  0
LINE
  5
994DA9C2708C4F5E
330
C829B246627CC81C
100
AcDbEntity
  8
LABEL
100
AcDbLine
 10
3.172749999999991
 20
2.151999999999993
 30
0.0
 11
3.172749999999991
 21
2.088999999999992
 31
0.0
  0
LINE
  5
994DA9C2708C4F5F
330
C829B246627CC81C
100
AcDbEntity
  8
LABEL
100
AcDbLine
 10
3.119999999999988
 20
2.151499999999987
 30
0.0
 11
3.069999999999991
 21
2.135999999999988
 31
0.0
  0
LINE
  5
994DA9C2708C4F60
330
C829B246627CC81C
100
AcDbEntity
  8
LABEL
100
AcDbLine
 10
3.225249999999993
 20
2.151999999999993
 30
0.0
 11
3.225249999999993
 21
2.088999999999992
 31
0.0
  0
LINE
  5
994DA9C2708C4F61
330
C829B246627CC81C
100
AcDbEntity
  8
LABEL
100
AcDbLine
 10
3.225249999999993
 20
2.551999999999993
 30
0.0
 11
3.225249999999993
 21
2.488999999999993
 31
0.0
  0
LINE
  5
994DA9C2708C4F62
330
C829B246627CC81C
100
AcDbEntity
  8
LABEL
100
AcDbLine
 10
3.265749999999995
 20
2.504999999999993
 30
0.0
 11
3.318249999999997
 21
2.504999999999993
 31
0.0
  0
LINE
  5
994DA9C2708C4F63
330
C829B246627CC81C
100
AcDbEntity
  8
LABEL
100
AcDbLine
 10
3.265749999999995
 20
2.534999999999992
 30
0.0
 11
3.318249999999997
 21
2.534999999999992
 31
0.0
  0
LINE
  5
994DA9C2708C4F64
330
C829B246627CC81C
100
AcDbEntity
  8
LABEL
100
AcDbLine
 10
3.291999999999992
 20
2.414999999999993
 30
0.0
 11
3.246999999999991
 21
2.414999999999993
 31
0.0
  0
LINE
  5
994DA9C2708C4F65
330
C829B246627CC81C
100
AcDbEntity
  8
LABEL
100
AcDbLine
 10
3.198999999999996
 20
2.414999999999993
 30
0.0
 11
3.198999999999996
 21
2.488999999999993
 31
0.0
  0
LINE
  5
994DA9C2708C4F66
330
C829B246627CC81C
100
AcDbEntity
  8
LABEL
100
AcDbLine
 10
3.291999999999992
 20
2.414999999999993
 30
0.0
 11
3.291999999999992
 21
2.504999999999993
 31
0.0
  0
LINE
  5
994DA9C2708C4F67
330
C829B246627CC81C
100
AcDbEntity
  8
LABEL
100
AcDbLine
 10
3.069999999999991
 20
2.47399999999999
 30
0.0
 11
3.103999999999997
 21
2.462999999999991
 31
0.0
  0
LINE
  5
994DA9C2708C4F68
330
C829B246627CC81C
100
AcDbEntity
  8
LABEL
100
AcDbLine
 10
3.119999999999988
 20
2.48949999999999
 30
0.0
 11
3.069999999999991
 21
2.47399999999999
 31
0.0
  0
LINE
  5
994DA9C2708C4F69
330
C829B246627CC81C
100
AcDbEntity
  8
LABEL
100
AcDbLine
 10
3.069999999999991
 20
2.504999999999989
 30
0.0
 11
3.119999999999988
 21
2.48949999999999
 31
0.0
  0
LINE
  5
994DA9C2708C4F6A
330
C829B246627CC81C
100
AcDbEntity
  8
LABEL
100
AcDbLine
 10
3.119999999999988
 20
2.520499999999989
 30
0.0
 11
3.069999999999991
 21
2.504999999999989
 31
0.0
  0
LINE
  5
994DA9C2708C4F6B
330
C829B246627CC81C
100
AcDbEntity
  8
LABEL
100
AcDbLine
 10
3.069999999999991
 20
2.535999999999988
 30
0.0
 11
3.119999999999988
 21
2.520499999999989
 31
0.0
  0
LINE
  5
994DA9C2708C4F6C
330
C829B246627CC81C
100
AcDbEntity
  8
LABEL
100
AcDbLine
 10
3.119999999999988
 20
2.551499999999987
 30
0.0
 11
3.069999999999991
 21
2.535999999999988
 31
0.0
  0
LINE
  5
994DA9C2708C4F6D
330
C829B246627CC81C
100
AcDbEntity
  8
LABEL
100
AcDbLine
 10
3.069999999999991
 20
2.566999999999987
 30
0.0
 11
3.119999999999988
 21
2.551499999999987
 31
0.0
  0
LINE
  5
994DA9C2708C4F6E
330
C829B246627CC81C
100
AcDbEntity
  8
LABEL
100
AcDbLine
 10
3.103999999999997
 20
2.577999999999991
 30
0.0
 11
3.069999999999991
 21
2.566999999999987
 31
0.0
  0
LINE
  5
994DA9C2708C4F6F
330
C829B246627CC81C
100
AcDbEntity
  8
LABEL
100
AcDbLine
 10
3.172749999999991
 20
2.551999999999993
 30
0.0
 11
3.172749999999991
 21
2.488999999999993
 31
0.0
  0
LINE
  5
994DA9C2708C4F70
330
C829B246627CC81C
100
AcDbEntity
  8
LABEL
100
AcDbLine
 10
3.103999999999997
 20
2.414999999999993
 30
0.0
 11
3.058999999999995
 21
2.414999999999993
 31
0.0
  0
LINE
  5
994DA9C2708C4F71
330
C829B246627CC81C
100
AcDbEntity
  8
LABEL
100
AcDbLine
 10
3.103999999999997
 20
2.414999999999993
 30
0.0
 11
3.103999999999997
 21
2.462999999999991
 31
0.0
  0
TEXT
  5
994DA9C2708C4F72
330
C829B246627CC81C
100
AcDbEntity
  8
LABEL
100
AcDbText
 10
2.922999999999994
 20
2.377499999999993
 30
0.0
 40
0.075
  1
C
  7
ADESK1
 72
     4
 11
2.960499999999994
 21
2.414999999999993
 31
0.0
100
AcDbText
  0
LINE
  5
994DA9C2708C4F73
330
C829B246627CC81C
100
AcDbEntity
  8
LABEL
100
AcDbLine
 10
3.172749999999991
 20
2.488999999999993
 30
0.0
 11
3.225249999999993
 21
2.488999999999993
 31
0.0
  0
LINE
  5
994DA9C2708C4F74
330
C829B246627CC81C
100
AcDbEntity
  8
LABEL
100
AcDbLine
 10
3.172749999999991
 20
2.551999999999993
 30
0.0
 11
3.225249999999993
 21
2.551999999999993
 31
0.0
  0
LINE
  5
994DA9C2708C4F75
330
C829B246627CC81C
100
AcDbEntity
  8
LABEL
100
AcDbLine
 10
3.198999999999996
 20
2.414999999999993
 30
0.0
 11
3.153999999999994
 21
2.414999999999993
 31
0.0
  0
LINE
  5
994DA9C2708C4F76
330
C829B246627CC81C
100
AcDbEntity
  8
LABEL
100
AcDbLine
 10
7.328999999999998
 20
2.015000000000001
 30
0.0
 11
7.328999999999998
 21
2.078
 31
0.0
  0
LINE
  5
994DA9C2708C4F77
330
C829B246627CC81C
100
AcDbEntity
  8
LABEL
100
AcDbLine
 10
7.235999999999995
 20
2.015000000000001
 30
0.0
 11
7.235999999999995
 21
2.095000000000001
 31
0.0
  0
LINE
  5
994DA9C2708C4F78
330
C829B246627CC81C
100
AcDbEntity
  8
LABEL
100
AcDbLine
 10
7.423999999999997
 20
2.015000000000001
 30
0.0
 11
7.423999999999997
 21
2.052000000000002
 31
0.0
  0
TEXT
  5
994DA9C2708C4F79
330
C829B246627CC81C
100
AcDbEntity
  8
LABEL
100
AcDbText
 10
7.322476190476184
 20
2.059714285714286
 30
0.0
 40
0.025
  1
+
 50
180.0
  7
ADESK1
 72
     4
 11
7.306999999999993
 21
2.049
 31
0.0
100
AcDbText
  0
TEXT
  5
994DA9C2708C4F7A
330
C829B246627CC81C
100
AcDbEntity
  8
LABEL
100
AcDbText
 10
7.533571428571429
 20
1.982500000000002
 30
0.0
 40
0.075
  1
9
  7
ADESK1
 72
     4
 11
7.5675
 21
2.020000000000002
 31
0.0
100
AcDbText
  0
LINE
  5
994DA9C2708C4F7B
330
C829B246627CC81C
100
AcDbEntity
  8
LABEL
100
AcDbLine
 10
7.423999999999997
 20
2.015000000000001
 30
0.0
 11
7.468999999999999
 21
2.015000000000001
 31
0.0
  0
LINE
  5
994DA9C2708C4F7C
330
C829B246627CC81C
100
AcDbEntity
  8
LABEL
100
AcDbLine
 10
7.457999999999989
 20
1.814999999999999
 30
0.0
 11
7.333959445029099
 21
1.814999999999999
 31
0.0
  0
LINE
  5
994DA9C2708C4F7D
330
C829B246627CC81C
100
AcDbEntity
  8
LABEL
100
AcDbLine
 10
7.457999999999989
 20
1.614999999999999
 30
0.0
 11
7.398999999999992
 21
1.614999999999999
 31
0.0
  0
TEXT
  5
994DA9C2708C4F7E
330
C829B246627CC81C
100
AcDbEntity
  8
LABEL
100
AcDbText
 10
7.458843503428434
 20
1.591059556717278
 30
0.0
 40
0.06
  1
+
 50
180.0
  7
ADESK1
 72
     4
 11
7.421700646285577
 21
1.565345271002992
 31
0.0
100
AcDbText
  0
LINE
  5
994DA9C2708C4F7F
330
C829B246627CC81C
100
AcDbEntity
  8
LABEL
100
AcDbLine
 10
7.333959445029099
 20
1.814999999999999
 30
0.0
 11
7.333959445029099
 21
1.658267043276456
 31
0.0
  0
LWPOLYLINE
  5
994DA9C2708C4F80
330
C829B246627CC81C
100
AcDbEntity
  8
LABEL
100
AcDbPolyline
 90
        3
 70
     0
 43
0.02
 10
7.148999999999992
 20
1.921999999999989
 10
7.148999999999992
 20
1.921999999999989
 10
7.148999999999992
 20
1.655000000000002
  0
LINE
  5
994DA9C2708C4F85
330
C829B246627CC81C
100
AcDbEntity
  8
LABEL
100
AcDbLine
 10
7.298999999999997
 20
1.549999999999999
 30
0.0
 11
7.298999999999997
 21
1.68
 31
0.0
  0
LINE
  5
994DA9C2708C4F86
330
C829B246627CC81C
100
AcDbEntity
  8
LABEL
100
AcDbLine
 10
7.398999999999992
 20
1.614999999999999
 30
0.0
 11
7.298999999999997
 21
1.549999999999999
 31
0.0
  0
LINE
  5
994DA9C2708C4F87
330
C829B246627CC81C
100
AcDbEntity
  8
LABEL
100
AcDbLine
 10
7.398999999999992
 20
1.614999999999999
 30
0.0
 11
7.298999999999997
 21
1.68
 31
0.0
  0
LINE
  5
994DA9C2708C4F88
330
C829B246627CC81C
100
AcDbEntity
  8
LABEL
100
AcDbLine
 10
7.298999999999997
 20
1.614999999999999
 30
0.0
 11
7.213999999999989
 21
1.614999999999999
 31
0.0
  0
LINE
  5
994DA9C2708C4F89
330
C829B246627CC81C
100
AcDbEntity
  8
LABEL
100
AcDbLine
 10
7.328999999999998
 20
2.015000000000001
 30
0.0
 11
7.374
 21
2.015000000000001
 31
0.0
  0
LINE
  5
994DA9C2708C4F8A
330
C829B246627CC81C
100
AcDbEntity
  8
LABEL
100
AcDbLine
 10
7.235999999999995
 20
2.015000000000001
 30
0.0
 11
7.280999999999997
 21
2.015000000000001
 31
0.0
  0
TEXT
  5
994DA9C2708C4F8B
330
C829B246627CC81C
100
AcDbEntity
  8
LABEL
100
AcDbText
 10
7.530499999999989
 20
1.578499999999997
 30
0.0
 40
0.075
  1
6
  7
ADESK1
 72
     4
 11
7.567999999999988
 21
1.615999999999997
 31
0.0
100
AcDbText
  0
TEXT
  5
994DA9C2708C4F8C
330
C829B246627CC81C
100
AcDbEntity
  8
LABEL
100
AcDbText
 10
7.530499999999989
 20
1.778499999999997
 30
0.0
 40
0.075
  1
C
  7
ADESK1
 72
     4
 11
7.567999999999988
 21
1.815999999999997
 31
0.0
100
AcDbText
  0
LINE
  5
994DA9C2708C4F8D
330
C829B246627CC81C
100
AcDbEntity
  8
LABEL
100
AcDbLine
 10
7.458000000000003
 20
2.494000000000005
 30
0.0
 11
7.408000000000006
 21
2.509500000000004
 31
0.0
  0
LINE
  5
994DA9C2708C4F8E
330
C829B246627CC81C
100
AcDbEntity
  8
LABEL
100
AcDbLine
 10
7.408000000000006
 20
2.509500000000004
 30
0.0
 11
7.458000000000003
 21
2.525000000000004
 31
0.0
  0
LINE
  5
994DA9C2708C4F8F
330
C829B246627CC81C
100
AcDbEntity
  8
LABEL
100
AcDbLine
 10
7.458000000000003
 20
2.525000000000004
 30
0.0
 11
7.408000000000006
 21
2.540500000000003
 31
0.0
  0
LINE
  5
994DA9C2708C4F90
330
C829B246627CC81C
100
AcDbEntity
  8
LABEL
100
AcDbLine
 10
7.408000000000006
 20
2.540500000000003
 30
0.0
 11
7.458000000000003
 21
2.556000000000003
 31
0.0
  0
LINE
  5
994DA9C2708C4F91
330
C829B246627CC81C
100
AcDbEntity
  8
LABEL
100
AcDbLine
 10
7.458000000000003
 20
2.556000000000003
 30
0.0
 11
7.423999999999997
 21
2.567000000000002
 31
0.0
  0
LINE
  5
994DA9C2708C4F92
330
C829B246627CC81C
100
AcDbEntity
  8
LABEL
100
AcDbLine
 10
7.423999999999997
 20
2.452000000000002
 30
0.0
 11
7.458000000000003
 21
2.463000000000006
 31
0.0
  0
LINE
  5
994DA9C2708C4F93
330
C829B246627CC81C
100
AcDbEntity
  8
LABEL
100
AcDbLine
 10
7.458000000000003
 20
2.463000000000006
 30
0.0
 11
7.408000000000006
 21
2.478500000000006
 31
0.0
  0
LINE
  5
994DA9C2708C4F94
330
C829B246627CC81C
100
AcDbEntity
  8
LABEL
100
AcDbLine
 10
7.423999999999997
 20
2.415000000000001
 30
0.0
 11
7.468999999999999
 21
2.415000000000001
 31
0.0
  0
LINE
  5
994DA9C2708C4F95
330
C829B246627CC81C
100
AcDbEntity
  8
LABEL
100
AcDbLine
 10
7.408000000000006
 20
2.478500000000006
 30
0.0
 11
7.458000000000003
 21
2.494000000000005
 31
0.0
  0
LINE
  5
994DA9C2708C4F96
330
C829B246627CC81C
100
AcDbEntity
  8
LABEL
100
AcDbLine
 10
7.458000000000003
 20
2.125000000000004
 30
0.0
 11
7.408000000000006
 21
2.140500000000004
 31
0.0
  0
LINE
  5
994DA9C2708C4F97
330
C829B246627CC81C
100
AcDbEntity
  8
LABEL
100
AcDbLine
 10
7.458000000000003
 20
2.156000000000003
 30
0.0
 11
7.423999999999997
 21
2.167000000000002
 31
0.0
  0
LINE
  5
994DA9C2708C4F98
330
C829B246627CC81C
100
AcDbEntity
  8
LABEL
100
AcDbLine
 10
7.408000000000006
 20
2.140500000000004
 30
0.0
 11
7.458000000000003
 21
2.156000000000003
 31
0.0
  0
LINE
  5
994DA9C2708C4F99
330
C829B246627CC81C
100
AcDbEntity
  8
LABEL
100
AcDbLine
 10
7.423999999999997
 20
2.215000000000001
 30
0.0
 11
7.468999999999999
 21
2.215000000000001
 31
0.0
  0
LINE
  5
994DA9C2708C4F9A
330
C829B246627CC81C
100
AcDbEntity
  8
LABEL
100
AcDbLine
 10
7.423999999999997
 20
2.052000000000002
 30
0.0
 11
7.458000000000003
 21
2.063000000000007
 31
0.0
  0
LINE
  5
994DA9C2708C4F9B
330
C829B246627CC81C
100
AcDbEntity
  8
LABEL
100
AcDbLine
 10
7.458000000000003
 20
2.094000000000006
 30
0.0
 11
7.408000000000006
 21
2.109500000000005
 31
0.0
  0
LINE
  5
994DA9C2708C4F9C
330
C829B246627CC81C
100
AcDbEntity
  8
LABEL
100
AcDbLine
 10
7.408000000000006
 20
2.078500000000006
 30
0.0
 11
7.458000000000003
 21
2.094000000000006
 31
0.0
  0
LINE
  5
994DA9C2708C4F9D
330
C829B246627CC81C
100
AcDbEntity
  8
LABEL
100
AcDbLine
 10
7.458000000000003
 20
2.063000000000007
 30
0.0
 11
7.408000000000006
 21
2.078500000000006
 31
0.0
  0
LINE
  5
994DA9C2708C4F9E
330
C829B246627CC81C
100
AcDbEntity
  8
LABEL
100
AcDbLine
 10
7.408000000000006
 20
2.109500000000005
 30
0.0
 11
7.458000000000003
 21
2.125000000000004
 31
0.0
  0
LINE
  5
994DA9C2708C4F9F
330
C829B246627CC81C
100
AcDbEntity
  8
LABEL
100
AcDbLine
 10
7.235999999999995
 20
2.215000000000001
 30
0.0
 11
7.235999999999995
 21
2.125000000000001
 31
0.0
  0
LINE
  5
994DA9C2708C4FA0
330
C829B246627CC81C
100
AcDbEntity
  8
LABEL
100
AcDbLine
 10
7.262249999999999
 20
2.125000000000001
 30
0.0
 11
7.20974999999999
 21
2.125000000000001
 31
0.0
  0
LINE
  5
994DA9C2708C4FA1
330
C829B246627CC81C
100
AcDbEntity
  8
LABEL
100
AcDbLine
 10
7.355250000000003
 20
2.141000000000001
 30
0.0
 11
7.302749999999994
 21
2.141000000000001
 31
0.0
  0
LINE
  5
994DA9C2708C4FA2
330
C829B246627CC81C
100
AcDbEntity
  8
LABEL
100
AcDbLine
 10
7.328999999999998
 20
2.215000000000001
 30
0.0
 11
7.374
 21
2.215000000000001
 31
0.0
  0
LINE
  5
994DA9C2708C4FA3
330
C829B246627CC81C
100
AcDbEntity
  8
LABEL
100
AcDbLine
 10
7.423999999999997
 20
2.215000000000001
 30
0.0
 11
7.423999999999997
 21
2.167000000000002
 31
0.0
  0
LINE
  5
994DA9C2708C4FA4
330
C829B246627CC81C
100
AcDbEntity
  8
LABEL
100
AcDbLine
 10
7.328999999999998
 20
2.215000000000001
 30
0.0
 11
7.328999999999998
 21
2.141000000000001
 31
0.0
  0
LINE
  5
994DA9C2708C4FA5
330
C829B246627CC81C
100
AcDbEntity
  8
LABEL
100
AcDbLine
 10
7.235999999999995
 20
2.215000000000001
 30
0.0
 11
7.280999999999997
 21
2.215000000000001
 31
0.0
  0
LINE
  5
994DA9C2708C4FA6
330
C829B246627CC81C
100
AcDbEntity
  8
LABEL
100
AcDbLine
 10
7.355250000000003
 20
2.078
 30
0.0
 11
7.302749999999994
 21
2.078
 31
0.0
  0
LINE
  5
994DA9C2708C4FA7
330
C829B246627CC81C
100
AcDbEntity
  8
LABEL
100
AcDbLine
 10
7.262249999999999
 20
2.095000000000001
 30
0.0
 11
7.20974999999999
 21
2.095000000000001
 31
0.0
  0
LINE
  5
994DA9C2708C4FA8
330
C829B246627CC81C
100
AcDbEntity
  8
LABEL
100
AcDbLine
 10
7.355250000000003
 20
2.078
 30
0.0
 11
7.355250000000003
 21
2.141000000000001
 31
0.0
  0
LINE
  5
994DA9C2708C4FA9
330
C829B246627CC81C
100
AcDbEntity
  8
LABEL
100
AcDbLine
 10
7.302749999999994
 20
2.078
 30
0.0
 11
7.302749999999994
 21
2.141000000000001
 31
0.0
  0
LINE
  5
994DA9C2708C4FAA
330
C829B246627CC81C
100
AcDbEntity
  8
LABEL
100
AcDbLine
 10
7.262249999999999
 20
2.495000000000001
 30
0.0
 11
7.20974999999999
 21
2.495000000000001
 31
0.0
  0
LINE
  5
994DA9C2708C4FAB
330
C829B246627CC81C
100
AcDbEntity
  8
LABEL
100
AcDbLine
 10
7.355250000000003
 20
2.541
 30
0.0
 11
7.302749999999994
 21
2.541
 31
0.0
  0
LINE
  5
994DA9C2708C4FAC
330
C829B246627CC81C
100
AcDbEntity
  8
LABEL
100
AcDbLine
 10
7.262249999999999
 20
2.525
 30
0.0
 11
7.20974999999999
 21
2.525
 31
0.0
  0
LINE
  5
994DA9C2708C4FAD
330
C829B246627CC81C
100
AcDbEntity
  8
LABEL
100
AcDbLine
 10
7.423999999999997
 20
2.415000000000001
 30
0.0
 11
7.423999999999997
 21
2.452000000000002
 31
0.0
  0
TEXT
  5
994DA9C2708C4FAE
330
C829B246627CC81C
100
AcDbEntity
  8
LABEL
100
AcDbText
 10
7.322476190476184
 20
2.459714285714285
 30
0.0
 40
0.025
  1
+
 50
180.0
  7
ADESK1
 72
     4
 11
7.306999999999993
 21
2.449
 31
0.0
100
AcDbText
  0
LINE
  5
994DA9C2708C4FAF
330
C829B246627CC81C
100
AcDbEntity
  8
LABEL
100
AcDbLine
 10
7.328999999999998
 20
2.415000000000001
 30
0.0
 11
7.328999999999998
 21
2.478
 31
0.0
  0
LINE
  5
994DA9C2708C4FB0
330
C829B246627CC81C
100
AcDbEntity
  8
LABEL
100
AcDbLine
 10
7.355250000000003
 20
2.478
 30
0.0
 11
7.302749999999994
 21
2.478
 31
0.0
  0
LINE
  5
994DA9C2708C4FB1
330
C829B246627CC81C
100
AcDbEntity
  8
LABEL
100
AcDbLine
 10
7.328999999999998
 20
2.415000000000001
 30
0.0
 11
7.374
 21
2.415000000000001
 31
0.0
  0
LINE
  5
994DA9C2708C4FB2
330
C829B246627CC81C
100
AcDbEntity
  8
LABEL
100
AcDbLine
 10
7.235999999999995
 20
2.415000000000001
 30
0.0
 11
7.280999999999997
 21
2.415000000000001
 31
0.0
  0
LINE
  5
994DA9C2708C4FB3
330
C829B246627CC81C
100
AcDbEntity
  8
LABEL
100
AcDbLine
 10
7.355250000000003
 20
2.478
 30
0.0
 11
7.355250000000003
 21
2.541
 31
0.0
  0
LINE
  5
994DA9C2708C4FB4
330
C829B246627CC81C
100
AcDbEntity
  8
LABEL
100
AcDbLine
 10
7.302749999999994
 20
2.478
 30
0.0
 11
7.302749999999994
 21
2.541
 31
0.0
  0
LINE
  5
994DA9C2708C4FB5
330
C829B246627CC81C
100
AcDbEntity
  8
LABEL
100
AcDbLine
 10
7.235999999999995
 20
2.415000000000001
 30
0.0
 11
7.235999999999995
 21
2.495000000000001
 31
0.0
  0
TEXT
  5
994DA9C2708C4FB6
330
C829B246627CC81C
100
AcDbEntity
  8
LABEL
100
AcDbText
 10
7.530000000000001
 20
2.182500000000001
 30
0.0
 40
0.075
  1
C
  7
ADESK1
 72
     4
 11
7.5675
 21
2.220000000000001
 31
0.0
100
AcDbText
  0
TEXT
  5
994DA9C2708C4FB7
330
C829B246627CC81C
100
AcDbEntity
  8
LABEL
100
AcDbText
 10
7.490714285714286
 20
2.382500000000002
 30
0.0
 40
0.075
  1
10
  7
ADESK1
 72
     4
 11
7.5675
 21
2.420000000000003
 31
0.0
100
AcDbText
  0
TEXT
  5
994DA9C2708C4FB9
330
C829B246627CC81C
100
AcDbEntity
  8
LABEL
100
AcDbText
 10
4.574714285714287
 20
3.502857142857143
 30
0.0
 40
0.075
  1
UNIVERSAL I/O MODULE
  7
ADESK1
 72
     4
 11
5.264000000000001
 21
3.535
 31
0.0
100
AcDbText
  0
LINE
  5
994DA9C2708C4FBA
330
C829B246627CC81C
100
AcDbEntity
  8
LABEL
100
AcDbLine
 10
3.291999999999992
 20
2.814999999999992
 30
0.0
 11
3.291999999999992
 21
2.904999999999992
 31
0.0
  0
LINE
  5
994DA9C2708C4FBB
330
C829B246627CC81C
100
AcDbEntity
  8
LABEL
100
AcDbLine
 10
3.198999999999996
 20
2.814999999999992
 30
0.0
 11
3.198999999999996
 21
2.888999999999992
 31
0.0
  0
LINE
  5
994DA9C2708C4FBC
330
C829B246627CC81C
100
AcDbEntity
  8
LABEL
100
AcDbLine
 10
3.103999999999997
 20
2.814999999999992
 30
0.0
 11
3.103999999999997
 21
2.862999999999991
 31
0.0
  0
LINE
  5
994DA9C2708C4FBD
330
C829B246627CC81C
100
AcDbEntity
  8
LABEL
100
AcDbLine
 10
3.291999999999992
 20
2.814999999999992
 30
0.0
 11
3.246999999999991
 21
2.814999999999992
 31
0.0
  0
LINE
  5
994DA9C2708C4FBE
330
C829B246627CC81C
100
AcDbEntity
  8
LABEL
100
AcDbLine
 10
3.291999999999992
 20
2.614999999999992
 30
0.0
 11
3.246999999999991
 21
2.614999999999992
 31
0.0
  0
TEXT
  5
994DA9C2708C4FBF
330
C829B246627CC81C
100
AcDbEntity
  8
LABEL
100
AcDbText
 10
2.922999999999994
 20
2.777499999999992
 30
0.0
 40
0.075
  1
C
  7
ADESK1
 72
     4
 11
2.960499999999994
 21
2.814999999999992
 31
0.0
100
AcDbText
  0
LINE
  5
994DA9C2708C4FC0
330
C829B246627CC81C
100
AcDbEntity
  8
LABEL
100
AcDbLine
 10
3.103999999999997
 20
2.814999999999992
 30
0.0
 11
3.058999999999995
 21
2.814999999999992
 31
0.0
  0
LINE
  5
994DA9C2708C4FC1
330
C829B246627CC81C
100
AcDbEntity
  8
LABEL
100
AcDbLine
 10
3.103999999999997
 20
2.614999999999992
 30
0.0
 11
3.058999999999995
 21
2.614999999999992
 31
0.0
  0
LINE
  5
994DA9C2708C4FC2
330
C829B246627CC81C
100
AcDbEntity
  8
LABEL
100
AcDbLine
 10
3.198999999999996
 20
2.814999999999992
 30
0.0
 11
3.153999999999994
 21
2.814999999999992
 31
0.0
  0
LINE
  5
994DA9C2708C4FC3
330
C829B246627CC81C
100
AcDbEntity
  8
LABEL
100
AcDbLine
 10
3.198999999999996
 20
2.614999999999992
 30
0.0
 11
3.153999999999994
 21
2.614999999999992
 31
0.0
  0
LINE
  5
994DA9C2708C4FC4
330
C829B246627CC81C
100
AcDbEntity
  8
LABEL
100
AcDbLine
 10
3.291999999999992
 20
3.014999999999992
 30
0.0
 11
3.246999999999991
 21
3.014999999999992
 31
0.0
  0
LINE
  5
994DA9C2708C4FC5
330
C829B246627CC81C
100
AcDbEntity
  8
LABEL
100
AcDbLine
 10
3.291999999999992
 20
3.014999999999992
 30
0.0
 11
3.291999999999992
 21
2.934999999999991
 31
0.0
  0
LINE
  5
994DA9C2708C4FC6
330
C829B246627CC81C
100
AcDbEntity
  8
LABEL
100
AcDbLine
 10
3.265749999999995
 20
2.934999999999991
 30
0.0
 11
3.318249999999997
 21
2.934999999999991
 31
0.0
  0
LINE
  5
994DA9C2708C4FC7
330
C829B246627CC81C
100
AcDbEntity
  8
LABEL
100
AcDbLine
 10
3.265749999999995
 20
2.904999999999992
 30
0.0
 11
3.318249999999997
 21
2.904999999999992
 31
0.0
  0
TEXT
  5
994DA9C2708C4FC8
330
C829B246627CC81C
100
AcDbEntity
  8
LABEL
100
AcDbText
 10
3.205523809523804
 20
2.970285714285707
 30
0.0
 40
0.025
  1
+
  7
ADESK1
 72
     4
 11
3.220999999999994
 21
2.980999999999993
 31
0.0
100
AcDbText
  0
LINE
  5
994DA9C2708C4FC9
330
C829B246627CC81C
100
AcDbEntity
  8
LABEL
100
AcDbLine
 10
3.225249999999993
 20
2.951999999999993
 30
0.0
 11
3.225249999999993
 21
2.888999999999992
 31
0.0
  0
LINE
  5
994DA9C2708C4FCA
330
C829B246627CC81C
100
AcDbEntity
  8
LABEL
100
AcDbLine
 10
3.198999999999996
 20
3.014999999999992
 30
0.0
 11
3.198999999999996
 21
2.951999999999993
 31
0.0
  0
LINE
  5
994DA9C2708C4FCB
330
C829B246627CC81C
100
AcDbEntity
  8
LABEL
100
AcDbLine
 10
3.172749999999991
 20
2.951999999999993
 30
0.0
 11
3.172749999999991
 21
2.888999999999992
 31
0.0
  0
LINE
  5
994DA9C2708C4FCC
330
C829B246627CC81C
100
AcDbEntity
  8
LABEL
100
AcDbLine
 10
3.103999999999997
 20
3.014999999999992
 30
0.0
 11
3.103999999999997
 21
2.977999999999991
 31
0.0
  0
LINE
  5
994DA9C2708C4FCD
330
C829B246627CC81C
100
AcDbEntity
  8
LABEL
100
AcDbLine
 10
3.103999999999997
 20
2.977999999999991
 30
0.0
 11
3.069999999999991
 21
2.966999999999986
 31
0.0
  0
LINE
  5
994DA9C2708C4FCE
330
C829B246627CC81C
100
AcDbEntity
  8
LABEL
100
AcDbLine
 10
3.069999999999991
 20
2.966999999999986
 30
0.0
 11
3.119999999999988
 21
2.951499999999987
 31
0.0
  0
LINE
  5
994DA9C2708C4FCF
330
C829B246627CC81C
100
AcDbEntity
  8
LABEL
100
AcDbLine
 10
3.119999999999988
 20
2.951499999999987
 30
0.0
 11
3.069999999999991
 21
2.935999999999987
 31
0.0
  0
LINE
  5
994DA9C2708C4FD0
330
C829B246627CC81C
100
AcDbEntity
  8
LABEL
100
AcDbLine
 10
3.069999999999991
 20
2.935999999999987
 30
0.0
 11
3.119999999999988
 21
2.920499999999988
 31
0.0
  0
LINE
  5
994DA9C2708C4FD1
330
C829B246627CC81C
100
AcDbEntity
  8
LABEL
100
AcDbLine
 10
3.119999999999988
 20
2.920499999999988
 30
0.0
 11
3.069999999999991
 21
2.904999999999989
 31
0.0
  0
LINE
  5
994DA9C2708C4FD2
330
C829B246627CC81C
100
AcDbEntity
  8
LABEL
100
AcDbLine
 10
3.069999999999991
 20
2.904999999999989
 30
0.0
 11
3.119999999999988
 21
2.889499999999989
 31
0.0
  0
LINE
  5
994DA9C2708C4FD3
330
C829B246627CC81C
100
AcDbEntity
  8
LABEL
100
AcDbLine
 10
3.119999999999988
 20
2.889499999999989
 30
0.0
 11
3.069999999999991
 21
2.87399999999999
 31
0.0
  0
LINE
  5
994DA9C2708C4FD4
330
C829B246627CC81C
100
AcDbEntity
  8
LABEL
100
AcDbLine
 10
3.069999999999991
 20
2.87399999999999
 30
0.0
 11
3.103999999999997
 21
2.862999999999991
 31
0.0
  0
LINE
  5
994DA9C2708C4FD5
330
C829B246627CC81C
100
AcDbEntity
  8
LABEL
100
AcDbLine
 10
3.103999999999997
 20
3.014999999999992
 30
0.0
 11
3.058999999999995
 21
3.014999999999992
 31
0.0
  0
TEXT
  5
994DA9C2708C4FD6
330
C829B246627CC81C
100
AcDbEntity
  8
LABEL
100
AcDbText
 10
2.922999999999994
 20
2.977499999999992
 30
0.0
 40
0.075
  1
6
  7
ADESK1
 72
     4
 11
2.960499999999994
 21
3.014999999999992
 31
0.0
100
AcDbText
  0
LINE
  5
994DA9C2708C4FD7
330
C829B246627CC81C
100
AcDbEntity
  8
LABEL
100
AcDbLine
 10
3.172749999999991
 20
2.951999999999993
 30
0.0
 11
3.225249999999993
 21
2.951999999999993
 31
0.0
  0
LINE
  5
994DA9C2708C4FD8
330
C829B246627CC81C
100
AcDbEntity
  8
LABEL
100
AcDbLine
 10
3.172749999999991
 20
2.888999999999992
 30
0.0
 11
3.225249999999993
 21
2.888999999999992
 31
0.0
  0
LINE
  5
994DA9C2708C4FD9
330
C829B246627CC81C
100
AcDbEntity
  8
LABEL
100
AcDbLine
 10
3.198999999999996
 20
3.014999999999992
 30
0.0
 11
3.153999999999994
 21
3.014999999999992
 31
0.0
  0
LINE
  5
994DA9C2708C4FDA
330
C829B246627CC81C
100
AcDbEntity
  8
LABEL
100
AcDbLine
 10
3.10399999999999
 20
3.414999999999992
 30
0.0
 11
3.10399999999999
 21
3.377999999999991
 31
0.0
  0
LINE
  5
994DA9C2708C4FDB
330
C829B246627CC81C
100
AcDbEntity
  8
LABEL
100
AcDbLine
 10
3.198999999999989
 20
3.414999999999992
 30
0.0
 11
3.198999999999989
 21
3.351999999999993
 31
0.0
  0
LINE
  5
994DA9C2708C4FDC
330
C829B246627CC81C
100
AcDbEntity
  8
LABEL
100
AcDbLine
 10
3.291999999999992
 20
3.414999999999992
 30
0.0
 11
3.291999999999992
 21
3.334999999999992
 31
0.0
  0
TEXT
  5
994DA9C2708C4FDD
330
C829B246627CC81C
100
AcDbEntity
  8
LABEL
100
AcDbText
 10
2.924785714285701
 20
3.377499999999992
 30
0.0
 40
0.075
  1
5
  7
ADESK1
 72
     4
 11
2.960499999999987
 21
3.414999999999992
 31
0.0
100
AcDbText
  0
LINE
  5
994DA9C2708C4FDE
330
C829B246627CC81C
100
AcDbEntity
  8
LABEL
100
AcDbLine
 10
3.225249999999993
 20
3.351999999999993
 30
0.0
 11
3.225249999999993
 21
3.288999999999993
 31
0.0
  0
TEXT
  5
994DA9C2708C4FDF
330
C829B246627CC81C
100
AcDbEntity
  8
LABEL
100
AcDbText
 10
3.205523809523804
 20
3.370285714285707
 30
0.0
 40
0.025
  1
+
  7
ADESK1
 72
     4
 11
3.220999999999994
 21
3.380999999999993
 31
0.0
100
AcDbText
  0
LINE
  5
994DA9C2708C4FE0
330
C829B246627CC81C
100
AcDbEntity
  8
LABEL
100
AcDbLine
 10
3.265749999999988
 20
3.304999999999993
 30
0.0
 11
3.318249999999997
 21
3.304999999999993
 31
0.0
  0
LINE
  5
994DA9C2708C4FE1
330
C829B246627CC81C
100
AcDbEntity
  8
LABEL
100
AcDbLine
 10
3.265749999999988
 20
3.334999999999992
 30
0.0
 11
3.318249999999997
 21
3.334999999999992
 31
0.0
  0
LINE
  5
994DA9C2708C4FE2
330
C829B246627CC81C
100
AcDbEntity
  8
LABEL
100
AcDbLine
 10
3.291999999999992
 20
3.214999999999993
 30
0.0
 11
3.246999999999991
 21
3.214999999999993
 31
0.0
  0
LINE
  5
994DA9C2708C4FE3
330
C829B246627CC81C
100
AcDbEntity
  8
LABEL
100
AcDbLine
 10
3.198999999999989
 20
3.214999999999993
 30
0.0
 11
3.198999999999989
 21
3.288999999999993
 31
0.0
  0
LINE
  5
994DA9C2708C4FE4
330
C829B246627CC81C
100
AcDbEntity
  8
LABEL
100
AcDbLine
 10
3.291999999999992
 20
3.214999999999993
 30
0.0
 11
3.291999999999992
 21
3.304999999999993
 31
0.0
  0
LINE
  5
994DA9C2708C4FE5
330
C829B246627CC81C
100
AcDbEntity
  8
LABEL
100
AcDbLine
 10
3.069999999999984
 20
3.27399999999999
 30
0.0
 11
3.10399999999999
 21
3.262999999999991
 31
0.0
  0
LINE
  5
994DA9C2708C4FE6
330
C829B246627CC81C
100
AcDbEntity
  8
LABEL
100
AcDbLine
 10
3.119999999999981
 20
3.28949999999999
 30
0.0
 11
3.069999999999984
 21
3.27399999999999
 31
0.0
  0
LINE
  5
994DA9C2708C4FE7
330
C829B246627CC81C
100
AcDbEntity
  8
LABEL
100
AcDbLine
 10
3.069999999999984
 20
3.304999999999989
 30
0.0
 11
3.119999999999981
 21
3.28949999999999
 31
0.0
  0
LINE
  5
994DA9C2708C4FE8
330
C829B246627CC81C
100
AcDbEntity
  8
LABEL
100
AcDbLine
 10
3.119999999999981
 20
3.320499999999988
 30
0.0
 11
3.069999999999984
 21
3.304999999999989
 31
0.0
  0
LINE
  5
994DA9C2708C4FE9
330
C829B246627CC81C
100
AcDbEntity
  8
LABEL
100
AcDbLine
 10
3.069999999999984
 20
3.335999999999988
 30
0.0
 11
3.119999999999981
 21
3.320499999999988
 31
0.0
  0
LINE
  5
994DA9C2708C4FEA
330
C829B246627CC81C
100
AcDbEntity
  8
LABEL
100
AcDbLine
 10
3.119999999999981
 20
3.351499999999987
 30
0.0
 11
3.069999999999984
 21
3.335999999999988
 31
0.0
  0
LINE
  5
994DA9C2708C4FEB
330
C829B246627CC81C
100
AcDbEntity
  8
LABEL
100
AcDbLine
 10
3.069999999999984
 20
3.366999999999987
 30
0.0
 11
3.119999999999981
 21
3.351499999999987
 31
0.0
  0
LINE
  5
994DA9C2708C4FEC
330
C829B246627CC81C
100
AcDbEntity
  8
LABEL
100
AcDbLine
 10
3.10399999999999
 20
3.377999999999991
 30
0.0
 11
3.069999999999984
 21
3.366999999999987
 31
0.0
  0
LINE
  5
994DA9C2708C4FED
330
C829B246627CC81C
100
AcDbEntity
  8
LABEL
100
AcDbLine
 10
3.172749999999984
 20
3.351999999999993
 30
0.0
 11
3.172749999999984
 21
3.288999999999993
 31
0.0
  0
LINE
  5
994DA9C2708C4FEE
330
C829B246627CC81C
100
AcDbEntity
  8
LABEL
100
AcDbLine
 10
3.10399999999999
 20
3.214999999999993
 30
0.0
 11
3.058999999999988
 21
3.214999999999993
 31
0.0
  0
LINE
  5
994DA9C2708C4FEF
330
C829B246627CC81C
100
AcDbEntity
  8
LABEL
100
AcDbLine
 10
3.10399999999999
 20
3.214999999999993
 30
0.0
 11
3.10399999999999
 21
3.262999999999991
 31
0.0
  0
TEXT
  5
994DA9C2708C4FF0
330
C829B246627CC81C
100
AcDbEntity
  8
LABEL
100
AcDbText
 10
2.922999999999987
 20
3.177499999999993
 30
0.0
 40
0.075
  1
C
  7
ADESK1
 72
     4
 11
2.960499999999987
 21
3.214999999999993
 31
0.0
100
AcDbText
  0
LINE
  5
994DA9C2708C4FF1
330
C829B246627CC81C
100
AcDbEntity
  8
LABEL
100
AcDbLine
 10
3.172749999999984
 20
3.288999999999993
 30
0.0
 11
3.225249999999993
 21
3.288999999999993
 31
0.0
  0
LINE
  5
994DA9C2708C4FF2
330
C829B246627CC81C
100
AcDbEntity
  8
LABEL
100
AcDbLine
 10
3.172749999999984
 20
3.351999999999993
 30
0.0
 11
3.225249999999993
 21
3.351999999999993
 31
0.0
  0
LINE
  5
994DA9C2708C4FF3
330
C829B246627CC81C
100
AcDbEntity
  8
LABEL
100
AcDbLine
 10
3.198999999999989
 20
3.214999999999993
 30
0.0
 11
3.153999999999987
 21
3.214999999999993
 31
0.0
  0
LINE
  5
994DA9C2708C4FF4
330
C829B246627CC81C
100
AcDbEntity
  8
LABEL
100
AcDbLine
 10
3.291999999999992
 20
3.414999999999992
 30
0.0
 11
3.246999999999991
 21
3.414999999999992
 31
0.0
  0
LINE
  5
994DA9C2708C4FF5
330
C829B246627CC81C
100
AcDbEntity
  8
LABEL
100
AcDbLine
 10
3.10399999999999
 20
3.414999999999992
 30
0.0
 11
3.058999999999988
 21
3.414999999999992
 31
0.0
  0
LINE
  5
994DA9C2708C4FF6
330
C829B246627CC81C
100
AcDbEntity
  8
LABEL
100
AcDbLine
 10
3.198999999999989
 20
3.414999999999992
 30
0.0
 11
3.153999999999987
 21
3.414999999999992
 31
0.0
  0
LINE
  5
994DA9C2708C4FF7
330
C829B246627CC81C
100
AcDbEntity
  8
LABEL
100
AcDbLine
 10
3.291999999999992
 20
3.614999999999993
 30
0.0
 11
3.246999999999991
 21
3.614999999999993
 31
0.0
  0
TEXT
  5
994DA9C2708C4FF8
330
C829B246627CC81C
100
AcDbEntity
  8
LABEL
100
AcDbText
 10
2.922999999999987
 20
3.577499999999993
 30
0.0
 40
0.075
  1
C
  7
ADESK1
 72
     4
 11
2.960499999999987
 21
3.614999999999993
 31
0.0
100
AcDbText
  0
LINE
  5
994DA9C2708C4FF9
330
C829B246627CC81C
100
AcDbEntity
  8
LABEL
100
AcDbLine
 10
3.10399999999999
 20
3.614999999999993
 30
0.0
 11
3.10399999999999
 21
3.662999999999991
 31
0.0
  0
LINE
  5
994DA9C2708C4FFA
330
C829B246627CC81C
100
AcDbEntity
  8
LABEL
100
AcDbLine
 10
3.10399999999999
 20
3.614999999999993
 30
0.0
 11
3.058999999999988
 21
3.614999999999993
 31
0.0
  0
LINE
  5
994DA9C2708C4FFB
330
C829B246627CC81C
100
AcDbEntity
  8
LABEL
100
AcDbLine
 10
3.069999999999984
 20
3.673999999999991
 30
0.0
 11
3.10399999999999
 21
3.662999999999991
 31
0.0
  0
LINE
  5
994DA9C2708C4FFC
330
C829B246627CC81C
100
AcDbEntity
  8
LABEL
100
AcDbLine
 10
3.198999999999989
 20
3.614999999999993
 30
0.0
 11
3.153999999999987
 21
3.614999999999993
 31
0.0
  0
LINE
  5
994DA9C2708C4FFD
330
C829B246627CC81C
100
AcDbEntity
  8
LABEL
100
AcDbLine
 10
7.408000000000006
 20
2.878500000000005
 30
0.0
 11
7.458000000000003
 21
2.894000000000005
 31
0.0
  0
LINE
  5
994DA9C2708C4FFE
330
C829B246627CC81C
100
AcDbEntity
  8
LABEL
100
AcDbLine
 10
7.423999999999997
 20
3.015
 30
0.0
 11
7.468999999999999
 21
3.015
 31
0.0
  0
LINE
  5
994DA9C2708C4FFF
330
C829B246627CC81C
100
AcDbEntity
  8
LABEL
100
AcDbLine
 10
7.458000000000003
 20
2.956000000000002
 30
0.0
 11
7.423999999999997
 21
2.967000000000001
 31
0.0
  0
LINE
  5
994DA9C2708C5000
330
C829B246627CC81C
100
AcDbEntity
  8
LABEL
100
AcDbLine
 10
7.408000000000006
 20
2.940500000000003
 30
0.0
 11
7.458000000000003
 21
2.956000000000002
 31
0.0
  0
LINE
  5
994DA9C2708C5001
330
C829B246627CC81C
100
AcDbEntity
  8
LABEL
100
AcDbLine
 10
7.458000000000003
 20
2.925000000000003
 30
0.0
 11
7.408000000000006
 21
2.940500000000003
 31
0.0
  0
LINE
  5
994DA9C2708C5002
330
C829B246627CC81C
100
AcDbEntity
  8
LABEL
100
AcDbLine
 10
7.408000000000006
 20
2.909500000000004
 30
0.0
 11
7.458000000000003
 21
2.925000000000003
 31
0.0
  0
LINE
  5
994DA9C2708C5003
330
C829B246627CC81C
100
AcDbEntity
  8
LABEL
100
AcDbLine
 10
7.458000000000003
 20
2.894000000000005
 30
0.0
 11
7.408000000000006
 21
2.909500000000004
 31
0.0
  0
LINE
  5
994DA9C2708C5004
330
C829B246627CC81C
100
AcDbEntity
  8
LABEL
100
AcDbLine
 10
7.423999999999997
 20
2.852000000000001
 30
0.0
 11
7.458000000000003
 21
2.863000000000006
 31
0.0
  0
LINE
  5
994DA9C2708C5005
330
C829B246627CC81C
100
AcDbEntity
  8
LABEL
100
AcDbLine
 10
7.423999999999997
 20
2.815
 30
0.0
 11
7.468999999999999
 21
2.815
 31
0.0
  0
LINE
  5
994DA9C2708C5006
330
C829B246627CC81C
100
AcDbEntity
  8
LABEL
100
AcDbLine
 10
7.458000000000003
 20
2.863000000000006
 30
0.0
 11
7.408000000000006
 21
2.878500000000005
 31
0.0
  0
LINE
  5
994DA9C2708C5007
330
C829B246627CC81C
100
AcDbEntity
  8
LABEL
100
AcDbLine
 10
7.423999999999997
 20
2.615
 30
0.0
 11
7.468999999999999
 21
2.615
 31
0.0
  0
LINE
  5
994DA9C2708C5008
330
C829B246627CC81C
100
AcDbEntity
  8
LABEL
100
AcDbLine
 10
7.235999999999995
 20
2.815
 30
0.0
 11
7.235999999999995
 21
2.895
 31
0.0
  0
LINE
  5
994DA9C2708C5009
330
C829B246627CC81C
100
AcDbEntity
  8
LABEL
100
AcDbLine
 10
7.328999999999998
 20
2.815
 30
0.0
 11
7.328999999999998
 21
2.877999999999999
 31
0.0
  0
LINE
  5
994DA9C2708C500A
330
C829B246627CC81C
100
AcDbEntity
  8
LABEL
100
AcDbLine
 10
7.423999999999997
 20
2.815
 30
0.0
 11
7.423999999999997
 21
2.852000000000001
 31
0.0
  0
TEXT
  5
994DA9C2708C500B
330
C829B246627CC81C
100
AcDbEntity
  8
LABEL
100
AcDbText
 10
7.322476190476184
 20
2.859714285714285
 30
0.0
 40
0.025
  1
+
 50
180.0
  7
ADESK1
 72
     4
 11
7.306999999999993
 21
2.848999999999999
 31
0.0
100
AcDbText
  0
LINE
  5
994DA9C2708C500C
330
C829B246627CC81C
100
AcDbEntity
  8
LABEL
100
AcDbLine
 10
7.328999999999998
 20
2.815
 30
0.0
 11
7.374
 21
2.815
 31
0.0
  0
LINE
  5
994DA9C2708C500D
330
C829B246627CC81C
100
AcDbEntity
  8
LABEL
100
AcDbLine
 10
7.235999999999995
 20
2.815
 30
0.0
 11
7.280999999999997
 21
2.815
 31
0.0
  0
LINE
  5
994DA9C2708C500E
330
C829B246627CC81C
100
AcDbEntity
  8
LABEL
100
AcDbLine
 10
7.328999999999998
 20
2.615
 30
0.0
 11
7.374
 21
2.615
 31
0.0
  0
LINE
  5
994DA9C2708C500F
330
C829B246627CC81C
100
AcDbEntity
  8
LABEL
100
AcDbLine
 10
7.235999999999995
 20
2.615
 30
0.0
 11
7.280999999999997
 21
2.615
 31
0.0
  0
LINE
  5
994DA9C2708C5010
330
C829B246627CC81C
100
AcDbEntity
  8
LABEL
100
AcDbLine
 10
7.355250000000003
 20
2.877999999999999
 30
0.0
 11
7.355250000000003
 21
2.941
 31
0.0
  0
LINE
  5
994DA9C2708C5011
330
C829B246627CC81C
100
AcDbEntity
  8
LABEL
100
AcDbLine
 10
7.302749999999994
 20
2.877999999999999
 30
0.0
 11
7.302749999999994
 21
2.941
 31
0.0
  0
LINE
  5
994DA9C2708C5012
330
C829B246627CC81C
100
AcDbEntity
  8
LABEL
100
AcDbLine
 10
7.355250000000003
 20
2.877999999999999
 30
0.0
 11
7.302749999999994
 21
2.877999999999999
 31
0.0
  0
LINE
  5
994DA9C2708C5013
330
C829B246627CC81C
100
AcDbEntity
  8
LABEL
100
AcDbLine
 10
7.423999999999997
 20
3.015
 30
0.0
 11
7.423999999999997
 21
2.967000000000001
 31
0.0
  0
LINE
  5
994DA9C2708C5014
330
C829B246627CC81C
100
AcDbEntity
  8
LABEL
100
AcDbLine
 10
7.328999999999998
 20
3.015
 30
0.0
 11
7.328999999999998
 21
2.941
 31
0.0
  0
LINE
  5
994DA9C2708C5015
330
C829B246627CC81C
100
AcDbEntity
  8
LABEL
100
AcDbLine
 10
7.235999999999995
 20
3.015
 30
0.0
 11
7.235999999999995
 21
2.925
 31
0.0
  0
LINE
  5
994DA9C2708C5016
330
C829B246627CC81C
100
AcDbEntity
  8
LABEL
100
AcDbLine
 10
7.328999999999998
 20
3.015
 30
0.0
 11
7.374
 21
3.015
 31
0.0
  0
LINE
  5
994DA9C2708C5017
330
C829B246627CC81C
100
AcDbEntity
  8
LABEL
100
AcDbLine
 10
7.235999999999995
 20
3.015
 30
0.0
 11
7.280999999999997
 21
3.015
 31
0.0
  0
LINE
  5
994DA9C2708C5018
330
C829B246627CC81C
100
AcDbEntity
  8
LABEL
100
AcDbLine
 10
7.355250000000003
 20
2.941
 30
0.0
 11
7.302749999999994
 21
2.941
 31
0.0
  0
LINE
  5
994DA9C2708C5019
330
C829B246627CC81C
100
AcDbEntity
  8
LABEL
100
AcDbLine
 10
7.262249999999999
 20
2.925
 30
0.0
 11
7.20974999999999
 21
2.925
 31
0.0
  0
LINE
  5
994DA9C2708C501A
330
C829B246627CC81C
100
AcDbEntity
  8
LABEL
100
AcDbLine
 10
7.262249999999999
 20
2.895
 30
0.0
 11
7.20974999999999
 21
2.895
 31
0.0
  0
TEXT
  5
994DA9C2708C501B
330
C829B246627CC81C
100
AcDbEntity
  8
LABEL
100
AcDbText
 10
7.501428571428571
 20
2.782500000000002
 30
0.0
 40
0.075
  1
11
  7
ADESK1
 72
     4
 11
7.5675
 21
2.820000000000002
 31
0.0
100
AcDbText
  0
TEXT
  5
994DA9C2708C501C
330
C829B246627CC81C
100
AcDbEntity
  8
LABEL
100
AcDbText
 10
7.530000000000001
 20
2.982500000000001
 30
0.0
 40
0.075
  1
C
  7
ADESK1
 72
     4
 11
7.5675
 21
3.020000000000001
 31
0.0
100
AcDbText
  0
LINE
  5
994DA9C2708C501D
330
C829B246627CC81C
100
AcDbEntity
  8
LABEL
100
AcDbLine
 10
7.457999999999989
 20
3.663000000000006
 30
0.0
 11
7.408000000000006
 21
3.678500000000005
 31
0.0
  0
LINE
  5
994DA9C2708C501E
330
C829B246627CC81C
100
AcDbEntity
  8
LABEL
100
AcDbLine
 10
7.423999999999997
 20
3.652000000000001
 30
0.0
 11
7.457999999999989
 21
3.663000000000006
 31
0.0
  0
LINE
  5
994DA9C2708C501F
330
C829B246627CC81C
100
AcDbEntity
  8
LABEL
100
AcDbLine
 10
7.423999999999997
 20
3.615
 30
0.0
 11
7.468999999999985
 21
3.615
 31
0.0
  0
LINE
  5
994DA9C2708C5020
330
C829B246627CC81C
100
AcDbEntity
  8
LABEL
100
AcDbLine
 10
7.457999999999989
 20
3.263000000000005
 30
0.0
 11
7.408000000000006
 21
3.278500000000005
 31
0.0
  0
LINE
  5
994DA9C2708C5021
330
C829B246627CC81C
100
AcDbEntity
  8
LABEL
100
AcDbLine
 10
7.423999999999997
 20
3.252000000000001
 30
0.0
 11
7.457999999999989
 21
3.263000000000005
 31
0.0
  0
LINE
  5
994DA9C2708C5022
330
C829B246627CC81C
100
AcDbEntity
  8
LABEL
100
AcDbLine
 10
7.423999999999997
 20
3.414999999999999
 30
0.0
 11
7.468999999999985
 21
3.414999999999999
 31
0.0
  0
LINE
  5
994DA9C2708C5023
330
C829B246627CC81C
100
AcDbEntity
  8
LABEL
100
AcDbLine
 10
7.408000000000006
 20
3.278500000000005
 30
0.0
 11
7.457999999999989
 21
3.294000000000004
 31
0.0
  0
LINE
  5
994DA9C2708C5024
330
C829B246627CC81C
100
AcDbEntity
  8
LABEL
100
AcDbLine
 10
7.457999999999989
 20
3.294000000000004
 30
0.0
 11
7.408000000000006
 21
3.309500000000003
 31
0.0
  0
LINE
  5
994DA9C2708C5025
330
C829B246627CC81C
100
AcDbEntity
  8
LABEL
100
AcDbLine
 10
7.408000000000006
 20
3.309500000000003
 30
0.0
 11
7.457999999999989
 21
3.325000000000003
 31
0.0
  0
LINE
  5
994DA9C2708C5026
330
C829B246627CC81C
100
AcDbEntity
  8
LABEL
100
AcDbLine
 10
7.457999999999989
 20
3.325000000000003
 30
0.0
 11
7.408000000000006
 21
3.340500000000002
 31
0.0
  0
LINE
  5
994DA9C2708C5027
330
C829B246627CC81C
100
AcDbEntity
  8
LABEL
100
AcDbLine
 10
7.408000000000006
 20
3.340500000000002
 30
0.0
 11
7.457999999999989
 21
3.356000000000002
 31
0.0
  0
LINE
  5
994DA9C2708C5028
330
C829B246627CC81C
100
AcDbEntity
  8
LABEL
100
AcDbLine
 10
7.457999999999989
 20
3.356000000000002
 30
0.0
 11
7.423999999999997
 21
3.367000000000001
 31
0.0
  0
LINE
  5
994DA9C2708C5029
330
C829B246627CC81C
100
AcDbEntity
  8
LABEL
100
AcDbLine
 10
7.423999999999997
 20
3.215
 30
0.0
 11
7.468999999999985
 21
3.215
 31
0.0
  0
LINE
  5
994DA9C2708C502A
330
C829B246627CC81C
100
AcDbEntity
  8
LABEL
100
AcDbLine
 10
7.423999999999997
 20
3.414999999999999
 30
0.0
 11
7.423999999999997
 21
3.367000000000001
 31
0.0
  0
LINE
  5
994DA9C2708C502B
330
C829B246627CC81C
100
AcDbEntity
  8
LABEL
100
AcDbLine
 10
7.328999999999998
 20
3.414999999999999
 30
0.0
 11
7.328999999999998
 21
3.340999999999999
 31
0.0
  0
LINE
  5
994DA9C2708C502C
330
C829B246627CC81C
100
AcDbEntity
  8
LABEL
100
AcDbLine
 10
7.235999999999995
 20
3.414999999999999
 30
0.0
 11
7.235999999999995
 21
3.324999999999999
 31
0.0
  0
LINE
  5
994DA9C2708C502D
330
C829B246627CC81C
100
AcDbEntity
  8
LABEL
100
AcDbLine
 10
7.355250000000003
 20
3.277999999999999
 30
0.0
 11
7.302749999999994
 21
3.277999999999999
 31
0.0
  0
LINE
  5
994DA9C2708C502E
330
C829B246627CC81C
100
AcDbEntity
  8
LABEL
100
AcDbLine
 10
7.355250000000003
 20
3.340999999999999
 30
0.0
 11
7.302749999999994
 21
3.340999999999999
 31
0.0
  0
LINE
  5
994DA9C2708C502F
330
C829B246627CC81C
100
AcDbEntity
  8
LABEL
100
AcDbLine
 10
7.355250000000003
 20
3.277999999999999
 30
0.0
 11
7.355250000000003
 21
3.340999999999999
 31
0.0
  0
LINE
  5
994DA9C2708C5030
330
C829B246627CC81C
100
AcDbEntity
  8
LABEL
100
AcDbLine
 10
7.302749999999994
 20
3.277999999999999
 30
0.0
 11
7.302749999999994
 21
3.340999999999999
 31
0.0
  0
LINE
  5
994DA9C2708C5031
330
C829B246627CC81C
100
AcDbEntity
  8
LABEL
100
AcDbLine
 10
7.262249999999985
 20
3.295
 30
0.0
 11
7.20974999999999
 21
3.295
 31
0.0
  0
LINE
  5
994DA9C2708C5032
330
C829B246627CC81C
100
AcDbEntity
  8
LABEL
100
AcDbLine
 10
7.262249999999985
 20
3.324999999999999
 30
0.0
 11
7.20974999999999
 21
3.324999999999999
 31
0.0
  0
LINE
  5
994DA9C2708C5033
330
C829B246627CC81C
100
AcDbEntity
  8
LABEL
100
AcDbLine
 10
7.328999999999998
 20
3.215
 30
0.0
 11
7.373999999999986
 21
3.215
 31
0.0
  0
LINE
  5
994DA9C2708C5034
330
C829B246627CC81C
100
AcDbEntity
  8
LABEL
100
AcDbLine
 10
7.235999999999995
 20
3.215
 30
0.0
 11
7.280999999999997
 21
3.215
 31
0.0
  0
LINE
  5
994DA9C2708C5035
330
C829B246627CC81C
100
AcDbEntity
  8
LABEL
100
AcDbLine
 10
7.235999999999995
 20
3.215
 30
0.0
 11
7.235999999999995
 21
3.295
 31
0.0
  0
LINE
  5
994DA9C2708C5036
330
C829B246627CC81C
100
AcDbEntity
  8
LABEL
100
AcDbLine
 10
7.328999999999998
 20
3.215
 30
0.0
 11
7.328999999999998
 21
3.277999999999999
 31
0.0
  0
TEXT
  5
994DA9C2708C5037
330
C829B246627CC81C
100
AcDbEntity
  8
LABEL
100
AcDbText
 10
7.322476190476184
 20
3.259714285714284
 30
0.0
 40
0.025
  1
+
 50
180.0
  7
ADESK1
 72
     4
 11
7.306999999999993
 21
3.248999999999999
 31
0.0
100
AcDbText
  0
LINE
  5
994DA9C2708C5038
330
C829B246627CC81C
100
AcDbEntity
  8
LABEL
100
AcDbLine
 10
7.423999999999997
 20
3.215
 30
0.0
 11
7.423999999999997
 21
3.252000000000001
 31
0.0
  0
TEXT
  5
994DA9C2708C5039
330
C829B246627CC81C
100
AcDbEntity
  8
LABEL
100
AcDbText
 10
7.322476190476184
 20
3.659714285714285
 30
0.0
 40
0.025
  1
+
 50
180.0
  7
ADESK1
 72
     4
 11
7.306999999999993
 21
3.648999999999999
 31
0.0
100
AcDbText
  0
LINE
  5
994DA9C2708C503A
330
C829B246627CC81C
100
AcDbEntity
  8
LABEL
100
AcDbLine
 10
7.355250000000003
 20
3.677999999999999
 30
0.0
 11
7.302749999999994
 21
3.677999999999999
 31
0.0
  0
LINE
  5
994DA9C2708C503B
330
C829B246627CC81C
100
AcDbEntity
  8
LABEL
100
AcDbLine
 10
7.328999999999998
 20
3.615
 30
0.0
 11
7.373999999999986
 21
3.615
 31
0.0
  0
LINE
  5
994DA9C2708C503C
330
C829B246627CC81C
100
AcDbEntity
  8
LABEL
100
AcDbLine
 10
7.235999999999995
 20
3.615
 30
0.0
 11
7.280999999999997
 21
3.615
 31
0.0
  0
LINE
  5
994DA9C2708C503D
330
C829B246627CC81C
100
AcDbEntity
  8
LABEL
100
AcDbLine
 10
7.423999999999997
 20
3.615
 30
0.0
 11
7.423999999999997
 21
3.652000000000001
 31
0.0
  0
LINE
  5
994DA9C2708C503E
330
C829B246627CC81C
100
AcDbEntity
  8
LABEL
100
AcDbLine
 10
7.328999999999998
 20
3.615
 30
0.0
 11
7.328999999999998
 21
3.677999999999999
 31
0.0
  0
LINE
  5
994DA9C2708C503F
330
C829B246627CC81C
100
AcDbEntity
  8
LABEL
100
AcDbLine
 10
7.328999999999998
 20
3.414999999999999
 30
0.0
 11
7.373999999999986
 21
3.414999999999999
 31
0.0
  0
LINE
  5
994DA9C2708C5040
330
C829B246627CC81C
100
AcDbEntity
  8
LABEL
100
AcDbLine
 10
7.235999999999995
 20
3.414999999999999
 30
0.0
 11
7.280999999999997
 21
3.414999999999999
 31
0.0
  0
TEXT
  5
994DA9C2708C5041
330
C829B246627CC81C
100
AcDbEntity
  8
LABEL
100
AcDbText
 10
7.529999999999986
 20
3.382500000000002
 30
0.0
 40
0.075
  1
C
  7
ADESK1
 72
     4
 11
7.567499999999986
 21
3.420000000000002
 31
0.0
100
AcDbText
  0
TEXT
  5
994DA9C2708C5042
330
C829B246627CC81C
100
AcDbEntity
  8
LABEL
100
AcDbText
 10
7.490714285714272
 20
3.182500000000002
 30
0.0
 40
0.075
  1
12
  7
ADESK1
 72
     4
 11
7.567499999999986
 21
3.220000000000002
 31
0.0
100
AcDbText
  0
TEXT
  5
994DA9C2708C5043
330
C829B246627CC81C
100
AcDbEntity
  8
LABEL
100
AcDbText
 10
7.490714285714272
 20
3.582500000000003
 30
0.0
 40
0.075
  1
13
  7
ADESK1
 72
     4
 11
7.567499999999986
 21
3.620000000000003
 31
0.0
100
AcDbText
  0
LINE
  5
994DA9C2708C5044
330
C829B246627CC81C
100
AcDbEntity
  8
CASE
100
AcDbLine
 10
3.238999999999995
 20
6.124999999999998
 30
0.0
 11
2.264000000000001
 21
6.124999999999998
 31
0.0
  0
LINE
  5
994DA9C2708C5045
330
C829B246627CC81C
100
AcDbEntity
  8
CASE
100
AcDbLine
 10
2.813999999999998
 20
5.184999999999996
 30
0.0
 11
3.238999999999995
 21
5.184999999999996
 31
0.0
  0
LINE
  5
994DA9C2708C5046
330
C829B246627CC81C
100
AcDbEntity
  8
CASE
100
AcDbLine
 10
8.639000000000001
 20
6.384999999999996
 30
0.0
 11
1.889000000000001
 21
6.384999999999996
 31
0.0
  0
LINE
  5
994DA9C2708C5047
330
C829B246627CC81C
100
AcDbEntity
  8
LABEL
100
AcDbLine
 10
2.411999999999997
 20
6.359999999999995
 30
0.0
 11
4.944999999999998
 21
6.359999999999995
 31
0.0
  0
LINE
  5
994DA9C2708C5048
330
C829B246627CC81C
100
AcDbEntity
  8
LABEL
100
AcDbLine
 10
3.264000000000001
 20
6.148000000000001
 30
0.0
 11
2.411999999999997
 21
6.148000000000001
 31
0.0
  0
LINE
  5
994DA9C2708C5049
330
C829B246627CC81C
100
AcDbEntity
  8
LABEL
100
AcDbLine
 10
2.838999999999996
 20
5.161000000000001
 30
0.0
 11
3.264000000000001
 21
5.161000000000001
 31
0.0
  0
LWPOLYLINE
  5
994DA9C2708C504A
330
C829B246627CC81C
100
AcDbEntity
  8
LABEL
100
AcDbPolyline
 90
        3
 70
     0
 43
0.02
 10
2.838999999999989
 20
5.121999999999999
 10
3.378999999999996
 20
5.121999999999999
 10
3.378999999999996
 20
4.016000000000005
  0
INSERT
  5
994DA9C2708C504F
330
C829B246627CC81C
100
AcDbEntity
  8
CASE
100
AcDbBlockReference
  2
ACAD3A27
 10
2.816999999999998
 20
5.202999999999995
 30
0.0
 50
270.0
  0
INSERT
  5
994DA9C2708C5050
330
C829B246627CC81C
100
AcDbEntity
  8
CASE
100
AcDbBlockReference
  2
ACAD1C6F
 10
2.014000000000001
 20
6.009999999999996
 30
0.0
 50
270.0
  0
INSERT
  5
994DA9C2708C5051
330
C829B246627CC81C
100
AcDbEntity
  8
CASE
100
AcDbBlockReference
  2
ACAD3A27
 10
2.395000000000001
 20
5.202999999999995
 30
0.0
 50
270.0
  0
ARC
  5
994DA9C2708C5052
330
C829B246627CC81C
100
AcDbEntity
  8
CASE
100
AcDbCircle
 10
1.889000000000001
 20
6.259999999999996
 30
0.0
 40
0.1249999999999982
100
AcDbArc
 50
89.9999999999992
 51
179.9999999999991
  0
LINE
  5
994DA9C2708C5053
330
C829B246627CC81C
100
AcDbEntity
  8
LABEL
100
AcDbLine
 10
2.589999999999987
 20
6.30199999999998
 30
0.0
 11
2.519999999999987
 21
6.30199999999998
 31
0.0
  0
SOLID
  5
994DA9C2708C5054
330
C829B246627CC81C
100
AcDbEntity
  8
LABEL
100
AcDbTrace
 10
2.589999999999987
 20
6.331999999999981
 30
0.0
 11
2.589999999999987
 21
6.271999999999978
 31
0.0
 12
2.638999999999986
 22
6.30199999999998
 32
0.0
 13
2.638999999999986
 23
6.30199999999998
 33
0.0
  0
TEXT
  5
994DA9C2708C5055
330
C829B246627CC81C
100
AcDbEntity
  8
LABEL
100
AcDbText
 10
2.430285714285706
 20
6.167499999999993
 30
0.0
 40
0.075
  1
20mA
  7
ADESK1
 72
     4
 11
2.590999999999992
 21
6.204999999999992
 31
0.0
100
AcDbText
  0
LWPOLYLINE
  5
994DA9C2708C5056
330
C829B246627CC81C
100
AcDbEntity
  8
LABEL
100
AcDbPolyline
 90
        2
 70
     0
 43
0.02
 10
2.805999999999995
 20
6.359999999999994
 10
2.805999999999995
 20
6.148000000000001
  0
LINE
  5
994DA9C2708C505A
330
C829B246627CC81C
100
AcDbEntity
  8
LABEL
100
AcDbLine
 10
2.411999999999997
 20
6.148000000000001
 30
0.0
 11
2.411999999999997
 21
6.359999999999995
 31
0.0
  0
LINE
  5
994DA9C2708C505B
330
C829B246627CC81C
100
AcDbEntity
  8
LABEL
100
AcDbLine
 10
5.693000000000003
 20
6.359999999999995
 30
0.0
 11
5.693000000000003
 21
5.820999999999997
 31
0.0
  0
LINE
  5
994DA9C2708C505C
330
C829B246627CC81C
100
AcDbEntity
  8
LABEL
100
AcDbLine
 10
4.944999999999998
 20
6.359999999999995
 30
0.0
 11
4.944999999999998
 21
5.820999999999997
 31
0.0
  0
INSERT
  5
994DA9C2708C505D
330
C829B246627CC81C
100
AcDbEntity
  8
CASE
100
AcDbBlockReference
  2
ACAD0312
 10
8.514000000000001
 20
6.009999999999996
 30
0.0
 50
270.0
  0
LINE
  5
994DA9C2708C505E
330
C829B246627CC81C
100
AcDbEntity
  8
CASE
100
AcDbLine
 10
7.289000000000006
 20
5.184999999999996
 30
0.0
 11
7.289000000000006
 21
6.124999999999998
 31
0.0
  0
LINE
  5
994DA9C2708C505F
330
C829B246627CC81C
100
AcDbEntity
  8
CASE
100
AcDbLine
 10
3.238999999999995
 20
6.124999999999998
 30
0.0
 11
3.238999999999995
 21
5.184999999999996
 31
0.0
  0
LINE
  5
994DA9C2708C5060
330
C829B246627CC81C
100
AcDbEntity
  8
CASE
100
AcDbLine
 10
5.669000000000002
 20
6.384999999999996
 30
0.0
 11
5.669000000000002
 21
5.844999999999997
 31
0.0
  0
LINE
  5
994DA9C2708C5061
330
C829B246627CC81C
100
AcDbEntity
  8
CASE
100
AcDbLine
 10
4.968999999999999
 20
6.384999999999996
 30
0.0
 11
4.968999999999999
 21
5.844999999999997
 31
0.0
  0
TEXT
  5
994DA9C2708C5062
330
C829B246627CC81C
100
AcDbEntity
  8
LABEL
100
AcDbText
 10
7.180499999999991
 20
5.610357142857136
 30
0.0
 40
0.075
  1
Mode
 50
90.0
  7
ADESK1
 72
     4
 11
7.142999999999991
 21
5.754999999999993
 31
0.0
100
AcDbText
  0
TEXT
  5
994DA9C2708C5063
330
C829B246627CC81C
100
AcDbEntity
  8
LABEL
100
AcDbText
 10
3.347499999999996
 20
5.89964285714285
 30
0.0
 40
0.075
  1
Mode
 50
270.0
  7
ADESK1
 72
     4
 11
3.384999999999996
 21
5.754999999999993
 31
0.0
100
AcDbText
  0
LINE
  5
994DA9C2708C5064
330
C829B246627CC81C
100
AcDbEntity
  8
LABEL
100
AcDbLine
 10
7.264000000000001
 20
6.147999999999994
 30
0.0
 11
7.264000000000001
 21
5.160999999999994
 31
0.0
  0
LINE
  5
994DA9C2708C5065
330
C829B246627CC81C
100
AcDbEntity
  8
LABEL
100
AcDbLine
 10
3.264000000000001
 20
5.161000000000001
 30
0.0
 11
3.264000000000001
 21
6.148000000000001
 31
0.0
  0
INSERT
  5
994DA9C2708C5066
330
C829B246627CC81C
100
AcDbEntity
  8
CASE
100
AcDbBlockReference
  2
ACAD3A27
 10
7.706999999999998
 20
6.105999999999994
 30
0.0
 50
90.0
  0
INSERT
  5
994DA9C2708C5067
330
C829B246627CC81C
100
AcDbEntity
  8
CASE
100
AcDbBlockReference
  2
ACAD3A27
 10
8.136999999999991
 20
6.105999999999994
 30
0.0
 50
90.0
  0
TEXT
  5
994DA9C2708C5068
330
C829B246627CC81C
100
AcDbEntity
  8
LABEL
100
AcDbText
 10
4.550955666709874
 20
4.063113013307575
 30
0.0
 40
0.478
  1
MAXIO
 50
30.0
  7
BRUSHSCRIPT
 72
     4
 11
5.264000000000001
 21
4.655000000000001
 31
0.0
100
AcDbText
  0
LWPOLYLINE
  5
994DA9C2708C5069
330
C829B246627CC81C
100
AcDbEntity
  8
LABEL
100
AcDbPolyline
 90
        3
 70
     0
 43
0.02
 10
7.688999999999998
 20
5.121999999999996
 10
7.148999999999992
 20
5.121999999999996
 10
7.148999999999992
 20
4.016000000000001
  0
TEXT
  5
994DA9C2708C506E
330
C829B246627CC81C
100
AcDbEntity
  8
LABEL
100
AcDbText
 10
4.678440530256104
 20
3.688404752449521
 30
0.0
 40
0.478
  1
U1606
 50
30.0
  7
BRUSHSCRIPT
 72
     4
 11
5.264000000000001
 21
4.21
 31
0.0
100
AcDbText
  0
TEXT
  5
994DA9C2708C506F
330
C829B246627CC81C
100
AcDbEntity
  8
LABEL
100
AcDbText
 10
2.924785714285701
 20
4.177499999999993
 30
0.0
 40
0.075
  1
3
  7
ADESK1
 72
     4
 11
2.960499999999987
 21
4.214999999999992
 31
0.0
100
AcDbText
  0
LINE
  5
994DA9C2708C5070
330
C829B246627CC81C
100
AcDbEntity
  8
LABEL
100
AcDbLine
 10
3.291999999999992
 20
3.814999999999992
 30
0.0
 11
3.246999999999991
 21
3.814999999999992
 31
0.0
  0
LINE
  5
994DA9C2708C5071
330
C829B246627CC81C
100
AcDbEntity
  8
LABEL
100
AcDbLine
 10
3.291999999999992
 20
3.814999999999992
 30
0.0
 11
3.291999999999992
 21
3.734999999999992
 31
0.0
  0
LINE
  5
994DA9C2708C5072
330
C829B246627CC81C
100
AcDbEntity
  8
LABEL
100
AcDbLine
 10
3.265749999999988
 20
3.734999999999992
 30
0.0
 11
3.318249999999997
 21
3.734999999999992
 31
0.0
  0
LINE
  5
994DA9C2708C5073
330
C829B246627CC81C
100
AcDbEntity
  8
LABEL
100
AcDbLine
 10
3.265749999999988
 20
3.704999999999993
 30
0.0
 11
3.318249999999997
 21
3.704999999999993
 31
0.0
  0
TEXT
  5
994DA9C2708C5074
330
C829B246627CC81C
100
AcDbEntity
  8
LABEL
100
AcDbText
 10
3.205523809523804
 20
3.770285714285708
 30
0.0
 40
0.025
  1
+
  7
ADESK1
 72
     4
 11
3.220999999999994
 21
3.780999999999993
 31
0.0
100
AcDbText
  0
LINE
  5
994DA9C2708C5075
330
C829B246627CC81C
100
AcDbEntity
  8
LABEL
100
AcDbLine
 10
3.225249999999993
 20
3.751999999999994
 30
0.0
 11
3.225249999999993
 21
3.688999999999993
 31
0.0
  0
LINE
  5
994DA9C2708C5076
330
C829B246627CC81C
100
AcDbEntity
  8
LABEL
100
AcDbLine
 10
3.198999999999989
 20
3.814999999999992
 30
0.0
 11
3.198999999999989
 21
3.751999999999994
 31
0.0
  0
LINE
  5
994DA9C2708C5077
330
C829B246627CC81C
100
AcDbEntity
  8
LABEL
100
AcDbLine
 10
3.172749999999984
 20
3.751999999999994
 30
0.0
 11
3.172749999999984
 21
3.688999999999993
 31
0.0
  0
LINE
  5
994DA9C2708C5078
330
C829B246627CC81C
100
AcDbEntity
  8
LABEL
100
AcDbLine
 10
3.10399999999999
 20
3.814999999999992
 30
0.0
 11
3.10399999999999
 21
3.777999999999992
 31
0.0
  0
LINE
  5
994DA9C2708C5079
330
C829B246627CC81C
100
AcDbEntity
  8
LABEL
100
AcDbLine
 10
3.10399999999999
 20
3.777999999999992
 30
0.0
 11
3.069999999999984
 21
3.766999999999987
 31
0.0
  0
LINE
  5
994DA9C2708C507A
330
C829B246627CC81C
100
AcDbEntity
  8
LABEL
100
AcDbLine
 10
3.069999999999984
 20
3.766999999999987
 30
0.0
 11
3.119999999999981
 21
3.751499999999988
 31
0.0
  0
LINE
  5
994DA9C2708C507B
330
C829B246627CC81C
100
AcDbEntity
  8
LABEL
100
AcDbLine
 10
3.119999999999981
 20
3.751499999999988
 30
0.0
 11
3.069999999999984
 21
3.735999999999988
 31
0.0
  0
LINE
  5
994DA9C2708C507C
330
C829B246627CC81C
100
AcDbEntity
  8
LABEL
100
AcDbLine
 10
3.069999999999984
 20
3.735999999999988
 30
0.0
 11
3.119999999999981
 21
3.720499999999989
 31
0.0
  0
LINE
  5
994DA9C2708C507D
330
C829B246627CC81C
100
AcDbEntity
  8
LABEL
100
AcDbLine
 10
3.119999999999981
 20
3.720499999999989
 30
0.0
 11
3.069999999999984
 21
3.704999999999989
 31
0.0
  0
LINE
  5
994DA9C2708C507E
330
C829B246627CC81C
100
AcDbEntity
  8
LABEL
100
AcDbLine
 10
3.069999999999984
 20
3.704999999999989
 30
0.0
 11
3.119999999999981
 21
3.68949999999999
 31
0.0
  0
LINE
  5
994DA9C2708C507F
330
C829B246627CC81C
100
AcDbEntity
  8
LABEL
100
AcDbLine
 10
3.10399999999999
 20
3.814999999999992
 30
0.0
 11
3.058999999999988
 21
3.814999999999992
 31
0.0
  0
TEXT
  5
994DA9C2708C5080
330
C829B246627CC81C
100
AcDbEntity
  8
LABEL
100
AcDbText
 10
2.922999999999987
 20
3.777499999999992
 30
0.0
 40
0.075
  1
4
  7
ADESK1
 72
     4
 11
2.960499999999987
 21
3.814999999999992
 31
0.0
100
AcDbText
  0
LINE
  5
994DA9C2708C5081
330
C829B246627CC81C
100
AcDbEntity
  8
LABEL
100
AcDbLine
 10
3.172749999999984
 20
3.751999999999994
 30
0.0
 11
3.225249999999993
 21
3.751999999999994
 31
0.0
  0
LINE
  5
994DA9C2708C5082
330
C829B246627CC81C
100
AcDbEntity
  8
LABEL
100
AcDbLine
 10
3.172749999999984
 20
3.688999999999993
 30
0.0
 11
3.225249999999993
 21
3.688999999999993
 31
0.0
  0
LINE
  5
994DA9C2708C5083
330
C829B246627CC81C
100
AcDbEntity
  8
LABEL
100
AcDbLine
 10
3.198999999999989
 20
3.814999999999992
 30
0.0
 11
3.153999999999987
 21
3.814999999999992
 31
0.0
  0
LINE
  5
994DA9C2708C5084
330
C829B246627CC81C
100
AcDbEntity
  8
LABEL
100
AcDbLine
 10
3.198999999999989
 20
4.214999999999992
 30
0.0
 11
3.198999999999989
 21
4.151999999999993
 31
0.0
  0
LINE
  5
994DA9C2708C5085
330
C829B246627CC81C
100
AcDbEntity
  8
LABEL
100
AcDbLine
 10
3.225249999999986
 20
4.151999999999993
 30
0.0
 11
3.225249999999986
 21
4.088999999999993
 31
0.0
  0
TEXT
  5
994DA9C2708C5086
330
C829B246627CC81C
100
AcDbEntity
  8
LABEL
100
AcDbText
 10
3.205523809523797
 20
4.170285714285707
 30
0.0
 40
0.025
  1
+
  7
ADESK1
 72
     4
 11
3.220999999999987
 21
4.180999999999993
 31
0.0
100
AcDbText
  0
LINE
  5
994DA9C2708C5087
330
C829B246627CC81C
100
AcDbEntity
  8
LABEL
100
AcDbLine
 10
3.265749999999988
 20
4.104999999999993
 30
0.0
 11
3.31824999999999
 21
4.104999999999993
 31
0.0
  0
LINE
  5
994DA9C2708C5088
330
C829B246627CC81C
100
AcDbEntity
  8
LABEL
100
AcDbLine
 10
3.265749999999988
 20
4.134999999999992
 30
0.0
 11
3.31824999999999
 21
4.134999999999992
 31
0.0
  0
LINE
  5
994DA9C2708C5089
330
C829B246627CC81C
100
AcDbEntity
  8
LABEL
100
AcDbLine
 10
3.291999999999985
 20
4.214999999999992
 30
0.0
 11
3.291999999999985
 21
4.134999999999992
 31
0.0
  0
LINE
  5
994DA9C2708C508A
330
C829B246627CC81C
100
AcDbEntity
  8
LABEL
100
AcDbLine
 10
3.291999999999985
 20
4.214999999999992
 30
0.0
 11
3.246999999999983
 21
4.214999999999992
 31
0.0
  0
LINE
  5
994DA9C2708C508B
330
C829B246627CC81C
100
AcDbEntity
  8
LABEL
100
AcDbLine
 10
3.291999999999985
 20
4.014999999999993
 30
0.0
 11
3.246999999999983
 21
4.014999999999993
 31
0.0
  0
LINE
  5
994DA9C2708C508C
330
C829B246627CC81C
100
AcDbEntity
  8
LABEL
100
AcDbLine
 10
3.198999999999989
 20
4.014999999999993
 30
0.0
 11
3.198999999999989
 21
4.088999999999993
 31
0.0
  0
LINE
  5
994DA9C2708C508D
330
C829B246627CC81C
100
AcDbEntity
  8
LABEL
100
AcDbLine
 10
3.291999999999985
 20
4.014999999999993
 30
0.0
 11
3.291999999999985
 21
4.104999999999993
 31
0.0
  0
LINE
  5
994DA9C2708C508E
330
C829B246627CC81C
100
AcDbEntity
  8
LABEL
100
AcDbLine
 10
3.10399999999999
 20
4.214999999999992
 30
0.0
 11
3.058999999999988
 21
4.214999999999992
 31
0.0
  0
LINE
  5
994DA9C2708C508F
330
C829B246627CC81C
100
AcDbEntity
  8
LABEL
100
AcDbLine
 10
3.069999999999984
 20
4.07399999999999
 30
0.0
 11
3.10399999999999
 21
4.062999999999991
 31
0.0
  0
LINE
  5
994DA9C2708C5090
330
C829B246627CC81C
100
AcDbEntity
  8
LABEL
100
AcDbLine
 10
3.119999999999981
 20
4.08949999999999
 30
0.0
 11
3.069999999999984
 21
4.07399999999999
 31
0.0
  0
LINE
  5
994DA9C2708C5091
330
C829B246627CC81C
100
AcDbEntity
  8
LABEL
100
AcDbLine
 10
3.069999999999984
 20
4.104999999999989
 30
0.0
 11
3.119999999999981
 21
4.08949999999999
 31
0.0
  0
LINE
  5
994DA9C2708C5092
330
C829B246627CC81C
100
AcDbEntity
  8
LABEL
100
AcDbLine
 10
3.119999999999981
 20
4.120499999999989
 30
0.0
 11
3.069999999999984
 21
4.104999999999989
 31
0.0
  0
LINE
  5
994DA9C2708C5093
330
C829B246627CC81C
100
AcDbEntity
  8
LABEL
100
AcDbLine
 10
3.069999999999984
 20
4.135999999999988
 30
0.0
 11
3.119999999999981
 21
4.120499999999989
 31
0.0
  0
LINE
  5
994DA9C2708C5094
330
C829B246627CC81C
100
AcDbEntity
  8
LABEL
100
AcDbLine
 10
3.119999999999981
 20
4.151499999999987
 30
0.0
 11
3.069999999999984
 21
4.135999999999988
 31
0.0
  0
LINE
  5
994DA9C2708C5095
330
C829B246627CC81C
100
AcDbEntity
  8
LABEL
100
AcDbLine
 10
3.069999999999984
 20
4.166999999999987
 30
0.0
 11
3.119999999999981
 21
4.151499999999987
 31
0.0
  0
LINE
  5
994DA9C2708C5096
330
C829B246627CC81C
100
AcDbEntity
  8
LABEL
100
AcDbLine
 10
3.10399999999999
 20
4.177999999999991
 30
0.0
 11
3.069999999999984
 21
4.166999999999987
 31
0.0
  0
LINE
  5
994DA9C2708C5097
330
C829B246627CC81C
100
AcDbEntity
  8
LABEL
100
AcDbLine
 10
3.10399999999999
 20
4.214999999999992
 30
0.0
 11
3.10399999999999
 21
4.177999999999991
 31
0.0
  0
LINE
  5
994DA9C2708C5098
330
C829B246627CC81C
100
AcDbEntity
  8
LABEL
100
AcDbLine
 10
3.172749999999984
 20
4.151999999999993
 30
0.0
 11
3.172749999999984
 21
4.088999999999993
 31
0.0
  0
LINE
  5
994DA9C2708C5099
330
C829B246627CC81C
100
AcDbEntity
  8
LABEL
100
AcDbLine
 10
3.10399999999999
 20
4.014999999999993
 30
0.0
 11
3.058999999999988
 21
4.014999999999993
 31
0.0
  0
LINE
  5
994DA9C2708C509A
330
C829B246627CC81C
100
AcDbEntity
  8
LABEL
100
AcDbLine
 10
3.10399999999999
 20
4.014999999999993
 30
0.0
 11
3.10399999999999
 21
4.062999999999991
 31
0.0
  0
TEXT
  5
994DA9C2708C509B
330
C829B246627CC81C
100
AcDbEntity
  8
LABEL
100
AcDbText
 10
2.922999999999987
 20
3.977499999999993
 30
0.0
 40
0.075
  1
C
  7
ADESK1
 72
     4
 11
2.960499999999987
 21
4.014999999999993
 31
0.0
100
AcDbText
  0
LINE
  5
994DA9C2708C509C
330
C829B246627CC81C
100
AcDbEntity
  8
LABEL
100
AcDbLine
 10
3.198999999999989
 20
4.214999999999992
 30
0.0
 11
3.153999999999987
 21
4.214999999999992
 31
0.0
  0
LINE
  5
994DA9C2708C509D
330
C829B246627CC81C
100
AcDbEntity
  8
LABEL
100
AcDbLine
 10
3.172749999999984
 20
4.088999999999993
 30
0.0
 11
3.225249999999986
 21
4.088999999999993
 31
0.0
  0
LINE
  5
994DA9C2708C509E
330
C829B246627CC81C
100
AcDbEntity
  8
LABEL
100
AcDbLine
 10
3.172749999999984
 20
4.151999999999993
 30
0.0
 11
3.225249999999986
 21
4.151999999999993
 31
0.0
  0
LINE
  5
994DA9C2708C509F
330
C829B246627CC81C
100
AcDbEntity
  8
LABEL
100
AcDbLine
 10
3.198999999999989
 20
4.014999999999993
 30
0.0
 11
3.153999999999987
 21
4.014999999999993
 31
0.0
  0
LINE
  5
994DA9C2708C50A0
330
C829B246627CC81C
100
AcDbEntity
  8
LABEL
100
AcDbLine
 10
3.291999999999985
 20
4.414999999999992
 30
0.0
 11
3.291999999999985
 21
4.504999999999991
 31
0.0
  0
LINE
  5
994DA9C2708C50A1
330
C829B246627CC81C
100
AcDbEntity
  8
LABEL
100
AcDbLine
 10
3.225249999999986
 20
4.551999999999992
 30
0.0
 11
3.225249999999986
 21
4.488999999999991
 31
0.0
  0
LINE
  5
994DA9C2708C50A2
330
C829B246627CC81C
100
AcDbEntity
  8
LABEL
100
AcDbLine
 10
3.172749999999984
 20
4.551999999999992
 30
0.0
 11
3.172749999999984
 21
4.488999999999991
 31
0.0
  0
LINE
  5
994DA9C2708C50A3
330
C829B246627CC81C
100
AcDbEntity
  8
LABEL
100
AcDbLine
 10
3.069999999999984
 20
4.504999999999988
 30
0.0
 11
3.119999999999981
 21
4.489499999999988
 31
0.0
  0
LINE
  5
994DA9C2708C50A4
330
C829B246627CC81C
100
AcDbEntity
  8
LABEL
100
AcDbLine
 10
3.198999999999989
 20
4.414999999999992
 30
0.0
 11
3.198999999999989
 21
4.488999999999991
 31
0.0
  0
LINE
  5
994DA9C2708C50A5
330
C829B246627CC81C
100
AcDbEntity
  8
LABEL
100
AcDbLine
 10
3.291999999999985
 20
4.414999999999992
 30
0.0
 11
3.246999999999983
 21
4.414999999999992
 31
0.0
  0
TEXT
  5
994DA9C2708C50A6
330
C829B246627CC81C
100
AcDbEntity
  8
LABEL
100
AcDbText
 10
2.922999999999987
 20
4.377499999999992
 30
0.0
 40
0.075
  1
C
  7
ADESK1
 72
     4
 11
2.960499999999987
 21
4.414999999999992
 31
0.0
100
AcDbText
  0
LINE
  5
994DA9C2708C50A7
330
C829B246627CC81C
100
AcDbEntity
  8
LABEL
100
AcDbLine
 10
3.10399999999999
 20
4.414999999999992
 30
0.0
 11
3.10399999999999
 21
4.46299999999999
 31
0.0
  0
LINE
  5
994DA9C2708C50A8
330
C829B246627CC81C
100
AcDbEntity
  8
LABEL
100
AcDbLine
 10
3.10399999999999
 20
4.414999999999992
 30
0.0
 11
3.058999999999988
 21
4.414999999999992
 31
0.0
  0
LINE
  5
994DA9C2708C50A9
330
C829B246627CC81C
100
AcDbEntity
  8
LABEL
100
AcDbLine
 10
3.119999999999981
 20
4.489499999999988
 30
0.0
 11
3.069999999999984
 21
4.473999999999989
 31
0.0
  0
LINE
  5
994DA9C2708C50AA
330
C829B246627CC81C
100
AcDbEntity
  8
LABEL
100
AcDbLine
 10
3.069999999999984
 20
4.473999999999989
 30
0.0
 11
3.10399999999999
 21
4.46299999999999
 31
0.0
  0
LINE
  5
994DA9C2708C50AB
330
C829B246627CC81C
100
AcDbEntity
  8
LABEL
100
AcDbLine
 10
3.198999999999989
 20
4.414999999999992
 30
0.0
 11
3.153999999999987
 21
4.414999999999992
 31
0.0
  0
LINE
  5
994DA9C2708C50AC
330
C829B246627CC81C
100
AcDbEntity
  8
LABEL
100
AcDbLine
 10
3.172749999999984
 20
4.488999999999991
 30
0.0
 11
3.225249999999986
 21
4.488999999999991
 31
0.0
  0
LINE
  5
994DA9C2708C50AD
330
C829B246627CC81C
100
AcDbEntity
  8
LABEL
100
AcDbLine
 10
3.291999999999985
 20
4.614999999999991
 30
0.0
 11
3.246999999999983
 21
4.614999999999991
 31
0.0
  0
LINE
  5
994DA9C2708C50AE
330
C829B246627CC81C
100
AcDbEntity
  8
LABEL
100
AcDbLine
 10
3.291999999999985
 20
4.614999999999991
 30
0.0
 11
3.291999999999985
 21
4.534999999999991
 31
0.0
  0
LINE
  5
994DA9C2708C50AF
330
C829B246627CC81C
100
AcDbEntity
  8
LABEL
100
AcDbLine
 10
3.265749999999988
 20
4.534999999999991
 30
0.0
 11
3.31824999999999
 21
4.534999999999991
 31
0.0
  0
LINE
  5
994DA9C2708C50B0
330
C829B246627CC81C
100
AcDbEntity
  8
LABEL
100
AcDbLine
 10
3.265749999999988
 20
4.504999999999991
 30
0.0
 11
3.31824999999999
 21
4.504999999999991
 31
0.0
  0
TEXT
  5
994DA9C2708C50B1
330
C829B246627CC81C
100
AcDbEntity
  8
LABEL
100
AcDbText
 10
3.205523809523797
 20
4.570285714285706
 30
0.0
 40
0.025
  1
+
  7
ADESK1
 72
     4
 11
3.220999999999987
 21
4.580999999999992
 31
0.0
100
AcDbText
  0
LINE
  5
994DA9C2708C50B2
330
C829B246627CC81C
100
AcDbEntity
  8
LABEL
100
AcDbLine
 10
3.198999999999989
 20
4.614999999999991
 30
0.0
 11
3.198999999999989
 21
4.551999999999992
 31
0.0
  0
LINE
  5
994DA9C2708C50B3
330
C829B246627CC81C
100
AcDbEntity
  8
LABEL
100
AcDbLine
 10
3.10399999999999
 20
4.614999999999991
 30
0.0
 11
3.10399999999999
 21
4.57799999999999
 31
0.0
  0
LINE
  5
994DA9C2708C50B4
330
C829B246627CC81C
100
AcDbEntity
  8
LABEL
100
AcDbLine
 10
3.10399999999999
 20
4.57799999999999
 30
0.0
 11
3.069999999999984
 21
4.566999999999985
 31
0.0
  0
LINE
  5
994DA9C2708C50B5
330
C829B246627CC81C
100
AcDbEntity
  8
LABEL
100
AcDbLine
 10
3.069999999999984
 20
4.566999999999985
 30
0.0
 11
3.119999999999981
 21
4.551499999999986
 31
0.0
  0
LINE
  5
994DA9C2708C50B6
330
C829B246627CC81C
100
AcDbEntity
  8
LABEL
100
AcDbLine
 10
3.119999999999981
 20
4.551499999999986
 30
0.0
 11
3.069999999999984
 21
4.535999999999987
 31
0.0
  0
LINE
  5
994DA9C2708C50B7
330
C829B246627CC81C
100
AcDbEntity
  8
LABEL
100
AcDbLine
 10
3.069999999999984
 20
4.535999999999987
 30
0.0
 11
3.119999999999981
 21
4.520499999999987
 31
0.0
  0
LINE
  5
994DA9C2708C50B8
330
C829B246627CC81C
100
AcDbEntity
  8
LABEL
100
AcDbLine
 10
3.119999999999981
 20
4.520499999999987
 30
0.0
 11
3.069999999999984
 21
4.504999999999988
 31
0.0
  0
LINE
  5
994DA9C2708C50B9
330
C829B246627CC81C
100
AcDbEntity
  8
LABEL
100
AcDbLine
 10
3.10399999999999
 20
4.614999999999991
 30
0.0
 11
3.058999999999988
 21
4.614999999999991
 31
0.0
  0
TEXT
  5
994DA9C2708C50BA
330
C829B246627CC81C
100
AcDbEntity
  8
LABEL
100
AcDbText
 10
2.924785714285701
 20
4.577499999999991
 30
0.0
 40
0.075
  1
2
  7
ADESK1
 72
     4
 11
2.960499999999987
 21
4.614999999999991
 31
0.0
100
AcDbText
  0
LINE
  5
994DA9C2708C50BB
330
C829B246627CC81C
100
AcDbEntity
  8
LABEL
100
AcDbLine
 10
3.172749999999984
 20
4.551999999999992
 30
0.0
 11
3.225249999999986
 21
4.551999999999992
 31
0.0
  0
LINE
  5
994DA9C2708C50BC
330
C829B246627CC81C
100
AcDbEntity
  8
LABEL
100
AcDbLine
 10
3.198999999999989
 20
4.614999999999991
 30
0.0
 11
3.153999999999987
 21
4.614999999999991
 31
0.0
  0
TEXT
  5
994DA9C2708C50BD
330
C829B246627CC81C
100
AcDbEntity
  8
LABEL
100
AcDbText
 10
7.530000000000001
 20
4.182500000000002
 30
0.0
 40
0.075
  1
C
  7
ADESK1
 72
     4
 11
7.5675
 21
4.220000000000002
 31
0.0
100
AcDbText
  0
LINE
  5
994DA9C2708C50BE
330
C829B246627CC81C
100
AcDbEntity
  8
LABEL
100
AcDbLine
 10
7.423999999999997
 20
4.214999999999999
 30
0.0
 11
7.468999999999999
 21
4.214999999999999
 31
0.0
  0
LINE
  5
994DA9C2708C50BF
330
C829B246627CC81C
100
AcDbEntity
  8
LABEL
100
AcDbLine
 10
7.423999999999997
 20
4.015
 30
0.0
 11
7.468999999999999
 21
4.015
 31
0.0
  0
LINE
  5
994DA9C2708C50C0
330
C829B246627CC81C
100
AcDbEntity
  8
LABEL
100
AcDbLine
 10
7.408000000000006
 20
4.140500000000002
 30
0.0
 11
7.458000000000003
 21
4.156000000000002
 31
0.0
  0
LINE
  5
994DA9C2708C50C1
330
C829B246627CC81C
100
AcDbEntity
  8
LABEL
100
AcDbLine
 10
7.458000000000003
 20
4.156000000000002
 30
0.0
 11
7.423999999999997
 21
4.167000000000001
 31
0.0
  0
LINE
  5
994DA9C2708C50C2
330
C829B246627CC81C
100
AcDbEntity
  8
LABEL
100
AcDbLine
 10
7.423999999999997
 20
4.052000000000001
 30
0.0
 11
7.458000000000003
 21
4.063000000000005
 31
0.0
  0
LINE
  5
994DA9C2708C50C3
330
C829B246627CC81C
100
AcDbEntity
  8
LABEL
100
AcDbLine
 10
7.458000000000003
 20
4.063000000000005
 30
0.0
 11
7.408000000000006
 21
4.078500000000005
 31
0.0
  0
LINE
  5
994DA9C2708C50C4
330
C829B246627CC81C
100
AcDbEntity
  8
LABEL
100
AcDbLine
 10
7.408000000000006
 20
4.078500000000005
 30
0.0
 11
7.458000000000003
 21
4.094000000000004
 31
0.0
  0
LINE
  5
994DA9C2708C50C5
330
C829B246627CC81C
100
AcDbEntity
  8
LABEL
100
AcDbLine
 10
7.458000000000003
 20
4.094000000000004
 30
0.0
 11
7.408000000000006
 21
4.109500000000004
 31
0.0
  0
LINE
  5
994DA9C2708C50C6
330
C829B246627CC81C
100
AcDbEntity
  8
LABEL
100
AcDbLine
 10
7.408000000000006
 20
4.109500000000004
 30
0.0
 11
7.458000000000003
 21
4.125000000000003
 31
0.0
  0
LINE
  5
994DA9C2708C50C7
330
C829B246627CC81C
100
AcDbEntity
  8
LABEL
100
AcDbLine
 10
7.458000000000003
 20
4.125000000000003
 30
0.0
 11
7.408000000000006
 21
4.140500000000002
 31
0.0
  0
LINE
  5
994DA9C2708C50C8
330
C829B246627CC81C
100
AcDbEntity
  8
LABEL
100
AcDbLine
 10
7.423999999999997
 20
3.814999999999999
 30
0.0
 11
7.468999999999985
 21
3.814999999999999
 31
0.0
  0
LINE
  5
994DA9C2708C50C9
330
C829B246627CC81C
100
AcDbEntity
  8
LABEL
100
AcDbLine
 10
7.457999999999989
 20
3.756000000000002
 30
0.0
 11
7.423999999999997
 21
3.767000000000001
 31
0.0
  0
LINE
  5
994DA9C2708C50CA
330
C829B246627CC81C
100
AcDbEntity
  8
LABEL
100
AcDbLine
 10
7.408000000000006
 20
3.740500000000003
 30
0.0
 11
7.457999999999989
 21
3.756000000000002
 31
0.0
  0
LINE
  5
994DA9C2708C50CB
330
C829B246627CC81C
100
AcDbEntity
  8
LABEL
100
AcDbLine
 10
7.457999999999989
 20
3.725000000000003
 30
0.0
 11
7.408000000000006
 21
3.740500000000003
 31
0.0
  0
LINE
  5
994DA9C2708C50CC
330
C829B246627CC81C
100
AcDbEntity
  8
LABEL
100
AcDbLine
 10
7.408000000000006
 20
3.709500000000004
 30
0.0
 11
7.457999999999989
 21
3.725000000000003
 31
0.0
  0
LINE
  5
994DA9C2708C50CD
330
C829B246627CC81C
100
AcDbEntity
  8
LABEL
100
AcDbLine
 10
7.457999999999989
 20
3.694000000000004
 30
0.0
 11
7.408000000000006
 21
3.709500000000004
 31
0.0
  0
LINE
  5
994DA9C2708C50CE
330
C829B246627CC81C
100
AcDbEntity
  8
LABEL
100
AcDbLine
 10
7.423999999999997
 20
3.814999999999999
 30
0.0
 11
7.423999999999997
 21
3.767000000000001
 31
0.0
  0
LINE
  5
994DA9C2708C50CF
330
C829B246627CC81C
100
AcDbEntity
  8
LABEL
100
AcDbLine
 10
7.328999999999998
 20
3.814999999999999
 30
0.0
 11
7.328999999999998
 21
3.741
 31
0.0
  0
LINE
  5
994DA9C2708C50D0
330
C829B246627CC81C
100
AcDbEntity
  8
LABEL
100
AcDbLine
 10
7.235999999999995
 20
3.814999999999999
 30
0.0
 11
7.235999999999995
 21
3.725
 31
0.0
  0
LINE
  5
994DA9C2708C50D1
330
C829B246627CC81C
100
AcDbEntity
  8
LABEL
100
AcDbLine
 10
7.328999999999998
 20
3.814999999999999
 30
0.0
 11
7.373999999999986
 21
3.814999999999999
 31
0.0
  0
LINE
  5
994DA9C2708C50D2
330
C829B246627CC81C
100
AcDbEntity
  8
LABEL
100
AcDbLine
 10
7.235999999999995
 20
3.814999999999999
 30
0.0
 11
7.280999999999997
 21
3.814999999999999
 31
0.0
  0
LINE
  5
994DA9C2708C50D3
330
C829B246627CC81C
100
AcDbEntity
  8
LABEL
100
AcDbLine
 10
7.355250000000003
 20
3.741
 30
0.0
 11
7.302749999999994
 21
3.741
 31
0.0
  0
LINE
  5
994DA9C2708C50D4
330
C829B246627CC81C
100
AcDbEntity
  8
LABEL
100
AcDbLine
 10
7.262249999999985
 20
3.725
 30
0.0
 11
7.20974999999999
 21
3.725
 31
0.0
  0
LINE
  5
994DA9C2708C50D5
330
C829B246627CC81C
100
AcDbEntity
  8
LABEL
100
AcDbLine
 10
7.262249999999985
 20
3.695
 30
0.0
 11
7.20974999999999
 21
3.695
 31
0.0
  0
LINE
  5
994DA9C2708C50D6
330
C829B246627CC81C
100
AcDbEntity
  8
LABEL
100
AcDbLine
 10
7.328999999999998
 20
4.214999999999999
 30
0.0
 11
7.374
 21
4.214999999999999
 31
0.0
  0
LINE
  5
994DA9C2708C50D7
330
C829B246627CC81C
100
AcDbEntity
  8
LABEL
100
AcDbLine
 10
7.235999999999995
 20
4.214999999999999
 30
0.0
 11
7.280999999999997
 21
4.214999999999999
 31
0.0
  0
LINE
  5
994DA9C2708C50D8
330
C829B246627CC81C
100
AcDbEntity
  8
LABEL
100
AcDbLine
 10
7.423999999999997
 20
4.015
 30
0.0
 11
7.423999999999997
 21
4.052000000000001
 31
0.0
  0
LINE
  5
994DA9C2708C50D9
330
C829B246627CC81C
100
AcDbEntity
  8
LABEL
100
AcDbLine
 10
7.328999999999998
 20
4.015
 30
0.0
 11
7.328999999999998
 21
4.077999999999999
 31
0.0
  0
LINE
  5
994DA9C2708C50DA
330
C829B246627CC81C
100
AcDbEntity
  8
LABEL
100
AcDbLine
 10
7.235999999999995
 20
4.015
 30
0.0
 11
7.235999999999995
 21
4.095
 31
0.0
  0
LINE
  5
994DA9C2708C50DB
330
C829B246627CC81C
100
AcDbEntity
  8
LABEL
100
AcDbLine
 10
7.328999999999998
 20
4.015
 30
0.0
 11
7.374
 21
4.015
 31
0.0
  0
LINE
  5
994DA9C2708C50DC
330
C829B246627CC81C
100
AcDbEntity
  8
LABEL
100
AcDbLine
 10
7.235999999999995
 20
4.015
 30
0.0
 11
7.280999999999997
 21
4.015
 31
0.0
  0
LINE
  5
994DA9C2708C50DD
330
C829B246627CC81C
100
AcDbEntity
  8
LABEL
100
AcDbLine
 10
7.355250000000003
 20
4.077999999999999
 30
0.0
 11
7.302749999999994
 21
4.077999999999999
 31
0.0
  0
LINE
  5
994DA9C2708C50DE
330
C829B246627CC81C
100
AcDbEntity
  8
LABEL
100
AcDbLine
 10
7.355250000000003
 20
4.141
 30
0.0
 11
7.302749999999994
 21
4.141
 31
0.0
  0
LINE
  5
994DA9C2708C50DF
330
C829B246627CC81C
100
AcDbEntity
  8
LABEL
100
AcDbLine
 10
7.355250000000003
 20
4.077999999999999
 30
0.0
 11
7.355250000000003
 21
4.141
 31
0.0
  0
TEXT
  5
994DA9C2708C50E0
330
C829B246627CC81C
100
AcDbEntity
  8
LABEL
100
AcDbText
 10
7.322476190476184
 20
4.059714285714285
 30
0.0
 40
0.025
  1
+
 50
180.0
  7
ADESK1
 72
     4
 11
7.306999999999993
 21
4.048999999999999
 31
0.0
100
AcDbText
  0
LINE
  5
994DA9C2708C50E1
330
C829B246627CC81C
100
AcDbEntity
  8
LABEL
100
AcDbLine
 10
7.302749999999994
 20
4.077999999999999
 30
0.0
 11
7.302749999999994
 21
4.141
 31
0.0
  0
LINE
  5
994DA9C2708C50E2
330
C829B246627CC81C
100
AcDbEntity
  8
LABEL
100
AcDbLine
 10
7.262249999999999
 20
4.095
 30
0.0
 11
7.20974999999999
 21
4.095
 31
0.0
  0
LINE
  5
994DA9C2708C50E3
330
C829B246627CC81C
100
AcDbEntity
  8
LABEL
100
AcDbLine
 10
7.262249999999999
 20
4.125
 30
0.0
 11
7.20974999999999
 21
4.125
 31
0.0
  0
LINE
  5
994DA9C2708C50E4
330
C829B246627CC81C
100
AcDbEntity
  8
LABEL
100
AcDbLine
 10
7.235999999999995
 20
4.214999999999999
 30
0.0
 11
7.235999999999995
 21
4.125
 31
0.0
  0
LINE
  5
994DA9C2708C50E5
330
C829B246627CC81C
100
AcDbEntity
  8
LABEL
100
AcDbLine
 10
7.328999999999998
 20
4.214999999999999
 30
0.0
 11
7.328999999999998
 21
4.141
 31
0.0
  0
LINE
  5
994DA9C2708C50E6
330
C829B246627CC81C
100
AcDbEntity
  8
LABEL
100
AcDbLine
 10
7.423999999999997
 20
4.214999999999999
 30
0.0
 11
7.423999999999997
 21
4.167000000000001
 31
0.0
  0
TEXT
  5
994DA9C2708C50E7
330
C829B246627CC81C
100
AcDbEntity
  8
LABEL
100
AcDbText
 10
7.529999999999986
 20
3.782500000000002
 30
0.0
 40
0.075
  1
C
  7
ADESK1
 72
     4
 11
7.567499999999986
 21
3.820000000000002
 31
0.0
100
AcDbText
  0
TEXT
  5
994DA9C2708C50E8
330
C829B246627CC81C
100
AcDbEntity
  8
LABEL
100
AcDbText
 10
7.488928571428572
 20
3.982500000000003
 30
0.0
 40
0.075
  1
14
  7
ADESK1
 72
     4
 11
7.5675
 21
4.020000000000003
 31
0.0
100
AcDbText
  0
LINE
  5
994DA9C2708C50E9
330
C829B246627CC81C
100
AcDbEntity
  8
LABEL
100
AcDbLine
 10
7.423999999999997
 20
4.615
 30
0.0
 11
7.468999999999999
 21
4.615
 31
0.0
  0
LINE
  5
994DA9C2708C50EA
330
C829B246627CC81C
100
AcDbEntity
  8
LABEL
100
AcDbLine
 10
7.458000000000003
 20
4.525000000000003
 30
0.0
 11
7.408000000000006
 21
4.540500000000003
 31
0.0
  0
LINE
  5
994DA9C2708C50EB
330
C829B246627CC81C
100
AcDbEntity
  8
LABEL
100
AcDbLine
 10
7.458000000000003
 20
4.556000000000002
 30
0.0
 11
7.423999999999997
 21
4.567000000000001
 31
0.0
  0
LINE
  5
994DA9C2708C50EC
330
C829B246627CC81C
100
AcDbEntity
  8
LABEL
100
AcDbLine
 10
7.408000000000006
 20
4.540500000000003
 30
0.0
 11
7.458000000000003
 21
4.556000000000002
 31
0.0
  0
LINE
  5
994DA9C2708C50ED
330
C829B246627CC81C
100
AcDbEntity
  8
LABEL
100
AcDbLine
 10
7.423999999999997
 20
4.415
 30
0.0
 11
7.468999999999999
 21
4.415
 31
0.0
  0
LINE
  5
994DA9C2708C50EE
330
C829B246627CC81C
100
AcDbEntity
  8
LABEL
100
AcDbLine
 10
7.408000000000006
 20
4.509500000000004
 30
0.0
 11
7.458000000000003
 21
4.525000000000003
 31
0.0
  0
LINE
  5
994DA9C2708C50EF
330
C829B246627CC81C
100
AcDbEntity
  8
LABEL
100
AcDbLine
 10
7.458000000000003
 20
4.494000000000005
 30
0.0
 11
7.408000000000006
 21
4.509500000000004
 31
0.0
  0
LINE
  5
994DA9C2708C50F0
330
C829B246627CC81C
100
AcDbEntity
  8
LABEL
100
AcDbLine
 10
7.408000000000006
 20
4.478500000000005
 30
0.0
 11
7.458000000000003
 21
4.494000000000005
 31
0.0
  0
LINE
  5
994DA9C2708C50F1
330
C829B246627CC81C
100
AcDbEntity
  8
LABEL
100
AcDbLine
 10
7.458000000000003
 20
4.463000000000006
 30
0.0
 11
7.408000000000006
 21
4.478500000000005
 31
0.0
  0
LINE
  5
994DA9C2708C50F2
330
C829B246627CC81C
100
AcDbEntity
  8
LABEL
100
AcDbLine
 10
7.423999999999997
 20
4.452000000000001
 30
0.0
 11
7.458000000000003
 21
4.463000000000006
 31
0.0
  0
LINE
  5
994DA9C2708C50F3
330
C829B246627CC81C
100
AcDbEntity
  8
LABEL
100
AcDbLine
 10
7.355250000000003
 20
4.477999999999999
 30
0.0
 11
7.355250000000003
 21
4.541
 31
0.0
  0
LINE
  5
994DA9C2708C50F4
330
C829B246627CC81C
100
AcDbEntity
  8
LABEL
100
AcDbLine
 10
7.302749999999994
 20
4.477999999999999
 30
0.0
 11
7.302749999999994
 21
4.541
 31
0.0
  0
LINE
  5
994DA9C2708C50F5
330
C829B246627CC81C
100
AcDbEntity
  8
LABEL
100
AcDbLine
 10
7.328999999999998
 20
4.415
 30
0.0
 11
7.374
 21
4.415
 31
0.0
  0
LINE
  5
994DA9C2708C50F6
330
C829B246627CC81C
100
AcDbEntity
  8
LABEL
100
AcDbLine
 10
7.355250000000003
 20
4.477999999999999
 30
0.0
 11
7.302749999999994
 21
4.477999999999999
 31
0.0
  0
LINE
  5
994DA9C2708C50F7
330
C829B246627CC81C
100
AcDbEntity
  8
LABEL
100
AcDbLine
 10
7.423999999999997
 20
4.415
 30
0.0
 11
7.423999999999997
 21
4.452000000000001
 31
0.0
  0
TEXT
  5
994DA9C2708C50F8
330
C829B246627CC81C
100
AcDbEntity
  8
LABEL
100
AcDbText
 10
7.322476190476184
 20
4.459714285714285
 30
0.0
 40
0.025
  1
+
 50
180.0
  7
ADESK1
 72
     4
 11
7.306999999999993
 21
4.448999999999999
 31
0.0
100
AcDbText
  0
LINE
  5
994DA9C2708C50F9
330
C829B246627CC81C
100
AcDbEntity
  8
LABEL
100
AcDbLine
 10
7.328999999999998
 20
4.415
 30
0.0
 11
7.328999999999998
 21
4.477999999999999
 31
0.0
  0
LINE
  5
994DA9C2708C50FA
330
C829B246627CC81C
100
AcDbEntity
  8
LABEL
100
AcDbLine
 10
7.235999999999995
 20
4.415
 30
0.0
 11
7.280999999999997
 21
4.415
 31
0.0
  0
LINE
  5
994DA9C2708C50FB
330
C829B246627CC81C
100
AcDbEntity
  8
LABEL
100
AcDbLine
 10
7.262249999999999
 20
4.495
 30
0.0
 11
7.20974999999999
 21
4.495
 31
0.0
  0
LINE
  5
994DA9C2708C50FC
330
C829B246627CC81C
100
AcDbEntity
  8
LABEL
100
AcDbLine
 10
7.235999999999995
 20
4.415
 30
0.0
 11
7.235999999999995
 21
4.495
 31
0.0
  0
LINE
  5
994DA9C2708C50FD
330
C829B246627CC81C
100
AcDbEntity
  8
LABEL
100
AcDbLine
 10
7.328999999999998
 20
4.615
 30
0.0
 11
7.374
 21
4.615
 31
0.0
  0
LINE
  5
994DA9C2708C50FE
330
C829B246627CC81C
100
AcDbEntity
  8
LABEL
100
AcDbLine
 10
7.235999999999995
 20
4.615
 30
0.0
 11
7.280999999999997
 21
4.615
 31
0.0
  0
LINE
  5
994DA9C2708C50FF
330
C829B246627CC81C
100
AcDbEntity
  8
LABEL
100
AcDbLine
 10
7.355250000000003
 20
4.541
 30
0.0
 11
7.302749999999994
 21
4.541
 31
0.0
  0
LINE
  5
994DA9C2708C5100
330
C829B246627CC81C
100
AcDbEntity
  8
LABEL
100
AcDbLine
 10
7.262249999999999
 20
4.525
 30
0.0
 11
7.20974999999999
 21
4.525
 31
0.0
  0
LINE
  5
994DA9C2708C5101
330
C829B246627CC81C
100
AcDbEntity
  8
LABEL
100
AcDbLine
 10
7.235999999999995
 20
4.615
 30
0.0
 11
7.235999999999995
 21
4.525
 31
0.0
  0
LINE
  5
994DA9C2708C5102
330
C829B246627CC81C
100
AcDbEntity
  8
LABEL
100
AcDbLine
 10
7.423999999999997
 20
4.615
 30
0.0
 11
7.423999999999997
 21
4.567000000000001
 31
0.0
  0
LINE
  5
994DA9C2708C5103
330
C829B246627CC81C
100
AcDbEntity
  8
LABEL
100
AcDbLine
 10
7.328999999999998
 20
4.615
 30
0.0
 11
7.328999999999998
 21
4.541
 31
0.0
  0
TEXT
  5
994DA9C2708C5104
330
C829B246627CC81C
100
AcDbEntity
  8
LABEL
100
AcDbText
 10
7.490714285714286
 20
4.382500000000002
 30
0.0
 40
0.075
  1
15
  7
ADESK1
 72
     4
 11
7.5675
 21
4.420000000000001
 31
0.0
100
AcDbText
  0
TEXT
  5
994DA9C2708C5105
330
C829B246627CC81C
100
AcDbEntity
  8
LABEL
100
AcDbText
 10
7.530000000000001
 20
4.582500000000001
 30
0.0
 40
0.075
  1
C
  7
ADESK1
 72
     4
 11
7.5675
 21
4.62
 31
0.0
100
AcDbText
  0
LWPOLYLINE
  5
994DA9C2708C5106
330
C829B246627CC81C
100
AcDbEntity
  8
LABEL
100
AcDbPolyline
 90
        3
 70
     0
 43
0.02
 10
3.384999999999996
 20
5.580999999999994
 10
3.384999999999996
 20
5.204999999999992
 10
3.263999999999994
 20
5.204999999999992
  0
TEXT
  5
994DA9C2708C510B
330
C829B246627CC81C
100
AcDbEntity
  8
LABEL
100
AcDbText
 10
2.930142857142844
 20
4.977499999999992
 30
0.0
 40
0.075
  1
1
  7
ADESK1
 72
     4
 11
2.960499999999987
 21
5.014999999999991
 31
0.0
100
AcDbText
  0
LINE
  5
994DA9C2708C510C
330
C829B246627CC81C
100
AcDbEntity
  8
LABEL
100
AcDbLine
 10
3.10399999999999
 20
5.014999999999991
 30
0.0
 11
3.058999999999988
 21
5.014999999999991
 31
0.0
  0
LINE
  5
994DA9C2708C510D
330
C829B246627CC81C
100
AcDbEntity
  8
LABEL
100
AcDbLine
 10
3.069999999999984
 20
4.873999999999989
 30
0.0
 11
3.10399999999999
 21
4.86299999999999
 31
0.0
  0
LINE
  5
994DA9C2708C510E
330
C829B246627CC81C
100
AcDbEntity
  8
LABEL
100
AcDbLine
 10
3.119999999999981
 20
4.889499999999989
 30
0.0
 11
3.069999999999984
 21
4.873999999999989
 31
0.0
  0
LINE
  5
994DA9C2708C510F
330
C829B246627CC81C
100
AcDbEntity
  8
LABEL
100
AcDbLine
 10
3.069999999999984
 20
4.904999999999988
 30
0.0
 11
3.119999999999981
 21
4.889499999999989
 31
0.0
  0
LINE
  5
994DA9C2708C5110
330
C829B246627CC81C
100
AcDbEntity
  8
LABEL
100
AcDbLine
 10
3.119999999999981
 20
4.920499999999988
 30
0.0
 11
3.069999999999984
 21
4.904999999999988
 31
0.0
  0
LINE
  5
994DA9C2708C5111
330
C829B246627CC81C
100
AcDbEntity
  8
LABEL
100
AcDbLine
 10
3.069999999999984
 20
4.935999999999987
 30
0.0
 11
3.119999999999981
 21
4.920499999999988
 31
0.0
  0
LINE
  5
994DA9C2708C5112
330
C829B246627CC81C
100
AcDbEntity
  8
LABEL
100
AcDbLine
 10
3.119999999999981
 20
4.951499999999986
 30
0.0
 11
3.069999999999984
 21
4.935999999999987
 31
0.0
  0
LINE
  5
994DA9C2708C5113
330
C829B246627CC81C
100
AcDbEntity
  8
LABEL
100
AcDbLine
 10
3.069999999999984
 20
4.966999999999986
 30
0.0
 11
3.119999999999981
 21
4.951499999999986
 31
0.0
  0
LINE
  5
994DA9C2708C5114
330
C829B246627CC81C
100
AcDbEntity
  8
LABEL
100
AcDbLine
 10
3.10399999999999
 20
4.97799999999999
 30
0.0
 11
3.069999999999984
 21
4.966999999999986
 31
0.0
  0
LINE
  5
994DA9C2708C5115
330
C829B246627CC81C
100
AcDbEntity
  8
LABEL
100
AcDbLine
 10
3.10399999999999
 20
5.014999999999991
 30
0.0
 11
3.10399999999999
 21
4.97799999999999
 31
0.0
  0
LINE
  5
994DA9C2708C5116
330
C829B246627CC81C
100
AcDbEntity
  8
LABEL
100
AcDbLine
 10
3.198999999999989
 20
5.014999999999991
 30
0.0
 11
3.153999999999987
 21
5.014999999999991
 31
0.0
  0
LINE
  5
994DA9C2708C5117
330
C829B246627CC81C
100
AcDbEntity
  8
LABEL
100
AcDbLine
 10
3.198999999999989
 20
5.014999999999991
 30
0.0
 11
3.198999999999989
 21
4.951999999999992
 31
0.0
  0
LINE
  5
994DA9C2708C5118
330
C829B246627CC81C
100
AcDbEntity
  8
LABEL
100
AcDbLine
 10
3.172749999999984
 20
4.888999999999992
 30
0.0
 11
3.225249999999986
 21
4.888999999999992
 31
0.0
  0
LINE
  5
994DA9C2708C5119
330
C829B246627CC81C
100
AcDbEntity
  8
LABEL
100
AcDbLine
 10
3.172749999999984
 20
4.951999999999992
 30
0.0
 11
3.225249999999986
 21
4.951999999999992
 31
0.0
  0
LINE
  5
994DA9C2708C511A
330
C829B246627CC81C
100
AcDbEntity
  8
LABEL
100
AcDbLine
 10
3.225249999999986
 20
4.951999999999992
 30
0.0
 11
3.225249999999986
 21
4.888999999999992
 31
0.0
  0
LINE
  5
994DA9C2708C511B
330
C829B246627CC81C
100
AcDbEntity
  8
LABEL
100
AcDbLine
 10
3.172749999999984
 20
4.951999999999992
 30
0.0
 11
3.172749999999984
 21
4.888999999999992
 31
0.0
  0
TEXT
  5
994DA9C2708C511C
330
C829B246627CC81C
100
AcDbEntity
  8
LABEL
100
AcDbText
 10
3.205523809523797
 20
4.970285714285706
 30
0.0
 40
0.025
  1
+
  7
ADESK1
 72
     4
 11
3.220999999999987
 21
4.980999999999992
 31
0.0
100
AcDbText
  0
LINE
  5
994DA9C2708C511D
330
C829B246627CC81C
100
AcDbEntity
  8
LABEL
100
AcDbLine
 10
3.265749999999988
 20
4.904999999999992
 30
0.0
 11
3.31824999999999
 21
4.904999999999992
 31
0.0
  0
LINE
  5
994DA9C2708C511E
330
C829B246627CC81C
100
AcDbEntity
  8
LABEL
100
AcDbLine
 10
3.265749999999988
 20
4.934999999999991
 30
0.0
 11
3.31824999999999
 21
4.934999999999991
 31
0.0
  0
LINE
  5
994DA9C2708C511F
330
C829B246627CC81C
100
AcDbEntity
  8
LABEL
100
AcDbLine
 10
3.291999999999985
 20
5.014999999999991
 30
0.0
 11
3.291999999999985
 21
4.934999999999991
 31
0.0
  0
LINE
  5
994DA9C2708C5120
330
C829B246627CC81C
100
AcDbEntity
  8
LABEL
100
AcDbLine
 10
3.291999999999985
 20
5.014999999999991
 30
0.0
 11
3.246999999999983
 21
5.014999999999991
 31
0.0
  0
LINE
  5
994DA9C2708C5121
330
C829B246627CC81C
100
AcDbEntity
  8
LABEL
100
AcDbLine
 10
3.10399999999999
 20
4.814999999999992
 30
0.0
 11
3.058999999999988
 21
4.814999999999992
 31
0.0
  0
LINE
  5
994DA9C2708C5122
330
C829B246627CC81C
100
AcDbEntity
  8
LABEL
100
AcDbLine
 10
3.198999999999989
 20
4.814999999999992
 30
0.0
 11
3.153999999999987
 21
4.814999999999992
 31
0.0
  0
LINE
  5
994DA9C2708C5123
330
C829B246627CC81C
100
AcDbEntity
  8
LABEL
100
AcDbLine
 10
3.291999999999985
 20
4.814999999999992
 30
0.0
 11
3.246999999999983
 21
4.814999999999992
 31
0.0
  0
LINE
  5
994DA9C2708C5124
330
C829B246627CC81C
100
AcDbEntity
  8
LABEL
100
AcDbLine
 10
3.10399999999999
 20
4.814999999999992
 30
0.0
 11
3.10399999999999
 21
4.86299999999999
 31
0.0
  0
LINE
  5
994DA9C2708C5125
330
C829B246627CC81C
100
AcDbEntity
  8
LABEL
100
AcDbLine
 10
3.198999999999989
 20
4.814999999999992
 30
0.0
 11
3.198999999999989
 21
4.888999999999992
 31
0.0
  0
LINE
  5
994DA9C2708C5126
330
C829B246627CC81C
100
AcDbEntity
  8
LABEL
100
AcDbLine
 10
3.291999999999985
 20
4.814999999999992
 30
0.0
 11
3.291999999999985
 21
4.904999999999992
 31
0.0
  0
TEXT
  5
994DA9C2708C5127
330
C829B246627CC81C
100
AcDbEntity
  8
LABEL
100
AcDbText
 10
2.922999999999987
 20
4.777499999999992
 30
0.0
 40
0.075
  1
C
  7
ADESK1
 72
     4
 11
2.960499999999987
 21
4.814999999999992
 31
0.0
100
AcDbText
  0
TEXT
  5
994DA9C2708C5128
330
C829B246627CC81C
100
AcDbEntity
  8
LABEL
100
AcDbText
 10
5.106500000000008
 20
5.601499999999999
 30
0.0
 40
0.075
  1
Address
  7
ADESK1
 72
     4
 11
5.319000000000007
 21
5.638999999999999
 31
0.0
100
AcDbText
  0
TEXT
  5
994DA9C2708C5129
330
C829B246627CC81C
100
AcDbEntity
  8
LABEL
100
AcDbText
 10
5.095785714285722
 20
5.7095
 30
0.0
 40
0.075
  1
Network
  7
ADESK1
 72
     4
 11
5.319000000000007
 21
5.746999999999999
 31
0.0
100
AcDbText
  0
LINE
  5
994DA9C2708C512A
330
C829B246627CC81C
100
AcDbEntity
  8
LABEL
100
AcDbLine
 10
5.693000000000003
 20
5.820999999999997
 30
0.0
 11
4.944999999999998
 21
5.820999999999997
 31
0.0
  0
LINE
  5
994DA9C2708C512B
330
C829B246627CC81C
100
AcDbEntity
  8
CASE
100
AcDbLine
 10
5.669000000000002
 20
5.844999999999997
 30
0.0
 11
4.968999999999999
 21
5.844999999999997
 31
0.0
  0
LWPOLYLINE
  5
994DA9C2708C512C
330
C829B246627CC81C
100
AcDbEntity
  8
LABEL
100
AcDbPolyline
 90
        3
 70
     0
 43
0.02
 10
7.142999999999991
 20
5.580999999999994
 10
7.142999999999991
 20
5.204999999999992
 10
7.264000000000001
 20
5.204999999999992
  0
LINE
  5
994DA9C2708C5131
330
C829B246627CC81C
100
AcDbEntity
  8
CASE
100
AcDbLine
 10
7.714000000000003
 20
5.184999999999996
 30
0.0
 11
7.289000000000006
 21
5.184999999999996
 31
0.0
  0
LINE
  5
994DA9C2708C5132
330
C829B246627CC81C
100
AcDbEntity
  8
LABEL
100
AcDbLine
 10
7.458000000000003
 20
4.956000000000003
 30
0.0
 11
7.423999999999997
 21
4.967000000000002
 31
0.0
  0
LINE
  5
994DA9C2708C5133
330
C829B246627CC81C
100
AcDbEntity
  8
LABEL
100
AcDbLine
 10
7.423999999999997
 20
5.015
 30
0.0
 11
7.468999999999999
 21
5.015
 31
0.0
  0
LINE
  5
994DA9C2708C5134
330
C829B246627CC81C
100
AcDbEntity
  8
LABEL
100
AcDbLine
 10
7.458000000000003
 20
4.894000000000005
 30
0.0
 11
7.408000000000006
 21
4.909500000000004
 31
0.0
  0
LINE
  5
994DA9C2708C5135
330
C829B246627CC81C
100
AcDbEntity
  8
LABEL
100
AcDbLine
 10
7.408000000000006
 20
4.909500000000004
 30
0.0
 11
7.458000000000003
 21
4.925000000000004
 31
0.0
  0
LINE
  5
994DA9C2708C5136
330
C829B246627CC81C
100
AcDbEntity
  8
LABEL
100
AcDbLine
 10
7.458000000000003
 20
4.925000000000004
 30
0.0
 11
7.408000000000006
 21
4.940500000000003
 31
0.0
  0
LINE
  5
994DA9C2708C5137
330
C829B246627CC81C
100
AcDbEntity
  8
LABEL
100
AcDbLine
 10
7.423999999999997
 20
4.852000000000002
 30
0.0
 11
7.458000000000003
 21
4.863000000000006
 31
0.0
  0
LINE
  5
994DA9C2708C5138
330
C829B246627CC81C
100
AcDbEntity
  8
LABEL
100
AcDbLine
 10
7.458000000000003
 20
4.863000000000006
 30
0.0
 11
7.408000000000006
 21
4.878500000000006
 31
0.0
  0
LINE
  5
994DA9C2708C5139
330
C829B246627CC81C
100
AcDbEntity
  8
LABEL
100
AcDbLine
 10
7.423999999999997
 20
4.815000000000001
 30
0.0
 11
7.468999999999999
 21
4.815000000000001
 31
0.0
  0
LINE
  5
994DA9C2708C513A
330
C829B246627CC81C
100
AcDbEntity
  8
LABEL
100
AcDbLine
 10
7.408000000000006
 20
4.878500000000006
 30
0.0
 11
7.458000000000003
 21
4.894000000000005
 31
0.0
  0
LINE
  5
994DA9C2708C513B
330
C829B246627CC81C
100
AcDbEntity
  8
LABEL
100
AcDbLine
 10
7.408000000000006
 20
4.940500000000003
 30
0.0
 11
7.458000000000003
 21
4.956000000000003
 31
0.0
  0
LINE
  5
994DA9C2708C513C
330
C829B246627CC81C
100
AcDbEntity
  8
LABEL
100
AcDbLine
 10
7.264000000000001
 20
5.160999999999994
 30
0.0
 11
7.688999999999998
 21
5.160999999999994
 31
0.0
  0
LINE
  5
994DA9C2708C513D
330
C829B246627CC81C
100
AcDbEntity
  8
LABEL
100
AcDbLine
 10
7.423999999999997
 20
5.015
 30
0.0
 11
7.423999999999997
 21
4.967000000000002
 31
0.0
  0
LINE
  5
994DA9C2708C513E
330
C829B246627CC81C
100
AcDbEntity
  8
LABEL
100
AcDbLine
 10
7.328999999999998
 20
5.015
 30
0.0
 11
7.374
 21
5.015
 31
0.0
  0
LINE
  5
994DA9C2708C513F
330
C829B246627CC81C
100
AcDbEntity
  8
LABEL
100
AcDbLine
 10
7.235999999999995
 20
5.015
 30
0.0
 11
7.280999999999997
 21
5.015
 31
0.0
  0
LINE
  5
994DA9C2708C5140
330
C829B246627CC81C
100
AcDbEntity
  8
LABEL
100
AcDbLine
 10
7.355250000000003
 20
4.878
 30
0.0
 11
7.355250000000003
 21
4.941
 31
0.0
  0
LINE
  5
994DA9C2708C5141
330
C829B246627CC81C
100
AcDbEntity
  8
LABEL
100
AcDbLine
 10
7.302749999999994
 20
4.878
 30
0.0
 11
7.302749999999994
 21
4.941
 31
0.0
  0
LINE
  5
994DA9C2708C5142
330
C829B246627CC81C
100
AcDbEntity
  8
LABEL
100
AcDbLine
 10
7.355250000000003
 20
4.941
 30
0.0
 11
7.302749999999994
 21
4.941
 31
0.0
  0
LINE
  5
994DA9C2708C5143
330
C829B246627CC81C
100
AcDbEntity
  8
LABEL
100
AcDbLine
 10
7.262249999999999
 20
4.925
 30
0.0
 11
7.20974999999999
 21
4.925
 31
0.0
  0
LINE
  5
994DA9C2708C5144
330
C829B246627CC81C
100
AcDbEntity
  8
LABEL
100
AcDbLine
 10
7.355250000000003
 20
4.878
 30
0.0
 11
7.302749999999994
 21
4.878
 31
0.0
  0
LINE
  5
994DA9C2708C5145
330
C829B246627CC81C
100
AcDbEntity
  8
LABEL
100
AcDbLine
 10
7.328999999999998
 20
4.815000000000001
 30
0.0
 11
7.374
 21
4.815000000000001
 31
0.0
  0
LINE
  5
994DA9C2708C5146
330
C829B246627CC81C
100
AcDbEntity
  8
LABEL
100
AcDbLine
 10
7.423999999999997
 20
4.815000000000001
 30
0.0
 11
7.423999999999997
 21
4.852000000000002
 31
0.0
  0
LINE
  5
994DA9C2708C5147
330
C829B246627CC81C
100
AcDbEntity
  8
LABEL
100
AcDbLine
 10
7.328999999999998
 20
4.815000000000001
 30
0.0
 11
7.328999999999998
 21
4.878
 31
0.0
  0
TEXT
  5
994DA9C2708C5148
330
C829B246627CC81C
100
AcDbEntity
  8
LABEL
100
AcDbText
 10
7.322476190476184
 20
4.859714285714286
 30
0.0
 40
0.025
  1
+
 50
180.0
  7
ADESK1
 72
     4
 11
7.306999999999993
 21
4.849
 31
0.0
100
AcDbText
  0
LINE
  5
994DA9C2708C5149
330
C829B246627CC81C
100
AcDbEntity
  8
LABEL
100
AcDbLine
 10
7.235999999999995
 20
4.815000000000001
 30
0.0
 11
7.280999999999997
 21
4.815000000000001
 31
0.0
  0
LINE
  5
994DA9C2708C514A
330
C829B246627CC81C
100
AcDbEntity
  8
LABEL
100
AcDbLine
 10
7.262249999999999
 20
4.895000000000001
 30
0.0
 11
7.20974999999999
 21
4.895000000000001
 31
0.0
  0
LINE
  5
994DA9C2708C514B
330
C829B246627CC81C
100
AcDbEntity
  8
LABEL
100
AcDbLine
 10
7.235999999999995
 20
4.815000000000001
 30
0.0
 11
7.235999999999995
 21
4.895000000000001
 31
0.0
  0
LINE
  5
994DA9C2708C514C
330
C829B246627CC81C
100
AcDbEntity
  8
LABEL
100
AcDbLine
 10
7.328999999999998
 20
5.015
 30
0.0
 11
7.328999999999998
 21
4.941
 31
0.0
  0
LINE
  5
994DA9C2708C514D
330
C829B246627CC81C
100
AcDbEntity
  8
LABEL
100
AcDbLine
 10
7.235999999999995
 20
5.015
 30
0.0
 11
7.235999999999995
 21
4.925
 31
0.0
  0
TEXT
  5
994DA9C2708C514E
330
C829B246627CC81C
100
AcDbEntity
  8
LABEL
100
AcDbText
 10
7.530000000000001
 20
4.982500000000001
 30
0.0
 40
0.075
  1
C
  7
ADESK1
 72
     4
 11
7.5675
 21
5.020000000000001
 31
0.0
100
AcDbText
  0
TEXT
  5
994DA9C2708C514F
330
C829B246627CC81C
100
AcDbEntity
  8
LABEL
100
AcDbText
 10
7.490714285714286
 20
4.782500000000002
 30
0.0
 40
0.075
  1
16
  7
ADESK1
 72
     4
 11
7.5675
 21
4.820000000000002
 31
0.0
100
AcDbText
  0
LINE
  5
994DA9C2708C5150
330
C829B246627CC81C
100
AcDbEntity
  8
LABEL
100
AcDbLine
 10
8.11599999999999
 20
6.359999999999995
 30
0.0
 11
5.693000000000003
 21
6.359999999999995
 31
0.0
  0
LWPOLYLINE
  5
994DA9C2708C5151
330
C829B246627CC81C
100
AcDbEntity
  8
LABEL
100
AcDbPolyline
 90
        3
 70
     0
 43
0.02
 10
3.263999999999994
 20
6.323
 10
3.384999999999996
 20
6.323
 10
3.384999999999996
 20
5.945999999999994
  0
LINE
  5
994DA9C2708C5156
330
C829B246627CC81C
100
AcDbEntity
  8
LABEL
100
AcDbLine
 10
3.011999999999984
 20
6.30199999999998
 30
0.0
 11
2.941999999999984
 21
6.30199999999998
 31
0.0
  0
SOLID
  5
994DA9C2708C5157
330
C829B246627CC81C
100
AcDbEntity
  8
LABEL
100
AcDbTrace
 10
3.011999999999984
 20
6.331999999999981
 30
0.0
 11
3.011999999999984
 21
6.271999999999978
 31
0.0
 12
3.060999999999983
 22
6.30199999999998
 32
0.0
 13
3.060999999999983
 23
6.30199999999998
 33
0.0
  0
TEXT
  5
994DA9C2708C5158
330
C829B246627CC81C
100
AcDbEntity
  8
LABEL
100
AcDbText
 10
2.911214285714282
 20
6.167499999999993
 30
0.0
 40
0.075
  1
Isrc
  7
ADESK1
 72
     4
 11
3.012999999999996
 21
6.204999999999992
 31
0.0
100
AcDbText
  0
LINE
  5
994DA9C2708C5159
330
C829B246627CC81C
100
AcDbEntity
  8
CASE
100
AcDbLine
 10
5.669000000000002
 20
6.337000000000001
 30
0.0
 11
4.968999999999999
 21
6.337000000000001
 31
0.0
  0
ARC
  5
994DA9C2708C515A
330
C829B246627CC81C
100
AcDbEntity
  8
CASE
100
AcDbCircle
 10
8.639000000000001
 20
6.259999999999996
 30
0.0
 40
0.1249999999999982
100
AcDbArc
 50
0.0000000000007888
 51
90.00000000000078
  0
LINE
  5
994DA9C2708C515B
330
C829B246627CC81C
100
AcDbEntity
  8
CASE
100
AcDbLine
 10
7.289000000000006
 20
6.124999999999998
 30
0.0
 11
8.264000000000001
 21
6.124999999999998
 31
0.0
  0
TEXT
  5
994DA9C2708C515C
330
C829B246627CC81C
100
AcDbEntity
  8
LABEL
100
AcDbText
 10
7.407214285714276
 20
6.167499999999993
 30
0.0
 40
0.075
  1
Isrc
  7
ADESK1
 72
     4
 11
7.508999999999991
 21
6.204999999999992
 31
0.0
100
AcDbText
  0
LINE
  5
994DA9C2708C515D
330
C829B246627CC81C
100
AcDbEntity
  8
LABEL
100
AcDbLine
 10
8.11599999999999
 20
6.147999999999994
 30
0.0
 11
7.264000000000001
 21
6.147999999999994
 31
0.0
  0
LWPOLYLINE
  5
994DA9C2708C515E
330
C829B246627CC81C
100
AcDbEntity
  8
LABEL
100
AcDbPolyline
 90
        3
 70
     0
 43
0.02
 10
7.264000000000001
 20
6.323
 10
7.142999999999991
 20
6.323
 10
7.142999999999991
 20
5.945999999999994
  0
LINE
  5
994DA9C2708C5163
330
C829B246627CC81C
100
AcDbEntity
  8
LABEL
100
AcDbLine
 10
7.932000000000007
 20
6.30199999999998
 30
0.0
 11
8.002
 21
6.30199999999998
 31
0.0
  0
SOLID
  5
994DA9C2708C5164
330
C829B246627CC81C
100
AcDbEntity
  8
LABEL
100
AcDbTrace
 10
7.932000000000007
 20
6.331999999999981
 30
0.0
 11
7.932000000000007
 21
6.271999999999978
 31
0.0
 12
7.883
 22
6.30199999999998
 32
0.0
 13
7.883
 23
6.30199999999998
 33
0.0
  0
TEXT
  5
994DA9C2708C5165
330
C829B246627CC81C
100
AcDbEntity
  8
LABEL
100
AcDbText
 10
7.770285714285717
 20
6.167499999999993
 30
0.0
 40
0.075
  1
20mA
  7
ADESK1
 72
     4
 11
7.931000000000002
 21
6.204999999999992
 31
0.0
100
AcDbText
  0
LWPOLYLINE
  5
994DA9C2708C5166
330
C829B246627CC81C
100
AcDbEntity
  8
LABEL
100
AcDbPolyline
 90
        2
 70
     0
 43
0.02
 10
7.715999999999999
 20
6.359999999999994
 10
7.715999999999999
 20
6.145999999999995
  0
LINE
  5
994DA9C2708C516A
330
C829B246627CC81C
100
AcDbEntity
  8
LABEL
100
AcDbLine
 10
7.51000000000001
 20
6.30199999999998
 30
0.0
 11
7.580000000000003
 21
6.30199999999998
 31
0.0
  0
SOLID
  5
994DA9C2708C516B
330
C829B246627CC81C
100
AcDbEntity
  8
LABEL
100
AcDbTrace
 10
7.51000000000001
 20
6.331999999999981
 30
0.0
 11
7.51000000000001
 21
6.271999999999978
 31
0.0
 12
7.461000000000003
 22
6.30199999999998
 32
0.0
 13
7.461000000000003
 23
6.30199999999998
 33
0.0
  0
LINE
  5
994DA9C2708C516C
330
C829B246627CC81C
100
AcDbEntity
  8
LABEL
100
AcDbLine
 10
8.11599999999999
 20
6.359999999999995
 30
0.0
 11
8.11599999999999
 21
6.147999999999994
 31
0.0
  0
LWPOLYLINE
  5
F7B6FDAF6BC6C6CA
330
C829B246627CC81C
100
AcDbEntity
  8
COMP
100
AcDbPolyline
 90
        6
 70
     1
 43
0.01
 10
4.962999999999989
 20
5.859
 10
4.962999999999989
 20
6.234
 10
5.671999999999999
 20
6.234
 10
5.671999999999999
 20
5.834
 10
4.962999999999989
 20
5.834
 10
4.962999999999989
 20
5.859
  0
LINE
  5
F7B6FDAF6BC6C6CB
330
C829B246627CC81C
100
AcDbEntity
  8
COMP
100
AcDbLine
 10
5.094999999999987
 20
5.959999999999997
 30
0.0
 11
5.094999999999987
 21
6.097999999999997
 31
0.0
  0
LINE
  5
F7B6FDAF6BC6C6CC
330
C829B246627CC81C
100
AcDbEntity
  8
COMP
100
AcDbLine
 10
5.030999999999987
 20
6.097999999999997
 30
0.0
 11
5.030999999999987
 21
5.959999999999997
 31
0.0
  0
LINE
  5
F7B6FDAF6BC6C6CD
330
C829B246627CC81C
100
AcDbEntity
  8
COMP
100
AcDbLine
 10
5.079999999999986
 20
6.065999999999997
 30
0.0
 11
5.079999999999986
 21
5.994999999999997
 31
0.0
  0
LINE
  5
F7B6FDAF6BC6C6CE
330
C829B246627CC81C
100
AcDbEntity
  8
COMP
100
AcDbLine
 10
5.046999999999985
 20
5.994999999999997
 30
0.0
 11
5.046999999999985
 21
6.065999999999997
 31
0.0
  0
LINE
  5
F7B6FDAF6BC6C6CF
330
C829B246627CC81C
100
AcDbEntity
  8
COMP
100
AcDbLine
 10
5.046999999999985
 20
5.997999999999997
 30
0.0
 11
5.079999999999986
 21
5.997999999999997
 31
0.0
  0
LINE
  5
F7B6FDAF6BC6C6D0
330
C829B246627CC81C
100
AcDbEntity
  8
COMP
100
AcDbLine
 10
5.046999999999985
 20
6.000999999999997
 30
0.0
 11
5.079999999999986
 21
6.000999999999997
 31
0.0
  0
LINE
  5
F7B6FDAF6BC6C6D1
330
C829B246627CC81C
100
AcDbEntity
  8
COMP
100
AcDbLine
 10
5.046999999999985
 20
6.004999999999997
 30
0.0
 11
5.079999999999986
 21
6.004999999999997
 31
0.0
  0
LINE
  5
F7B6FDAF6BC6C6D2
330
C829B246627CC81C
100
AcDbEntity
  8
COMP
100
AcDbLine
 10
5.046999999999985
 20
6.008999999999996
 30
0.0
 11
5.079999999999986
 21
6.008999999999996
 31
0.0
  0
LINE
  5
F7B6FDAF6BC6C6D3
330
C829B246627CC81C
100
AcDbEntity
  8
COMP
100
AcDbLine
 10
5.046999999999985
 20
6.012999999999997
 30
0.0
 11
5.079999999999986
 21
6.012999999999997
 31
0.0
  0
LINE
  5
F7B6FDAF6BC6C6D4
330
C829B246627CC81C
100
AcDbEntity
  8
COMP
100
AcDbLine
 10
5.046999999999985
 20
6.016999999999997
 30
0.0
 11
5.079999999999986
 21
6.016999999999997
 31
0.0
  0
LINE
  5
F7B6FDAF6BC6C6D5
330
C829B246627CC81C
100
AcDbEntity
  8
COMP
100
AcDbLine
 10
5.046999999999985
 20
6.020999999999997
 30
0.0
 11
5.079999999999986
 21
6.020999999999997
 31
0.0
  0
LINE
  5
F7B6FDAF6BC6C6D6
330
C829B246627CC81C
100
AcDbEntity
  8
COMP
100
AcDbLine
 10
5.079999999999986
 20
5.994999999999997
 30
0.0
 11
5.046999999999985
 21
5.994999999999997
 31
0.0
  0
LINE
  5
F7B6FDAF6BC6C6D7
330
C829B246627CC81C
100
AcDbEntity
  8
COMP
100
AcDbLine
 10
5.046999999999985
 20
6.065999999999997
 30
0.0
 11
5.079999999999986
 21
6.065999999999997
 31
0.0
  0
LWPOLYLINE
  5
F7B6FDAF6BC6C6D8
330
C829B246627CC81C
100
AcDbEntity
  8
COMP
100
AcDbPolyline
 90
        2
 70
     1
 43
0.005
 10
4.962999999999989
 20
5.8365
 42
1.0
 10
4.962999999999989
 20
5.831500000000001
 42
1.0
  0
LWPOLYLINE
  5
F7B6FDAF6BC6C6D9
330
C829B246627CC81C
100
AcDbEntity
  8
COMP
100
AcDbPolyline
 90
        2
 70
     1
 43
0.005
 10
4.962999999999989
 20
5.8615
 42
1.0
 10
4.962999999999989
 20
5.856500000000001
 42
1.0
  0
LWPOLYLINE
  5
F7B6FDAF6BC6C6DA
330
C829B246627CC81C
100
AcDbEntity
  8
COMP
100
AcDbPolyline
 90
        2
 70
     1
 43
0.005
 10
4.962999999999989
 20
5.8615
 42
1.0
 10
4.962999999999989
 20
5.856500000000001
 42
1.0
  0
LINE
  5
F7B6FDAF6BC6C6DB
330
C829B246627CC81C
100
AcDbEntity
  8
COMP
100
AcDbLine
 10
5.030999999999987
 20
5.959999999999997
 30
0.0
 11
5.094999999999987
 21
5.959999999999997
 31
0.0
  0
LWPOLYLINE
  5
F7B6FDAF6BC6C6DC
330
C829B246627CC81C
100
AcDbEntity
  8
COMP
100
AcDbPolyline
 90
        2
 70
     1
 43
0.005
 10
4.962999999999989
 20
6.2365
 42
1.0
 10
4.962999999999989
 20
6.2315
 42
1.0
  0
LINE
  5
F7B6FDAF6BC6C6DD
330
C829B246627CC81C
100
AcDbEntity
  8
COMP
100
AcDbLine
 10
5.094999999999987
 20
6.097999999999997
 30
0.0
 11
5.030999999999987
 21
6.097999999999997
 31
0.0
  0
LINE
  5
F7B6FDAF6BC6C6E2
330
C829B246627CC81C
100
AcDbEntity
  8
COMP
100
AcDbLine
 10
5.594999999999994
 20
5.959999999999997
 30
0.0
 11
5.594999999999994
 21
6.097999999999997
 31
0.0
  0
LINE
  5
F7B6FDAF6BC6C6E3
330
C829B246627CC81C
100
AcDbEntity
  8
COMP
100
AcDbLine
 10
5.530999999999994
 20
6.097999999999997
 30
0.0
 11
5.530999999999994
 21
5.959999999999997
 31
0.0
  0
LINE
  5
F7B6FDAF6BC6C6E4
330
C829B246627CC81C
100
AcDbEntity
  8
COMP
100
AcDbLine
 10
5.494999999999993
 20
5.959999999999997
 30
0.0
 11
5.494999999999993
 21
6.097999999999997
 31
0.0
  0
LINE
  5
F7B6FDAF6BC6C6E5
330
C829B246627CC81C
100
AcDbEntity
  8
COMP
100
AcDbLine
 10
5.430999999999992
 20
6.097999999999997
 30
0.0
 11
5.430999999999992
 21
5.959999999999997
 31
0.0
  0
LINE
  5
F7B6FDAF6BC6C6E6
330
C829B246627CC81C
100
AcDbEntity
  8
COMP
100
AcDbLine
 10
5.394999999999998
 20
5.959999999999997
 30
0.0
 11
5.394999999999998
 21
6.097999999999997
 31
0.0
  0
LINE
  5
F7B6FDAF6BC6C6E7
330
C829B246627CC81C
100
AcDbEntity
  8
COMP
100
AcDbLine
 10
5.330999999999998
 20
6.097999999999997
 30
0.0
 11
5.330999999999998
 21
5.959999999999997
 31
0.0
  0
LINE
  5
F7B6FDAF6BC6C6E8
330
C829B246627CC81C
100
AcDbEntity
  8
COMP
100
AcDbLine
 10
5.294999999999997
 20
5.959999999999997
 30
0.0
 11
5.294999999999997
 21
6.097999999999997
 31
0.0
  0
LINE
  5
F7B6FDAF6BC6C6E9
330
C829B246627CC81C
100
AcDbEntity
  8
COMP
100
AcDbLine
 10
5.230999999999997
 20
6.097999999999997
 30
0.0
 11
5.230999999999997
 21
5.959999999999997
 31
0.0
  0
LINE
  5
F7B6FDAF6BC6C6EA
330
C829B246627CC81C
100
AcDbEntity
  8
COMP
100
AcDbLine
 10
5.194999999999995
 20
5.959999999999997
 30
0.0
 11
5.194999999999995
 21
6.097999999999997
 31
0.0
  0
LINE
  5
F7B6FDAF6BC6C6EB
330
C829B246627CC81C
100
AcDbEntity
  8
COMP
100
AcDbLine
 10
5.130999999999995
 20
6.097999999999997
 30
0.0
 11
5.130999999999995
 21
5.959999999999997
 31
0.0
  0
LINE
  5
F7B6FDAF6BC6C6EC
330
C829B246627CC81C
100
AcDbEntity
  8
COMP
100
AcDbLine
 10
5.479999999999992
 20
6.065999999999997
 30
0.0
 11
5.479999999999992
 21
5.994999999999997
 31
0.0
  0
LINE
  5
F7B6FDAF6BC6C6ED
330
C829B246627CC81C
100
AcDbEntity
  8
COMP
100
AcDbLine
 10
5.446999999999991
 20
5.994999999999997
 30
0.0
 11
5.446999999999991
 21
6.065999999999997
 31
0.0
  0
LINE
  5
F7B6FDAF6BC6C6EE
330
C829B246627CC81C
100
AcDbEntity
  8
COMP
100
AcDbLine
 10
5.446999999999991
 20
6.065999999999997
 30
0.0
 11
5.479999999999992
 21
6.065999999999997
 31
0.0
  0
LINE
  5
F7B6FDAF6BC6C6EF
330
C829B246627CC81C
100
AcDbEntity
  8
COMP
100
AcDbLine
 10
5.479999999999992
 20
5.994999999999997
 30
0.0
 11
5.446999999999991
 21
5.994999999999997
 31
0.0
  0
LINE
  5
F7B6FDAF6BC6C6F0
330
C829B246627CC81C
100
AcDbEntity
  8
COMP
100
AcDbLine
 10
5.446999999999991
 20
6.020999999999997
 30
0.0
 11
5.479999999999992
 21
6.020999999999997
 31
0.0
  0
LINE
  5
F7B6FDAF6BC6C6F1
330
C829B246627CC81C
100
AcDbEntity
  8
COMP
100
AcDbLine
 10
5.446999999999991
 20
6.016999999999997
 30
0.0
 11
5.479999999999992
 21
6.016999999999997
 31
0.0
  0
LINE
  5
F7B6FDAF6BC6C6F2
330
C829B246627CC81C
100
AcDbEntity
  8
COMP
100
AcDbLine
 10
5.446999999999991
 20
6.012999999999997
 30
0.0
 11
5.479999999999992
 21
6.012999999999997
 31
0.0
  0
LINE
  5
F7B6FDAF6BC6C6F3
330
C829B246627CC81C
100
AcDbEntity
  8
COMP
100
AcDbLine
 10
5.446999999999991
 20
6.008999999999996
 30
0.0
 11
5.479999999999992
 21
6.008999999999996
 31
0.0
  0
LINE
  5
F7B6FDAF6BC6C6F4
330
C829B246627CC81C
100
AcDbEntity
  8
COMP
100
AcDbLine
 10
5.446999999999991
 20
6.004999999999997
 30
0.0
 11
5.479999999999992
 21
6.004999999999997
 31
0.0
  0
LINE
  5
F7B6FDAF6BC6C6F5
330
C829B246627CC81C
100
AcDbEntity
  8
COMP
100
AcDbLine
 10
5.446999999999991
 20
6.000999999999997
 30
0.0
 11
5.479999999999992
 21
6.000999999999997
 31
0.0
  0
LINE
  5
F7B6FDAF6BC6C6F6
330
C829B246627CC81C
100
AcDbEntity
  8
COMP
100
AcDbLine
 10
5.446999999999991
 20
5.997999999999997
 30
0.0
 11
5.479999999999992
 21
5.997999999999997
 31
0.0
  0
LINE
  5
F7B6FDAF6BC6C6F7
330
C829B246627CC81C
100
AcDbEntity
  8
COMP
100
AcDbLine
 10
5.379999999999998
 20
6.065999999999997
 30
0.0
 11
5.379999999999998
 21
5.994999999999997
 31
0.0
  0
LINE
  5
F7B6FDAF6BC6C6F8
330
C829B246627CC81C
100
AcDbEntity
  8
COMP
100
AcDbLine
 10
5.346999999999996
 20
5.994999999999997
 30
0.0
 11
5.346999999999996
 21
6.065999999999997
 31
0.0
  0
LINE
  5
F7B6FDAF6BC6C6F9
330
C829B246627CC81C
100
AcDbEntity
  8
COMP
100
AcDbLine
 10
5.346999999999996
 20
6.065999999999997
 30
0.0
 11
5.379999999999998
 21
6.065999999999997
 31
0.0
  0
LINE
  5
F7B6FDAF6BC6C6FA
330
C829B246627CC81C
100
AcDbEntity
  8
COMP
100
AcDbLine
 10
5.379999999999998
 20
5.994999999999997
 30
0.0
 11
5.346999999999996
 21
5.994999999999997
 31
0.0
  0
LINE
  5
F7B6FDAF6BC6C6FB
330
C829B246627CC81C
100
AcDbEntity
  8
COMP
100
AcDbLine
 10
5.346999999999996
 20
6.020999999999997
 30
0.0
 11
5.379999999999998
 21
6.020999999999997
 31
0.0
  0
LINE
  5
F7B6FDAF6BC6C6FC
330
C829B246627CC81C
100
AcDbEntity
  8
COMP
100
AcDbLine
 10
5.346999999999996
 20
6.016999999999997
 30
0.0
 11
5.379999999999998
 21
6.016999999999997
 31
0.0
  0
LINE
  5
F7B6FDAF6BC6C6FD
330
C829B246627CC81C
100
AcDbEntity
  8
COMP
100
AcDbLine
 10
5.346999999999996
 20
6.012999999999997
 30
0.0
 11
5.379999999999998
 21
6.012999999999997
 31
0.0
  0
LINE
  5
F7B6FDAF6BC6C6FE
330
C829B246627CC81C
100
AcDbEntity
  8
COMP
100
AcDbLine
 10
5.346999999999996
 20
6.008999999999996
 30
0.0
 11
5.379999999999998
 21
6.008999999999996
 31
0.0
  0
LINE
  5
F7B6FDAF6BC6C6FF
330
C829B246627CC81C
100
AcDbEntity
  8
COMP
100
AcDbLine
 10
5.346999999999996
 20
6.004999999999997
 30
0.0
 11
5.379999999999998
 21
6.004999999999997
 31
0.0
  0
LINE
  5
F7B6FDAF6BC6C700
330
C829B246627CC81C
100
AcDbEntity
  8
COMP
100
AcDbLine
 10
5.346999999999996
 20
6.000999999999997
 30
0.0
 11
5.379999999999998
 21
6.000999999999997
 31
0.0
  0
LINE
  5
F7B6FDAF6BC6C701
330
C829B246627CC81C
100
AcDbEntity
  8
COMP
100
AcDbLine
 10
5.346999999999996
 20
5.997999999999997
 30
0.0
 11
5.379999999999998
 21
5.997999999999997
 31
0.0
  0
LINE
  5
F7B6FDAF6BC6C702
330
C829B246627CC81C
100
AcDbEntity
  8
COMP
100
AcDbLine
 10
5.279999999999996
 20
6.065999999999997
 30
0.0
 11
5.279999999999996
 21
5.994999999999997
 31
0.0
  0
LINE
  5
F7B6FDAF6BC6C703
330
C829B246627CC81C
100
AcDbEntity
  8
COMP
100
AcDbLine
 10
5.246999999999995
 20
5.994999999999997
 30
0.0
 11
5.246999999999995
 21
6.065999999999997
 31
0.0
  0
LINE
  5
F7B6FDAF6BC6C704
330
C829B246627CC81C
100
AcDbEntity
  8
COMP
100
AcDbLine
 10
5.246999999999995
 20
6.065999999999997
 30
0.0
 11
5.279999999999996
 21
6.065999999999997
 31
0.0
  0
LINE
  5
F7B6FDAF6BC6C705
330
C829B246627CC81C
100
AcDbEntity
  8
COMP
100
AcDbLine
 10
5.279999999999996
 20
5.994999999999997
 30
0.0
 11
5.246999999999995
 21
5.994999999999997
 31
0.0
  0
LINE
  5
F7B6FDAF6BC6C706
330
C829B246627CC81C
100
AcDbEntity
  8
COMP
100
AcDbLine
 10
5.246999999999995
 20
6.020999999999997
 30
0.0
 11
5.279999999999996
 21
6.020999999999997
 31
0.0
  0
LINE
  5
F7B6FDAF6BC6C707
330
C829B246627CC81C
100
AcDbEntity
  8
COMP
100
AcDbLine
 10
5.246999999999995
 20
6.016999999999997
 30
0.0
 11
5.279999999999996
 21
6.016999999999997
 31
0.0
  0
LINE
  5
F7B6FDAF6BC6C708
330
C829B246627CC81C
100
AcDbEntity
  8
COMP
100
AcDbLine
 10
5.246999999999995
 20
6.012999999999997
 30
0.0
 11
5.279999999999996
 21
6.012999999999997
 31
0.0
  0
LINE
  5
F7B6FDAF6BC6C709
330
C829B246627CC81C
100
AcDbEntity
  8
COMP
100
AcDbLine
 10
5.246999999999995
 20
6.008999999999996
 30
0.0
 11
5.279999999999996
 21
6.008999999999996
 31
0.0
  0
LINE
  5
F7B6FDAF6BC6C70A
330
C829B246627CC81C
100
AcDbEntity
  8
COMP
100
AcDbLine
 10
5.246999999999995
 20
6.004999999999997
 30
0.0
 11
5.279999999999996
 21
6.004999999999997
 31
0.0
  0
LINE
  5
F7B6FDAF6BC6C70B
330
C829B246627CC81C
100
AcDbEntity
  8
COMP
100
AcDbLine
 10
5.246999999999995
 20
6.000999999999997
 30
0.0
 11
5.279999999999996
 21
6.000999999999997
 31
0.0
  0
LINE
  5
F7B6FDAF6BC6C70C
330
C829B246627CC81C
100
AcDbEntity
  8
COMP
100
AcDbLine
 10
5.246999999999995
 20
5.997999999999997
 30
0.0
 11
5.279999999999996
 21
5.997999999999997
 31
0.0
  0
LINE
  5
F7B6FDAF6BC6C70D
330
C829B246627CC81C
100
AcDbEntity
  8
COMP
100
AcDbLine
 10
5.179999999999995
 20
6.065999999999997
 30
0.0
 11
5.179999999999995
 21
5.994999999999997
 31
0.0
  0
LINE
  5
F7B6FDAF6BC6C70E
330
C829B246627CC81C
100
AcDbEntity
  8
COMP
100
AcDbLine
 10
5.146999999999994
 20
5.994999999999997
 30
0.0
 11
5.146999999999994
 21
6.065999999999997
 31
0.0
  0
LINE
  5
F7B6FDAF6BC6C70F
330
C829B246627CC81C
100
AcDbEntity
  8
COMP
100
AcDbLine
 10
5.146999999999994
 20
6.065999999999997
 30
0.0
 11
5.179999999999995
 21
6.065999999999997
 31
0.0
  0
LINE
  5
F7B6FDAF6BC6C710
330
C829B246627CC81C
100
AcDbEntity
  8
COMP
100
AcDbLine
 10
5.179999999999995
 20
5.994999999999997
 30
0.0
 11
5.146999999999994
 21
5.994999999999997
 31
0.0
  0
LINE
  5
F7B6FDAF6BC6C711
330
C829B246627CC81C
100
AcDbEntity
  8
COMP
100
AcDbLine
 10
5.146999999999994
 20
6.020999999999997
 30
0.0
 11
5.179999999999995
 21
6.020999999999997
 31
0.0
  0
LINE
  5
F7B6FDAF6BC6C712
330
C829B246627CC81C
100
AcDbEntity
  8
COMP
100
AcDbLine
 10
5.146999999999994
 20
6.016999999999997
 30
0.0
 11
5.179999999999995
 21
6.016999999999997
 31
0.0
  0
LINE
  5
F7B6FDAF6BC6C713
330
C829B246627CC81C
100
AcDbEntity
  8
COMP
100
AcDbLine
 10
5.146999999999994
 20
6.012999999999997
 30
0.0
 11
5.179999999999995
 21
6.012999999999997
 31
0.0
  0
LINE
  5
F7B6FDAF6BC6C714
330
C829B246627CC81C
100
AcDbEntity
  8
COMP
100
AcDbLine
 10
5.146999999999994
 20
6.008999999999996
 30
0.0
 11
5.179999999999995
 21
6.008999999999996
 31
0.0
  0
LINE
  5
F7B6FDAF6BC6C715
330
C829B246627CC81C
100
AcDbEntity
  8
COMP
100
AcDbLine
 10
5.146999999999994
 20
6.004999999999997
 30
0.0
 11
5.179999999999995
 21
6.004999999999997
 31
0.0
  0
LINE
  5
F7B6FDAF6BC6C716
330
C829B246627CC81C
100
AcDbEntity
  8
COMP
100
AcDbLine
 10
5.146999999999994
 20
6.000999999999997
 30
0.0
 11
5.179999999999995
 21
6.000999999999997
 31
0.0
  0
LINE
  5
F7B6FDAF6BC6C717
330
C829B246627CC81C
100
AcDbEntity
  8
COMP
100
AcDbLine
 10
5.146999999999994
 20
5.997999999999997
 30
0.0
 11
5.179999999999995
 21
5.997999999999997
 31
0.0
  0
LINE
  5
F7B6FDAF6BC6C718
330
C829B246627CC81C
100
AcDbEntity
  8
COMP
100
AcDbLine
 10
5.430999999999992
 20
5.959999999999997
 30
0.0
 11
5.494999999999993
 21
5.959999999999997
 31
0.0
  0
LINE
  5
F7B6FDAF6BC6C719
330
C829B246627CC81C
100
AcDbEntity
  8
COMP
100
AcDbLine
 10
5.330999999999998
 20
5.959999999999997
 30
0.0
 11
5.394999999999998
 21
5.959999999999997
 31
0.0
  0
LINE
  5
F7B6FDAF6BC6C71A
330
C829B246627CC81C
100
AcDbEntity
  8
COMP
100
AcDbLine
 10
5.230999999999997
 20
5.959999999999997
 30
0.0
 11
5.294999999999997
 21
5.959999999999997
 31
0.0
  0
LINE
  5
F7B6FDAF6BC6C71B
330
C829B246627CC81C
100
AcDbEntity
  8
COMP
100
AcDbLine
 10
5.130999999999995
 20
5.959999999999997
 30
0.0
 11
5.194999999999995
 21
5.959999999999997
 31
0.0
  0
LINE
  5
F7B6FDAF6BC6C729
330
C829B246627CC81C
100
AcDbEntity
  8
COMP
100
AcDbLine
 10
5.579999999999993
 20
6.065999999999997
 30
0.0
 11
5.579999999999993
 21
5.994999999999997
 31
0.0
  0
LINE
  5
F7B6FDAF6BC6C72A
330
C829B246627CC81C
100
AcDbEntity
  8
COMP
100
AcDbLine
 10
5.546999999999992
 20
5.994999999999997
 30
0.0
 11
5.546999999999992
 21
6.065999999999997
 31
0.0
  0
LINE
  5
F7B6FDAF6BC6C72B
330
C829B246627CC81C
100
AcDbEntity
  8
COMP
100
AcDbLine
 10
5.546999999999992
 20
6.065999999999997
 30
0.0
 11
5.579999999999993
 21
6.065999999999997
 31
0.0
  0
LINE
  5
F7B6FDAF6BC6C72C
330
C829B246627CC81C
100
AcDbEntity
  8
COMP
100
AcDbLine
 10
5.579999999999993
 20
5.994999999999997
 30
0.0
 11
5.546999999999992
 21
5.994999999999997
 31
0.0
  0
LINE
  5
F7B6FDAF6BC6C72D
330
C829B246627CC81C
100
AcDbEntity
  8
COMP
100
AcDbLine
 10
5.546999999999992
 20
6.020999999999997
 30
0.0
 11
5.579999999999993
 21
6.020999999999997
 31
0.0
  0
LINE
  5
F7B6FDAF6BC6C72E
330
C829B246627CC81C
100
AcDbEntity
  8
COMP
100
AcDbLine
 10
5.546999999999992
 20
6.016999999999997
 30
0.0
 11
5.579999999999993
 21
6.016999999999997
 31
0.0
  0
LINE
  5
F7B6FDAF6BC6C72F
330
C829B246627CC81C
100
AcDbEntity
  8
COMP
100
AcDbLine
 10
5.546999999999992
 20
6.012999999999997
 30
0.0
 11
5.579999999999993
 21
6.012999999999997
 31
0.0
  0
LINE
  5
F7B6FDAF6BC6C730
330
C829B246627CC81C
100
AcDbEntity
  8
COMP
100
AcDbLine
 10
5.546999999999992
 20
6.008999999999996
 30
0.0
 11
5.579999999999993
 21
6.008999999999996
 31
0.0
  0
LINE
  5
F7B6FDAF6BC6C731
330
C829B246627CC81C
100
AcDbEntity
  8
COMP
100
AcDbLine
 10
5.546999999999992
 20
6.004999999999997
 30
0.0
 11
5.579999999999993
 21
6.004999999999997
 31
0.0
  0
LINE
  5
F7B6FDAF6BC6C732
330
C829B246627CC81C
100
AcDbEntity
  8
COMP
100
AcDbLine
 10
5.546999999999992
 20
6.000999999999997
 30
0.0
 11
5.579999999999993
 21
6.000999999999997
 31
0.0
  0
LINE
  5
F7B6FDAF6BC6C733
330
C829B246627CC81C
100
AcDbEntity
  8
COMP
100
AcDbLine
 10
5.546999999999992
 20
5.997999999999997
 30
0.0
 11
5.579999999999993
 21
5.997999999999997
 31
0.0
  0
LINE
  5
F7B6FDAF6BC6C73F
330
C829B246627CC81C
100
AcDbEntity
  8
COMP
100
AcDbLine
 10
5.530999999999994
 20
5.959999999999997
 30
0.0
 11
5.594999999999994
 21
5.959999999999997
 31
0.0
  0
LINE
  5
F7B6FDAF6BC6C741
330
C829B246627CC81C
100
AcDbEntity
  8
COMP
100
AcDbLine
 10
5.494999999999993
 20
6.097999999999997
 30
0.0
 11
5.430999999999992
 21
6.097999999999997
 31
0.0
  0
LINE
  5
F7B6FDAF6BC6C742
330
C829B246627CC81C
100
AcDbEntity
  8
COMP
100
AcDbLine
 10
5.394999999999998
 20
6.097999999999997
 30
0.0
 11
5.330999999999998
 21
6.097999999999997
 31
0.0
  0
LINE
  5
F7B6FDAF6BC6C743
330
C829B246627CC81C
100
AcDbEntity
  8
COMP
100
AcDbLine
 10
5.294999999999997
 20
6.097999999999997
 30
0.0
 11
5.230999999999997
 21
6.097999999999997
 31
0.0
  0
LINE
  5
F7B6FDAF6BC6C744
330
C829B246627CC81C
100
AcDbEntity
  8
COMP
100
AcDbLine
 10
5.194999999999995
 20
6.097999999999997
 30
0.0
 11
5.130999999999995
 21
6.097999999999997
 31
0.0
  0
LINE
  5
F7B6FDAF6BC6C747
330
C829B246627CC81C
100
AcDbEntity
  8
COMP
100
AcDbLine
 10
5.594999999999994
 20
6.097999999999997
 30
0.0
 11
5.530999999999994
 21
6.097999999999997
 31
0.0
  0
LINE
  5
F7B6FDAF6BC6C7C3
330
C829B246627CC81C
100
AcDbEntity
  8
LABEL
100
AcDbLine
 10
8.134
 20
5.170999999999999
 30
0.0
 11
8.134
 21
0.6649999999999899
 31
0.0
  0
LINE
  5
F7B6FDAF6BC6C7C4
330
C829B246627CC81C
100
AcDbEntity
  8
LABEL
100
AcDbLine
 10
7.833999999999999
 20
0.6649999999999899
 30
0.0
 11
7.833999999999999
 21
5.170999999999999
 31
0.0
  0
LINE
  5
F7B6FDAF6BC6C7C5
330
C829B246627CC81C
100
AcDbEntity
  8
LABEL
100
AcDbLine
 10
8.108999999999998
 20
5.170999999999999
 30
0.0
 11
8.108999999999998
 21
0.6649999999999899
 31
0.0
  0
CIRCLE
  5
F7B6FDAF6BC6C7C7
330
C829B246627CC81C
100
AcDbEntity
  8
LABEL
100
AcDbCircle
 10
7.983999999999999
 20
1.214999999999993
 30
0.0
 40
0.0610000000000106
  0
CIRCLE
  5
F7B6FDAF6BC6C7C8
330
C829B246627CC81C
100
AcDbEntity
  8
LABEL
100
AcDbCircle
 10
7.983999999999999
 20
0.8150000000000016
 30
0.0
 40
0.0610000000000106
  0
LINE
  5
F7B6FDAF6BC6C7C9
330
C829B246627CC81C
100
AcDbEntity
  8
LABEL
100
AcDbLine
 10
8.134
 20
0.6649999999999899
 30
0.0
 11
7.833999999999999
 21
0.6649999999999899
 31
0.0
  0
LINE
  5
F7B6FDAF6BC6C7D2
330
C829B246627CC81C
100
AcDbEntity
  8
LABEL
100
AcDbLine
 10
7.833999999999999
 20
0.6649999999999899
 30
0.0
 11
7.833999999999999
 21
0.6649999999999899
 31
0.0
  0
LINE
  5
F7B6FDAF6BC6C7D3
330
C829B246627CC81C
100
AcDbEntity
  8
LABEL
100
AcDbLine
 10
7.925000000000002
 20
1.003000000000004
 30
0.0
 11
8.044000000000002
 21
1.003000000000004
 31
0.0
  0
LINE
  5
F7B6FDAF6BC6C7D4
330
C829B246627CC81C
100
AcDbEntity
  8
LABEL
100
AcDbLine
 10
7.925000000000002
 20
1.027000000000005
 30
0.0
 11
8.044000000000002
 21
1.027000000000005
 31
0.0
  0
CIRCLE
  5
F7B6FDAF6BC6C7D5
330
C829B246627CC81C
100
AcDbEntity
  8
LABEL
100
AcDbCircle
 10
7.983999999999999
 20
1.01499999999999
 30
0.0
 40
0.0610000000000106
  0
LINE
  5
F7B6FDAF6BC6C7D6
330
C829B246627CC81C
100
AcDbEntity
  8
LABEL
100
AcDbLine
 10
7.925000000000002
 20
0.8030000000000093
 30
0.0
 11
8.044000000000002
 21
0.8030000000000093
 31
0.0
  0
LINE
  5
F7B6FDAF6BC6C7D7
330
C829B246627CC81C
100
AcDbEntity
  8
LABEL
100
AcDbLine
 10
7.925000000000002
 20
0.8270000000000102
 30
0.0
 11
8.044000000000002
 21
0.8270000000000102
 31
0.0
  0
CIRCLE
  5
F7B6FDAF6BC6C7D8
330
C829B246627CC81C
100
AcDbEntity
  8
LABEL
100
AcDbCircle
 10
7.983999999999999
 20
1.614999999999984
 30
0.0
 40
0.0610000000000106
  0
LINE
  5
F7B6FDAF6BC6C7D9
330
C829B246627CC81C
100
AcDbEntity
  8
LABEL
100
AcDbLine
 10
7.925000000000002
 20
1.403000000000003
 30
0.0
 11
8.044000000000002
 21
1.403000000000003
 31
0.0
  0
LINE
  5
F7B6FDAF6BC6C7DA
330
C829B246627CC81C
100
AcDbEntity
  8
LABEL
100
AcDbLine
 10
7.925000000000002
 20
1.427000000000004
 30
0.0
 11
8.044000000000002
 21
1.427000000000004
 31
0.0
  0
CIRCLE
  5
F7B6FDAF6BC6C7DB
330
C829B246627CC81C
100
AcDbEntity
  8
LABEL
100
AcDbCircle
 10
7.983999999999999
 20
1.414999999999996
 30
0.0
 40
0.0610000000000106
  0
LINE
  5
F7B6FDAF6BC6C7DC
330
C829B246627CC81C
100
AcDbEntity
  8
LABEL
100
AcDbLine
 10
7.925000000000002
 20
1.203
 30
0.0
 11
8.044000000000002
 21
1.203
 31
0.0
  0
LINE
  5
F7B6FDAF6BC6C7DD
330
C829B246627CC81C
100
AcDbEntity
  8
LABEL
100
AcDbLine
 10
7.925000000000002
 20
1.227000000000001
 30
0.0
 11
8.044000000000002
 21
1.227000000000001
 31
0.0
  0
LINE
  5
F7B6FDAF6BC6C7DE
330
C829B246627CC81C
100
AcDbEntity
  8
LABEL
100
AcDbLine
 10
7.925000000000002
 20
1.803000000000002
 30
0.0
 11
8.044000000000002
 21
1.803000000000002
 31
0.0
  0
LINE
  5
F7B6FDAF6BC6C7DF
330
C829B246627CC81C
100
AcDbEntity
  8
LABEL
100
AcDbLine
 10
7.925000000000002
 20
1.827000000000003
 30
0.0
 11
8.044000000000002
 21
1.827000000000003
 31
0.0
  0
CIRCLE
  5
F7B6FDAF6BC6C7E0
330
C829B246627CC81C
100
AcDbEntity
  8
LABEL
100
AcDbCircle
 10
7.983999999999999
 20
1.814999999999987
 30
0.0
 40
0.0610000000000106
  0
LINE
  5
F7B6FDAF6BC6C7E1
330
C829B246627CC81C
100
AcDbEntity
  8
LABEL
100
AcDbLine
 10
7.925000000000002
 20
1.602999999999999
 30
0.0
 11
8.044000000000002
 21
1.602999999999999
 31
0.0
  0
LINE
  5
F7B6FDAF6BC6C7E2
330
C829B246627CC81C
100
AcDbEntity
  8
LABEL
100
AcDbLine
 10
7.925000000000002
 20
1.627
 30
0.0
 11
8.044000000000002
 21
1.627
 31
0.0
  0
CIRCLE
  5
F7B6FDAF6BC6C7E4
330
C829B246627CC81C
100
AcDbEntity
  8
LABEL
100
AcDbCircle
 10
7.983999999999999
 20
3.414999999999985
 30
0.0
 40
0.0610000000000106
  0
LINE
  5
F7B6FDAF6BC6C7E5
330
C829B246627CC81C
100
AcDbEntity
  8
LABEL
100
AcDbLine
 10
7.925000000000002
 20
2.003000000000004
 30
0.0
 11
8.044000000000002
 21
2.003000000000004
 31
0.0
  0
LINE
  5
F7B6FDAF6BC6C7E6
330
C829B246627CC81C
100
AcDbEntity
  8
LABEL
100
AcDbLine
 10
7.925000000000002
 20
2.027000000000005
 30
0.0
 11
8.044000000000002
 21
2.027000000000005
 31
0.0
  0
CIRCLE
  5
F7B6FDAF6BC6C7E7
330
C829B246627CC81C
100
AcDbEntity
  8
LABEL
100
AcDbCircle
 10
7.983999999999999
 20
2.01499999999999
 30
0.0
 40
0.0610000000000106
  0
LINE
  5
F7B6FDAF6BC6C7E8
330
C829B246627CC81C
100
AcDbEntity
  8
LABEL
100
AcDbLine
 10
7.925000000000002
 20
2.203
 30
0.0
 11
8.044000000000002
 21
2.203
 31
0.0
  0
LINE
  5
F7B6FDAF6BC6C7E9
330
C829B246627CC81C
100
AcDbEntity
  8
LABEL
100
AcDbLine
 10
7.925000000000002
 20
2.227000000000001
 30
0.0
 11
8.044000000000002
 21
2.227000000000001
 31
0.0
  0
CIRCLE
  5
F7B6FDAF6BC6C7EA
330
C829B246627CC81C
100
AcDbEntity
  8
LABEL
100
AcDbCircle
 10
7.983999999999999
 20
2.214999999999993
 30
0.0
 40
0.0610000000000106
  0
LINE
  5
F7B6FDAF6BC6C7EB
330
C829B246627CC81C
100
AcDbEntity
  8
LABEL
100
AcDbLine
 10
7.925000000000002
 20
2.403000000000003
 30
0.0
 11
8.044000000000002
 21
2.403000000000003
 31
0.0
  0
LINE
  5
F7B6FDAF6BC6C7EC
330
C829B246627CC81C
100
AcDbEntity
  8
LABEL
100
AcDbLine
 10
7.925000000000002
 20
2.427000000000004
 30
0.0
 11
8.044000000000002
 21
2.427000000000004
 31
0.0
  0
CIRCLE
  5
F7B6FDAF6BC6C7ED
330
C829B246627CC81C
100
AcDbEntity
  8
LABEL
100
AcDbCircle
 10
7.983999999999999
 20
2.414999999999996
 30
0.0
 40
0.0610000000000106
  0
LINE
  5
F7B6FDAF6BC6C7EE
330
C829B246627CC81C
100
AcDbEntity
  8
LABEL
100
AcDbLine
 10
7.925000000000002
 20
2.602999999999999
 30
0.0
 11
8.044000000000002
 21
2.602999999999999
 31
0.0
  0
LINE
  5
F7B6FDAF6BC6C7EF
330
C829B246627CC81C
100
AcDbEntity
  8
LABEL
100
AcDbLine
 10
7.925000000000002
 20
2.627
 30
0.0
 11
8.044000000000002
 21
2.627
 31
0.0
  0
CIRCLE
  5
F7B6FDAF6BC6C7F0
330
C829B246627CC81C
100
AcDbEntity
  8
LABEL
100
AcDbCircle
 10
7.983999999999999
 20
2.614999999999984
 30
0.0
 40
0.0610000000000106
  0
CIRCLE
  5
F7B6FDAF6BC6C7F1
330
C829B246627CC81C
100
AcDbEntity
  8
LABEL
100
AcDbCircle
 10
7.983999999999999
 20
3.014999999999986
 30
0.0
 40
0.0610000000000106
  0
LINE
  5
F7B6FDAF6BC6C7F2
330
C829B246627CC81C
100
AcDbEntity
  8
LABEL
100
AcDbLine
 10
7.925000000000002
 20
2.803000000000002
 30
0.0
 11
8.044000000000002
 21
2.803000000000002
 31
0.0
  0
LINE
  5
F7B6FDAF6BC6C7F3
330
C829B246627CC81C
100
AcDbEntity
  8
LABEL
100
AcDbLine
 10
7.925000000000002
 20
2.827000000000003
 30
0.0
 11
8.044000000000002
 21
2.827000000000003
 31
0.0
  0
CIRCLE
  5
F7B6FDAF6BC6C7F4
330
C829B246627CC81C
100
AcDbEntity
  8
LABEL
100
AcDbCircle
 10
7.983999999999999
 20
2.814999999999987
 30
0.0
 40
0.0610000000000106
  0
LINE
  5
F7B6FDAF6BC6C7F5
330
C829B246627CC81C
100
AcDbEntity
  8
LABEL
100
AcDbLine
 10
7.925000000000002
 20
3.002999999999997
 30
0.0
 11
8.044000000000002
 21
3.002999999999997
 31
0.0
  0
LINE
  5
F7B6FDAF6BC6C7F6
330
C829B246627CC81C
100
AcDbEntity
  8
LABEL
100
AcDbLine
 10
7.925000000000002
 20
3.026999999999998
 30
0.0
 11
8.044000000000002
 21
3.026999999999998
 31
0.0
  0
LINE
  5
F7B6FDAF6BC6C7F7
330
C829B246627CC81C
100
AcDbEntity
  8
LABEL
100
AcDbLine
 10
7.925000000000002
 20
3.203
 30
0.0
 11
8.044000000000002
 21
3.203
 31
0.0
  0
LINE
  5
F7B6FDAF6BC6C7F8
330
C829B246627CC81C
100
AcDbEntity
  8
LABEL
100
AcDbLine
 10
7.925000000000002
 20
3.227000000000001
 30
0.0
 11
8.044000000000002
 21
3.227000000000001
 31
0.0
  0
CIRCLE
  5
F7B6FDAF6BC6C7F9
330
C829B246627CC81C
100
AcDbEntity
  8
LABEL
100
AcDbCircle
 10
7.983999999999999
 20
3.214999999999989
 30
0.0
 40
0.0610000000000106
  0
LINE
  5
F7B6FDAF6BC6C7FA
330
C829B246627CC81C
100
AcDbEntity
  8
LABEL
100
AcDbLine
 10
7.925000000000002
 20
3.402999999999996
 30
0.0
 11
8.044000000000002
 21
3.402999999999996
 31
0.0
  0
LINE
  5
F7B6FDAF6BC6C7FB
330
C829B246627CC81C
100
AcDbEntity
  8
LABEL
100
AcDbLine
 10
7.925000000000002
 20
3.426999999999997
 30
0.0
 11
8.044000000000002
 21
3.426999999999997
 31
0.0
  0
CIRCLE
  5
F7B6FDAF6BC6C7FC
330
C829B246627CC81C
100
AcDbEntity
  8
LABEL
100
AcDbCircle
 10
7.983999999999999
 20
4.214999999999989
 30
0.0
 40
0.0610000000000106
  0
CIRCLE
  5
F7B6FDAF6BC6C7FD
330
C829B246627CC81C
100
AcDbEntity
  8
LABEL
100
AcDbCircle
 10
7.983999999999999
 20
3.81499999999999
 30
0.0
 40
0.0610000000000106
  0
LINE
  5
F7B6FDAF6BC6C7FE
330
C829B246627CC81C
100
AcDbEntity
  8
LABEL
100
AcDbLine
 10
7.925000000000002
 20
3.602999999999999
 30
0.0
 11
8.044000000000002
 21
3.602999999999999
 31
0.0
  0
LINE
  5
F7B6FDAF6BC6C7FF
330
C829B246627CC81C
100
AcDbEntity
  8
LABEL
100
AcDbLine
 10
7.925000000000002
 20
3.627
 30
0.0
 11
8.044000000000002
 21
3.627
 31
0.0
  0
CIRCLE
  5
F7B6FDAF6BC6C800
330
C829B246627CC81C
100
AcDbEntity
  8
LABEL
100
AcDbCircle
 10
7.983999999999999
 20
3.614999999999988
 30
0.0
 40
0.0610000000000106
  0
LINE
  5
F7B6FDAF6BC6C801
330
C829B246627CC81C
100
AcDbEntity
  8
LABEL
100
AcDbLine
 10
7.925000000000002
 20
3.803000000000002
 30
0.0
 11
8.044000000000002
 21
3.803000000000002
 31
0.0
  0
LINE
  5
F7B6FDAF6BC6C802
330
C829B246627CC81C
100
AcDbEntity
  8
LABEL
100
AcDbLine
 10
7.925000000000002
 20
4.002999999999998
 30
0.0
 11
8.044000000000002
 21
4.002999999999998
 31
0.0
  0
LINE
  5
F7B6FDAF6BC6C803
330
C829B246627CC81C
100
AcDbEntity
  8
LABEL
100
AcDbLine
 10
7.925000000000002
 20
4.026999999999999
 30
0.0
 11
8.044000000000002
 21
4.026999999999999
 31
0.0
  0
CIRCLE
  5
F7B6FDAF6BC6C804
330
C829B246627CC81C
100
AcDbEntity
  8
LABEL
100
AcDbCircle
 10
7.983999999999999
 20
4.014999999999986
 30
0.0
 40
0.0610000000000106
  0
LINE
  5
F7B6FDAF6BC6C805
330
C829B246627CC81C
100
AcDbEntity
  8
LABEL
100
AcDbLine
 10
7.925000000000002
 20
3.827000000000003
 30
0.0
 11
8.044000000000002
 21
3.827000000000003
 31
0.0
  0
CIRCLE
  5
F7B6FDAF6BC6C806
330
C829B246627CC81C
100
AcDbEntity
  8
LABEL
100
AcDbCircle
 10
7.983999999999999
 20
4.614999999999987
 30
0.0
 40
0.0610000000000106
  0
LINE
  5
F7B6FDAF6BC6C807
330
C829B246627CC81C
100
AcDbEntity
  8
LABEL
100
AcDbLine
 10
7.925000000000002
 20
4.402999999999996
 30
0.0
 11
8.044000000000002
 21
4.402999999999996
 31
0.0
  0
LINE
  5
F7B6FDAF6BC6C808
330
C829B246627CC81C
100
AcDbEntity
  8
LABEL
100
AcDbLine
 10
7.925000000000002
 20
4.426999999999997
 30
0.0
 11
8.044000000000002
 21
4.426999999999997
 31
0.0
  0
CIRCLE
  5
F7B6FDAF6BC6C809
330
C829B246627CC81C
100
AcDbEntity
  8
LABEL
100
AcDbCircle
 10
7.983999999999999
 20
4.414999999999984
 30
0.0
 40
0.0610000000000106
  0
LINE
  5
F7B6FDAF6BC6C80A
330
C829B246627CC81C
100
AcDbEntity
  8
LABEL
100
AcDbLine
 10
7.925000000000002
 20
4.203000000000001
 30
0.0
 11
8.044000000000002
 21
4.203000000000001
 31
0.0
  0
LINE
  5
F7B6FDAF6BC6C80B
330
C829B246627CC81C
100
AcDbEntity
  8
LABEL
100
AcDbLine
 10
7.925000000000002
 20
4.227000000000002
 30
0.0
 11
8.044000000000002
 21
4.227000000000002
 31
0.0
  0
LINE
  5
F7B6FDAF6BC6C80C
330
C829B246627CC81C
100
AcDbEntity
  8
LABEL
100
AcDbLine
 10
7.925000000000002
 20
4.602999999999999
 30
0.0
 11
8.044000000000002
 21
4.602999999999999
 31
0.0
  0
LINE
  5
F7B6FDAF6BC6C80D
330
C829B246627CC81C
100
AcDbEntity
  8
LABEL
100
AcDbLine
 10
7.925000000000002
 20
4.627
 30
0.0
 11
8.044000000000002
 21
4.627
 31
0.0
  0
LINE
  5
F7B6FDAF6BC6C80E
330
C829B246627CC81C
100
AcDbEntity
  8
LABEL
100
AcDbLine
 10
7.833999999999999
 20
5.170999999999999
 30
0.0
 11
8.134
 21
5.170999999999999
 31
0.0
  0
LINE
  5
F7B6FDAF6BC6C818
330
C829B246627CC81C
100
AcDbEntity
  8
LABEL
100
AcDbLine
 10
7.925000000000002
 20
4.802999999999995
 30
0.0
 11
8.044000000000002
 21
4.802999999999995
 31
0.0
  0
LINE
  5
F7B6FDAF6BC6C819
330
C829B246627CC81C
100
AcDbEntity
  8
LABEL
100
AcDbLine
 10
7.925000000000002
 20
4.826999999999996
 30
0.0
 11
8.044000000000002
 21
4.826999999999996
 31
0.0
  0
CIRCLE
  5
F7B6FDAF6BC6C81A
330
C829B246627CC81C
100
AcDbEntity
  8
LABEL
100
AcDbCircle
 10
7.983999999999999
 20
4.814999999999983
 30
0.0
 40
0.0610000000000106
  0
CIRCLE
  5
F7B6FDAF6BC6C81B
330
C829B246627CC81C
100
AcDbEntity
  8
LABEL
100
AcDbCircle
 10
7.983999999999999
 20
5.014999999999986
 30
0.0
 40
0.0610000000000106
  0
LINE
  5
F7B6FDAF6BC6C81C
330
C829B246627CC81C
100
AcDbEntity
  8
LABEL
100
AcDbLine
 10
7.925000000000002
 20
5.002999999999998
 30
0.0
 11
8.044000000000002
 21
5.002999999999998
 31
0.0
  0
LINE
  5
F7B6FDAF6BC6C81D
330
C829B246627CC81C
100
AcDbEntity
  8
LABEL
100
AcDbLine
 10
7.925000000000002
 20
5.026999999999999
 30
0.0
 11
8.044000000000002
 21
5.026999999999999
 31
0.0
  0
LINE
  5
F7B6FDAF6BC6C81F
330
C829B246627CC81C
100
AcDbEntity
  8
LABEL
100
AcDbLine
 10
2.418999999999996
 20
0.6589999999999839
 30
0.0
 11
2.418999999999996
 21
5.164999999999993
 31
0.0
  0
LINE
  5
F7B6FDAF6BC6C820
330
C829B246627CC81C
100
AcDbEntity
  8
LABEL
100
AcDbLine
 10
2.393999999999993
 20
0.6589999999999839
 30
0.0
 11
2.393999999999994
 21
5.164999999999993
 31
0.0
  0
LINE
  5
F7B6FDAF6BC6C821
330
C829B246627CC81C
100
AcDbEntity
  8
LABEL
100
AcDbLine
 10
2.693999999999995
 20
5.164999999999993
 30
0.0
 11
2.693999999999994
 21
0.6589999999999839
 31
0.0
  0
CIRCLE
  5
F7B6FDAF6BC6C822
330
C829B246627CC81C
100
AcDbEntity
  8
LABEL
100
AcDbCircle
 10
2.543999999999995
 20
4.814999999999993
 30
0.0
 40
0.0610000000000106
  0
LINE
  5
F7B6FDAF6BC6C823
330
C829B246627CC81C
100
AcDbEntity
  8
LABEL
100
AcDbLine
 10
2.393999999999994
 20
5.164999999999993
 30
0.0
 11
2.693999999999995
 21
5.164999999999993
 31
0.0
  0
CIRCLE
  5
F7B6FDAF6BC6C824
330
C829B246627CC81C
100
AcDbEntity
  8
LABEL
100
AcDbCircle
 10
2.543999999999995
 20
5.014999999999981
 30
0.0
 40
0.0610000000000106
  0
LINE
  5
F7B6FDAF6BC6C825
330
C829B246627CC81C
100
AcDbEntity
  8
LABEL
100
AcDbLine
 10
2.602999999999992
 20
5.026999999999974
 30
0.0
 11
2.483999999999992
 21
5.026999999999974
 31
0.0
  0
LINE
  5
F7B6FDAF6BC6C826
330
C829B246627CC81C
100
AcDbEntity
  8
LABEL
100
AcDbLine
 10
2.693999999999995
 20
5.164999999999993
 30
0.0
 11
2.693999999999995
 21
5.164999999999993
 31
0.0
  0
LINE
  5
F7B6FDAF6BC6C827
330
C829B246627CC81C
100
AcDbEntity
  8
LABEL
100
AcDbLine
 10
2.602999999999992
 20
5.002999999999973
 30
0.0
 11
2.483999999999992
 21
5.002999999999973
 31
0.0
  0
CIRCLE
  5
F7B6FDAF6BC6C828
330
C829B246627CC81C
100
AcDbEntity
  8
LABEL
100
AcDbCircle
 10
2.543999999999995
 20
4.61499999999999
 30
0.0
 40
0.0610000000000106
  0
LINE
  5
F7B6FDAF6BC6C829
330
C829B246627CC81C
100
AcDbEntity
  8
LABEL
100
AcDbLine
 10
2.602999999999992
 20
4.826999999999978
 30
0.0
 11
2.483999999999992
 21
4.826999999999978
 31
0.0
  0
LINE
  5
F7B6FDAF6BC6C82A
330
C829B246627CC81C
100
AcDbEntity
  8
LABEL
100
AcDbLine
 10
2.602999999999992
 20
4.802999999999977
 30
0.0
 11
2.483999999999992
 21
4.802999999999977
 31
0.0
  0
LINE
  5
F7B6FDAF6BC6C82B
330
C829B246627CC81C
100
AcDbEntity
  8
LABEL
100
AcDbLine
 10
2.602999999999992
 20
4.626999999999982
 30
0.0
 11
2.483999999999992
 21
4.626999999999982
 31
0.0
  0
LINE
  5
F7B6FDAF6BC6C82C
330
C829B246627CC81C
100
AcDbEntity
  8
LABEL
100
AcDbLine
 10
2.602999999999992
 20
4.602999999999981
 30
0.0
 11
2.483999999999992
 21
4.602999999999981
 31
0.0
  0
LINE
  5
F7B6FDAF6BC6C82D
330
C829B246627CC81C
100
AcDbEntity
  8
LABEL
100
AcDbLine
 10
2.602999999999992
 20
4.42699999999998
 30
0.0
 11
2.483999999999992
 21
4.42699999999998
 31
0.0
  0
LINE
  5
F7B6FDAF6BC6C82E
330
C829B246627CC81C
100
AcDbEntity
  8
LABEL
100
AcDbLine
 10
2.602999999999992
 20
4.402999999999979
 30
0.0
 11
2.483999999999992
 21
4.402999999999979
 31
0.0
  0
CIRCLE
  5
F7B6FDAF6BC6C82F
330
C829B246627CC81C
100
AcDbEntity
  8
LABEL
100
AcDbCircle
 10
2.543999999999995
 20
4.414999999999987
 30
0.0
 40
0.0610000000000106
  0
LINE
  5
F7B6FDAF6BC6C830
330
C829B246627CC81C
100
AcDbEntity
  8
LABEL
100
AcDbLine
 10
2.602999999999992
 20
4.226999999999984
 30
0.0
 11
2.483999999999992
 21
4.226999999999984
 31
0.0
  0
LINE
  5
F7B6FDAF6BC6C831
330
C829B246627CC81C
100
AcDbEntity
  8
LABEL
100
AcDbLine
 10
2.602999999999992
 20
4.202999999999983
 30
0.0
 11
2.483999999999992
 21
4.202999999999983
 31
0.0
  0
CIRCLE
  5
F7B6FDAF6BC6C832
330
C829B246627CC81C
100
AcDbEntity
  8
LABEL
100
AcDbCircle
 10
2.543999999999995
 20
4.214999999999998
 30
0.0
 40
0.0610000000000106
  0
CIRCLE
  5
F7B6FDAF6BC6C833
330
C829B246627CC81C
100
AcDbEntity
  8
LABEL
100
AcDbCircle
 10
2.543999999999995
 20
3.414999999999987
 30
0.0
 40
0.0610000000000106
  0
CIRCLE
  5
F7B6FDAF6BC6C834
330
C829B246627CC81C
100
AcDbEntity
  8
LABEL
100
AcDbCircle
 10
2.543999999999995
 20
3.814999999999993
 30
0.0
 40
0.0610000000000106
  0
CIRCLE
  5
F7B6FDAF6BC6C835
330
C829B246627CC81C
100
AcDbEntity
  8
LABEL
100
AcDbCircle
 10
2.543999999999995
 20
4.014999999999996
 30
0.0
 40
0.0610000000000106
  0
LINE
  5
F7B6FDAF6BC6C836
330
C829B246627CC81C
100
AcDbEntity
  8
LABEL
100
AcDbLine
 10
2.602999999999992
 20
4.026999999999981
 30
0.0
 11
2.483999999999992
 21
4.026999999999981
 31
0.0
  0
LINE
  5
F7B6FDAF6BC6C837
330
C829B246627CC81C
100
AcDbEntity
  8
LABEL
100
AcDbLine
 10
2.602999999999992
 20
4.00299999999998
 30
0.0
 11
2.483999999999992
 21
4.00299999999998
 31
0.0
  0
LINE
  5
F7B6FDAF6BC6C838
330
C829B246627CC81C
100
AcDbEntity
  8
LABEL
100
AcDbLine
 10
2.602999999999992
 20
3.826999999999978
 30
0.0
 11
2.483999999999992
 21
3.826999999999978
 31
0.0
  0
LINE
  5
F7B6FDAF6BC6C839
330
C829B246627CC81C
100
AcDbEntity
  8
LABEL
100
AcDbLine
 10
2.602999999999992
 20
3.802999999999977
 30
0.0
 11
2.483999999999992
 21
3.802999999999977
 31
0.0
  0
CIRCLE
  5
F7B6FDAF6BC6C83A
330
C829B246627CC81C
100
AcDbEntity
  8
LABEL
100
AcDbCircle
 10
2.543999999999995
 20
3.61499999999999
 30
0.0
 40
0.0610000000000106
  0
LINE
  5
F7B6FDAF6BC6C83B
330
C829B246627CC81C
100
AcDbEntity
  8
LABEL
100
AcDbLine
 10
2.602999999999992
 20
3.626999999999982
 30
0.0
 11
2.483999999999992
 21
3.626999999999982
 31
0.0
  0
LINE
  5
F7B6FDAF6BC6C83C
330
C829B246627CC81C
100
AcDbEntity
  8
LABEL
100
AcDbLine
 10
2.602999999999992
 20
3.602999999999981
 30
0.0
 11
2.483999999999992
 21
3.602999999999981
 31
0.0
  0
CIRCLE
  5
F7B6FDAF6BC6C83D
330
C829B246627CC81C
100
AcDbEntity
  8
LABEL
100
AcDbCircle
 10
2.543999999999994
 20
3.214999999999998
 30
0.0
 40
0.0610000000000106
  0
LINE
  5
F7B6FDAF6BC6C83E
330
C829B246627CC81C
100
AcDbEntity
  8
LABEL
100
AcDbLine
 10
2.602999999999992
 20
3.42699999999998
 30
0.0
 11
2.483999999999992
 21
3.42699999999998
 31
0.0
  0
LINE
  5
F7B6FDAF6BC6C83F
330
C829B246627CC81C
100
AcDbEntity
  8
LABEL
100
AcDbLine
 10
2.602999999999992
 20
3.402999999999979
 30
0.0
 11
2.483999999999992
 21
3.402999999999979
 31
0.0
  0
LINE
  5
F7B6FDAF6BC6C840
330
C829B246627CC81C
100
AcDbEntity
  8
LABEL
100
AcDbLine
 10
2.602999999999992
 20
3.226999999999984
 30
0.0
 11
2.483999999999992
 21
3.226999999999984
 31
0.0
  0
LINE
  5
F7B6FDAF6BC6C841
330
C829B246627CC81C
100
AcDbEntity
  8
LABEL
100
AcDbLine
 10
2.602999999999992
 20
3.202999999999983
 30
0.0
 11
2.483999999999992
 21
3.202999999999983
 31
0.0
  0
LINE
  5
F7B6FDAF6BC6C842
330
C829B246627CC81C
100
AcDbEntity
  8
LABEL
100
AcDbLine
 10
2.602999999999992
 20
3.026999999999981
 30
0.0
 11
2.483999999999992
 21
3.026999999999981
 31
0.0
  0
LINE
  5
F7B6FDAF6BC6C843
330
C829B246627CC81C
100
AcDbEntity
  8
LABEL
100
AcDbLine
 10
2.602999999999992
 20
3.00299999999998
 30
0.0
 11
2.483999999999992
 21
3.00299999999998
 31
0.0
  0
CIRCLE
  5
F7B6FDAF6BC6C844
330
C829B246627CC81C
100
AcDbEntity
  8
LABEL
100
AcDbCircle
 10
2.543999999999994
 20
3.014999999999996
 30
0.0
 40
0.0610000000000106
  0
LINE
  5
F7B6FDAF6BC6C845
330
C829B246627CC81C
100
AcDbEntity
  8
LABEL
100
AcDbLine
 10
2.602999999999992
 20
2.826999999999985
 30
0.0
 11
2.483999999999992
 21
2.826999999999985
 31
0.0
  0
LINE
  5
F7B6FDAF6BC6C846
330
C829B246627CC81C
100
AcDbEntity
  8
LABEL
100
AcDbLine
 10
2.602999999999992
 20
2.802999999999984
 30
0.0
 11
2.483999999999992
 21
2.802999999999984
 31
0.0
  0
CIRCLE
  5
F7B6FDAF6BC6C847
330
C829B246627CC81C
100
AcDbEntity
  8
LABEL
100
AcDbCircle
 10
2.543999999999994
 20
2.814999999999996
 30
0.0
 40
0.0610000000000106
  0
CIRCLE
  5
F7B6FDAF6BC6C848
330
C829B246627CC81C
100
AcDbEntity
  8
LABEL
100
AcDbCircle
 10
2.543999999999994
 20
2.014999999999992
 30
0.0
 40
0.0610000000000106
  0
CIRCLE
  5
F7B6FDAF6BC6C849
330
C829B246627CC81C
100
AcDbEntity
  8
LABEL
100
AcDbCircle
 10
2.543999999999994
 20
2.414999999999998
 30
0.0
 40
0.0610000000000106
  0
CIRCLE
  5
F7B6FDAF6BC6C84A
330
C829B246627CC81C
100
AcDbEntity
  8
LABEL
100
AcDbCircle
 10
2.543999999999994
 20
2.614999999999993
 30
0.0
 40
0.0610000000000106
  0
LINE
  5
F7B6FDAF6BC6C84B
330
C829B246627CC81C
100
AcDbEntity
  8
LABEL
100
AcDbLine
 10
2.602999999999992
 20
2.626999999999982
 30
0.0
 11
2.483999999999992
 21
2.626999999999982
 31
0.0
  0
LINE
  5
F7B6FDAF6BC6C84C
330
C829B246627CC81C
100
AcDbEntity
  8
LABEL
100
AcDbLine
 10
2.602999999999992
 20
2.602999999999981
 30
0.0
 11
2.483999999999992
 21
2.602999999999981
 31
0.0
  0
LINE
  5
F7B6FDAF6BC6C84D
330
C829B246627CC81C
100
AcDbEntity
  8
LABEL
100
AcDbLine
 10
2.602999999999992
 20
2.426999999999987
 30
0.0
 11
2.483999999999992
 21
2.426999999999987
 31
0.0
  0
LINE
  5
F7B6FDAF6BC6C84E
330
C829B246627CC81C
100
AcDbEntity
  8
LABEL
100
AcDbLine
 10
2.602999999999992
 20
2.402999999999986
 30
0.0
 11
2.483999999999992
 21
2.402999999999986
 31
0.0
  0
CIRCLE
  5
F7B6FDAF6BC6C84F
330
C829B246627CC81C
100
AcDbEntity
  8
LABEL
100
AcDbCircle
 10
2.543999999999994
 20
2.214999999999995
 30
0.0
 40
0.0610000000000106
  0
LINE
  5
F7B6FDAF6BC6C850
330
C829B246627CC81C
100
AcDbEntity
  8
LABEL
100
AcDbLine
 10
2.602999999999992
 20
2.226999999999984
 30
0.0
 11
2.483999999999992
 21
2.226999999999984
 31
0.0
  0
LINE
  5
F7B6FDAF6BC6C851
330
C829B246627CC81C
100
AcDbEntity
  8
LABEL
100
AcDbLine
 10
2.602999999999992
 20
2.202999999999983
 30
0.0
 11
2.483999999999992
 21
2.202999999999983
 31
0.0
  0
CIRCLE
  5
F7B6FDAF6BC6C852
330
C829B246627CC81C
100
AcDbEntity
  8
LABEL
100
AcDbCircle
 10
2.543999999999994
 20
1.814999999999996
 30
0.0
 40
0.0610000000000106
  0
LINE
  5
F7B6FDAF6BC6C853
330
C829B246627CC81C
100
AcDbEntity
  8
LABEL
100
AcDbLine
 10
2.602999999999992
 20
2.026999999999981
 30
0.0
 11
2.483999999999992
 21
2.026999999999981
 31
0.0
  0
LINE
  5
F7B6FDAF6BC6C854
330
C829B246627CC81C
100
AcDbEntity
  8
LABEL
100
AcDbLine
 10
2.602999999999992
 20
2.00299999999998
 30
0.0
 11
2.483999999999992
 21
2.00299999999998
 31
0.0
  0
LINE
  5
F7B6FDAF6BC6C855
330
C829B246627CC81C
100
AcDbEntity
  8
LABEL
100
AcDbLine
 10
2.602999999999992
 20
1.826999999999985
 30
0.0
 11
2.483999999999992
 21
1.826999999999985
 31
0.0
  0
LINE
  5
F7B6FDAF6BC6C856
330
C829B246627CC81C
100
AcDbEntity
  8
LABEL
100
AcDbLine
 10
2.602999999999992
 20
1.802999999999984
 30
0.0
 11
2.483999999999992
 21
1.802999999999984
 31
0.0
  0
LINE
  5
F7B6FDAF6BC6C857
330
C829B246627CC81C
100
AcDbEntity
  8
LABEL
100
AcDbLine
 10
2.602999999999992
 20
1.626999999999982
 30
0.0
 11
2.483999999999992
 21
1.626999999999982
 31
0.0
  0
LINE
  5
F7B6FDAF6BC6C858
330
C829B246627CC81C
100
AcDbEntity
  8
LABEL
100
AcDbLine
 10
2.602999999999992
 20
1.602999999999981
 30
0.0
 11
2.483999999999992
 21
1.602999999999981
 31
0.0
  0
CIRCLE
  5
F7B6FDAF6BC6C859
330
C829B246627CC81C
100
AcDbEntity
  8
LABEL
100
AcDbCircle
 10
2.543999999999994
 20
1.614999999999993
 30
0.0
 40
0.0610000000000106
  0
LINE
  5
F7B6FDAF6BC6C85A
330
C829B246627CC81C
100
AcDbEntity
  8
LABEL
100
AcDbLine
 10
2.602999999999992
 20
1.426999999999987
 30
0.0
 11
2.483999999999992
 21
1.426999999999987
 31
0.0
  0
LINE
  5
F7B6FDAF6BC6C85B
330
C829B246627CC81C
100
AcDbEntity
  8
LABEL
100
AcDbLine
 10
2.602999999999992
 20
1.402999999999986
 30
0.0
 11
2.483999999999992
 21
1.402999999999986
 31
0.0
  0
CIRCLE
  5
F7B6FDAF6BC6C85C
330
C829B246627CC81C
100
AcDbEntity
  8
LABEL
100
AcDbCircle
 10
2.543999999999994
 20
1.414999999999998
 30
0.0
 40
0.0610000000000106
  0
CIRCLE
  5
F7B6FDAF6BC6C85D
330
C829B246627CC81C
100
AcDbEntity
  8
LABEL
100
AcDbCircle
 10
2.543999999999994
 20
1.014999999999999
 30
0.0
 40
0.0610000000000106
  0
CIRCLE
  5
F7B6FDAF6BC6C85E
330
C829B246627CC81C
100
AcDbEntity
  8
LABEL
100
AcDbCircle
 10
2.543999999999994
 20
1.214999999999995
 30
0.0
 40
0.0610000000000106
  0
LINE
  5
F7B6FDAF6BC6C85F
330
C829B246627CC81C
100
AcDbEntity
  8
LABEL
100
AcDbLine
 10
2.602999999999992
 20
1.226999999999984
 30
0.0
 11
2.483999999999992
 21
1.226999999999984
 31
0.0
  0
LINE
  5
F7B6FDAF6BC6C860
330
C829B246627CC81C
100
AcDbEntity
  8
LABEL
100
AcDbLine
 10
2.602999999999992
 20
1.202999999999983
 30
0.0
 11
2.483999999999992
 21
1.202999999999983
 31
0.0
  0
LINE
  5
F7B6FDAF6BC6C861
330
C829B246627CC81C
100
AcDbEntity
  8
LABEL
100
AcDbLine
 10
2.602999999999991
 20
1.002999999999987
 30
0.0
 11
2.483999999999992
 21
1.002999999999987
 31
0.0
  0
LINE
  5
F7B6FDAF6BC6C862
330
C829B246627CC81C
100
AcDbEntity
  8
LABEL
100
AcDbLine
 10
2.602999999999991
 20
1.026999999999988
 30
0.0
 11
2.483999999999992
 21
1.026999999999988
 31
0.0
  0
LINE
  5
F7B6FDAF6BC6C863
330
C829B246627CC81C
100
AcDbEntity
  8
LABEL
100
AcDbLine
 10
2.693999999999994
 20
0.6589999999999839
 30
0.0
 11
2.393999999999993
 21
0.6589999999999839
 31
0.0
  0
CIRCLE
  5
F7B6FDAF6BC6C864
330
C829B246627CC81C
100
AcDbEntity
  8
LABEL
100
AcDbCircle
 10
2.543999999999994
 20
0.8149999999999968
 30
0.0
 40
0.0610000000000106
  0
LINE
  5
F7B6FDAF6BC6C865
330
C829B246627CC81C
100
AcDbEntity
  8
LABEL
100
AcDbLine
 10
2.602999999999991
 20
0.8029999999999848
 30
0.0
 11
2.483999999999991
 21
0.8029999999999848
 31
0.0
  0
LINE
  5
F7B6FDAF6BC6C866
330
C829B246627CC81C
100
AcDbEntity
  8
LABEL
100
AcDbLine
 10
2.602999999999991
 20
0.8269999999999857
 30
0.0
 11
2.483999999999991
 21
0.8269999999999857
 31
0.0
  0
LINE
  5
F7B6FDAF6BC6C8C1
330
C829B246627CC81C
100
AcDbEntity
  8
LABEL
100
AcDbLine
 10
6.833999999999996
 20
0.5149999999999895
 30
0.0
 11
5.937
 21
0.5149999999999895
 31
0.0
  0
LINE
  5
F7B6FDAF6BC6C8C2
330
C829B246627CC81C
100
AcDbEntity
  8
LABEL
100
AcDbLine
 10
5.937
 20
0.8149999999999902
 30
0.0
 11
6.833999999999996
 21
0.8149999999999902
 31
0.0
  0
LINE
  5
F7B6FDAF6BC6C8C3
330
C829B246627CC81C
100
AcDbEntity
  8
LABEL
100
AcDbLine
 10
6.833999999999996
 20
0.5399999999999916
 30
0.0
 11
5.937
 21
0.5399999999999916
 31
0.0
  0
LINE
  5
F7B6FDAF6BC6C8C7
330
C829B246627CC81C
100
AcDbEntity
  8
LABEL
100
AcDbLine
 10
5.937
 20
0.5149999999999895
 30
0.0
 11
5.937
 21
0.8149999999999902
 31
0.0
  0
CIRCLE
  5
F7B6FDAF6BC6C8FA
330
C829B246627CC81C
100
AcDbEntity
  8
LABEL
100
AcDbCircle
 10
6.283999999999998
 20
0.6649999999999916
 30
0.0
 40
0.0610000000000106
  0
LINE
  5
F7B6FDAF6BC6C900
330
C829B246627CC81C
100
AcDbEntity
  8
LABEL
100
AcDbLine
 10
6.072000000000006
 20
0.7239999999999878
 30
0.0
 11
6.072000000000006
 21
0.6049999999999876
 31
0.0
  0
LINE
  5
F7B6FDAF6BC6C901
330
C829B246627CC81C
100
AcDbEntity
  8
LABEL
100
AcDbLine
 10
6.096000000000007
 20
0.7239999999999878
 30
0.0
 11
6.096000000000007
 21
0.6049999999999876
 31
0.0
  0
CIRCLE
  5
F7B6FDAF6BC6C902
330
C829B246627CC81C
100
AcDbEntity
  8
LABEL
100
AcDbCircle
 10
6.083999999999996
 20
0.6649999999999916
 30
0.0
 40
0.0610000000000106
  0
CIRCLE
  5
F7B6FDAF6BC6C904
330
C829B246627CC81C
100
AcDbEntity
  8
LABEL
100
AcDbCircle
 10
6.683999999999997
 20
0.6649999999999916
 30
0.0
 40
0.0610000000000106
  0
LINE
  5
F7B6FDAF6BC6C905
330
C829B246627CC81C
100
AcDbEntity
  8
LABEL
100
AcDbLine
 10
6.472000000000004
 20
0.7239999999999878
 30
0.0
 11
6.472000000000004
 21
0.6049999999999876
 31
0.0
  0
LINE
  5
F7B6FDAF6BC6C906
330
C829B246627CC81C
100
AcDbEntity
  8
LABEL
100
AcDbLine
 10
6.496000000000005
 20
0.7239999999999878
 30
0.0
 11
6.496000000000005
 21
0.6049999999999876
 31
0.0
  0
CIRCLE
  5
F7B6FDAF6BC6C907
330
C829B246627CC81C
100
AcDbEntity
  8
LABEL
100
AcDbCircle
 10
6.483999999999994
 20
0.6649999999999916
 30
0.0
 40
0.0610000000000106
  0
LINE
  5
F7B6FDAF6BC6C908
330
C829B246627CC81C
100
AcDbEntity
  8
LABEL
100
AcDbLine
 10
6.272000000000009
 20
0.7239999999999878
 30
0.0
 11
6.272000000000009
 21
0.6049999999999876
 31
0.0
  0
LINE
  5
F7B6FDAF6BC6C909
330
C829B246627CC81C
100
AcDbEntity
  8
LABEL
100
AcDbLine
 10
6.29600000000001
 20
0.7239999999999878
 30
0.0
 11
6.29600000000001
 21
0.6049999999999876
 31
0.0
  0
LINE
  5
F7B6FDAF6BC6C90A
330
C829B246627CC81C
100
AcDbEntity
  8
LABEL
100
AcDbLine
 10
6.672000000000007
 20
0.7239999999999878
 30
0.0
 11
6.672000000000007
 21
0.6049999999999876
 31
0.0
  0
LINE
  5
F7B6FDAF6BC6C90B
330
C829B246627CC81C
100
AcDbEntity
  8
LABEL
100
AcDbLine
 10
6.696000000000008
 20
0.7239999999999878
 30
0.0
 11
6.696000000000008
 21
0.6049999999999876
 31
0.0
  0
LINE
  5
F7B6FDAF6BC6C90C
330
C829B246627CC81C
100
AcDbEntity
  8
LABEL
100
AcDbLine
 10
6.833999999999996
 20
0.8149999999999902
 30
0.0
 11
6.833999999999996
 21
0.5149999999999895
 31
0.0
  0
LINE
  5
F7B6FDAF6BC6C916
330
C829B246627CC81C
100
AcDbEntity
  8
LABEL
100
AcDbLine
 10
4.638999999999994
 20
0.5449999999999915
 30
0.0
 11
4.142
 21
0.5449999999999915
 31
0.0
  0
LINE
  5
F7B6FDAF6BC6C917
330
C829B246627CC81C
100
AcDbEntity
  8
LABEL
100
AcDbLine
 10
4.638999999999994
 20
0.5199999999999894
 30
0.0
 11
4.142
 21
0.5199999999999894
 31
0.0
  0
LINE
  5
F7B6FDAF6BC6C918
330
C829B246627CC81C
100
AcDbEntity
  8
LABEL
100
AcDbLine
 10
4.142
 20
0.8199999999999899
 30
0.0
 11
4.638999999999994
 21
0.8199999999999899
 31
0.0
  0
LINE
  5
F7B6FDAF6BC6C919
330
C829B246627CC81C
100
AcDbEntity
  8
LABEL
100
AcDbLine
 10
4.142
 20
0.5199999999999894
 30
0.0
 11
4.142
 21
0.8199999999999899
 31
0.0
  0
LINE
  5
F7B6FDAF6BC6C91A
330
C829B246627CC81C
100
AcDbEntity
  8
LABEL
100
AcDbLine
 10
4.638999999999994
 20
0.8199999999999899
 30
0.0
 11
4.638999999999994
 21
0.5199999999999894
 31
0.0
  0
CIRCLE
  5
F7B6FDAF6BC6C91B
330
C829B246627CC81C
100
AcDbEntity
  8
LABEL
100
AcDbCircle
 10
4.288999999999992
 20
0.6699999999999915
 30
0.0
 40
0.0610000000000106
  0
CIRCLE
  5
F7B6FDAF6BC6C922
330
C829B246627CC81C
100
AcDbEntity
  8
LABEL
100
AcDbCircle
 10
4.488999999999995
 20
0.6699999999999915
 30
0.0
 40
0.0610000000000106
  0
LINE
  5
F7B6FDAF6BC6C923
330
C829B246627CC81C
100
AcDbEntity
  8
LABEL
100
AcDbLine
 10
4.301000000000003
 20
0.7289999999999877
 30
0.0
 11
4.301000000000003
 21
0.6099999999999875
 31
0.0
  0
LINE
  5
F7B6FDAF6BC6C924
330
C829B246627CC81C
100
AcDbEntity
  8
LABEL
100
AcDbLine
 10
4.277000000000002
 20
0.7289999999999877
 30
0.0
 11
4.277000000000002
 21
0.6099999999999875
 31
0.0
  0
LINE
  5
F7B6FDAF6BC6C925
330
C829B246627CC81C
100
AcDbEntity
  8
LABEL
100
AcDbLine
 10
4.477000000000005
 20
0.7289999999999877
 30
0.0
 11
4.477000000000005
 21
0.6099999999999875
 31
0.0
  0
LINE
  5
F7B6FDAF6BC6C926
330
C829B246627CC81C
100
AcDbEntity
  8
LABEL
100
AcDbLine
 10
4.501000000000006
 20
0.7289999999999877
 30
0.0
 11
4.501000000000006
 21
0.6099999999999875
 31
0.0
  0
ENDSEC
  0
SECTION
  2
OBJECTS
  0
DICTIONARY
  5
C829B246627CC80A
330
0
100
AcDbDictionary
281
     1
  3
ACAD_GROUP
350
C829B246627CC80B
  3
ACAD_LAYOUT
350
C829B246627CC817
  3
ACAD_MLINESTYLE
350
C829B246627CC814
  3
ACAD_PLOTSETTINGS
350
C829B246627CC816
  3
ACAD_PLOTSTYLENAME
350
C829B246627CC80C
  3
DWGPROPS
350
F7B6FDAF6BC6C766
  0
DICTIONARY
  5
C829B246627CC80B
102
{ACAD_REACTORS
330
C829B246627CC80A
102
}
330
C829B246627CC80A
100
AcDbDictionary
281
     1
  0
DICTIONARY
  5
C829B246627CC817
102
{ACAD_REACTORS
330
C829B246627CC80A
102
}
330
C829B246627CC80A
100
AcDbDictionary
281
     1
  3
Layout1
350
C829B246627CC81B
  3
Model
350
C829B246627CC81F
  0
DICTIONARY
  5
C829B246627CC814
102
{ACAD_REACTORS
330
C829B246627CC80A
102
}
330
C829B246627CC80A
100
AcDbDictionary
281
     1
  3
Standard
350
C829B246627CC815
  0
DICTIONARY
  5
C829B246627CC816
102
{ACAD_REACTORS
330
C829B246627CC80A
102
}
330
C829B246627CC80A
100
AcDbDictionary
281
     1
  0
ACDBDICTIONARYWDFLT
  5
C829B246627CC80C
102
{ACAD_REACTORS
330
C829B246627CC80A
102
}
330
C829B246627CC80A
100
AcDbDictionary
281
     1
  3
Normal
350
C829B246627CC80D
100
AcDbDictionaryWithDefault
340
C829B246627CC80D
  0
XRECORD
  5
F7B6FDAF6BC6C766
102
{ACAD_REACTORS
330
C829B246627CC80A
102
}
330
C829B246627CC80A
100
AcDbXrecord
280
     1
  1
DWGPROPS COOKIE
  2

  3

  4

  6

  7

  8
tphillipsmain
  9

300
=
301
=
302
=
303
=
304
=
305
=
306
=
307
=
308
=
309
=
 40
0.0231295717592593
 41
2453297.582994675
 42
2453578.621076539
  1

 90
        0
  0
LAYOUT
  5
C829B246627CC81B
102
{ACAD_REACTORS
330
C829B246627CC817
102
}
330
C829B246627CC817
100
AcDbPlotSettings
  1

  2
\\ENGPRINTSERV\QMS 2425 Eng Printer
  4

  6

 40
0.0
 41
0.0
 42
0.0
 43
0.0
 44
0.0
 45
0.0
 46
0.0
 47
0.0
 48
0.0
 49
0.0
140
0.0
141
0.0
142
1.0
143
1.0
 70
   688
 72
     0
 73
     0
 74
     5
  7

 75
    16
147
1.0
148
0.0
149
0.0
100
AcDbLayout
  1
Layout1
 70
     0
 71
     1
 10
0.0
 20
0.0
 11
12.0
 21
9.0
 12
0.0
 22
0.0
 32
0.0
 14
1.000000000000000E+20
 24
1.000000000000000E+20
 34
1.000000000000000E+20
 15
-1.000000000000000E+20
 25
-1.000000000000000E+20
 35
-1.000000000000000E+20
146
0.0
 13
0.0
 23
0.0
 33
0.0
 16
1.0
 26
0.0
 36
0.0
 17
0.0
 27
1.0
 37
0.0
 76
     0
330
C829B246627CC818
  0
LAYOUT
  5
C829B246627CC81F
102
{ACAD_REACTORS
330
C829B246627CC817
102
}
330
C829B246627CC817
100
AcDbPlotSettings
  1

  2
\\ZEUS2003\FieryX12GreyScale
  4
Letter
  6

 40
3.96875
 41
5.027069091796875
 42
5.365753173828125
 43
3.96875
 44
215.8999938964843
 45
279.3999938964843
 46
0.0
 47
0.0
 48
0.0
 49
0.0
140
0.0
141
0.0
142
1.0
143
1.120157777738211
 70
 11952
 72
     0
 73
     1
 74
     0
  7

 75
     0
147
0.8927313811266566
148
-24.87845892973469
149
1.632401248080161
100
AcDbLayout
  1
Model
 70
     1
 71
     0
 10
0.0
 20
0.0
 11
12.0
 21
9.0
 12
0.0
 22
0.0
 32
0.0
 14
0.0
 24
0.0
 34
0.0
 15
0.0
 25
0.0
 35
0.0
146
0.0
 13
0.0
 23
0.0
 33
0.0
 16
1.0
 26
0.0
 36
0.0
 17
0.0
 27
1.0
 37
0.0
 76
     0
330
C829B246627CC81C
  0
MLINESTYLE
  5
C829B246627CC815
102
{ACAD_REACTORS
330
C829B246627CC814
102
}
330
C829B246627CC814
100
AcDbMlineStyle
  2
STANDARD
 70
     0
  3

 62
   256
 51
90.0
 52
90.0
 71
     2
 49
0.5
 62
   256
  6
BYLAYER
 49
-0.5
 62
   256
  6
BYLAYER
  0
ACDBPLACEHOLDER
  5
C829B246627CC80D
102
{ACAD_REACTORS
330
C829B246627CC80C
102
}
330
C829B246627CC80C
  0
ENDSEC
  0
EOF
