  0
SECTION
  2
HEADER
  9
$ACADVER
  1
AC1015
  9
$ACADMAINTVER
 70
    10
  9
$DWGCODEPAGE
  3
ANSI_1252
  9
$INSBASE
 10
0.0
 20
0.0
 30
0.0
  9
$EXTMIN
 10
9.72485697773931
 20
3.657395999629778
 30
0.0
  9
$EXTMAX
 10
16.77663367303596
 20
9.709172694926412
 30
0.0
  9
$LIMMIN
 10
0.0
 20
0.0
  9
$LIMMAX
 10
12.0
 20
9.0
  9
$ORTHOMODE
 70
     1
  9
$REGENMODE
 70
     1
  9
$FILLMODE
 70
     1
  9
$QTEXTMODE
 70
     0
  9
$MIRRTEXT
 70
     1
  9
$LTSCALE
 40
0.1
  9
$ATTMODE
 70
     1
  9
$TEXTSIZE
 40
0.1
  9
$TRACEWID
 40
0.05
  9
$TEXTSTYLE
  7
BRUSHSCRIPT
  9
$CLAYER
  8
LABEL
  9
$CELTYPE
  6
ByLayer
  9
$CECOLOR
 62
   256
  9
$CELTSCALE
 40
1.0
  9
$DISPSILH
 70
     0
  9
$DIMSCALE
 40
1.0
  9
$DIMASZ
 40
0.18
  9
$DIMEXO
 40
0.0625
  9
$DIMDLI
 40
0.38
  9
$DIMRND
 40
0.0
  9
$DIMDLE
 40
0.0
  9
$DIMEXE
 40
0.18
  9
$DIMTP
 40
0.0
  9
$DIMTM
 40
0.0
  9
$DIMTXT
 40
0.075
  9
$DIMCEN
 40
0.03
  9
$DIMTSZ
 40
0.0
  9
$DIMTOL
 70
     0
  9
$DIMLIM
 70
     0
  9
$DIMTIH
 70
     1
  9
$DIMTOH
 70
     1
  9
$DIMSE1
 70
     0
  9
$DIMSE2
 70
     0
  9
$DIMTAD
 70
     0
  9
$DIMZIN
 70
     0
  9
$DIMBLK
  1

  9
$DIMASO
 70
     1
  9
$DIMSHO
 70
     1
  9
$DIMPOST
  1

  9
$DIMAPOST
  1

  9
$DIMALT
 70
     0
  9
$DIMALTD
 70
     2
  9
$DIMALTF
 40
25.4
  9
$DIMLFAC
 40
1.0
  9
$DIMTOFL
 70
     0
  9
$DIMTVP
 40
0.0
  9
$DIMTIX
 70
     0
  9
$DIMSOXD
 70
     0
  9
$DIMSAH
 70
     0
  9
$DIMBLK1
  1

  9
$DIMBLK2
  1

  9
$DIMSTYLE
  2
Standard
  9
$DIMCLRD
 70
     0
  9
$DIMCLRE
 70
     0
  9
$DIMCLRT
 70
     0
  9
$DIMTFAC
 40
2.399999999999999
  9
$DIMGAP
 40
0.09
  9
$DIMJUST
 70
     0
  9
$DIMSD1
 70
     0
  9
$DIMSD2
 70
     0
  9
$DIMTOLJ
 70
     1
  9
$DIMTZIN
 70
     0
  9
$DIMALTZ
 70
     0
  9
$DIMALTTZ
 70
     0
  9
$DIMUPT
 70
     0
  9
$DIMDEC
 70
     4
  9
$DIMTDEC
 70
     4
  9
$DIMALTU
 70
     2
  9
$DIMALTTD
 70
     2
  9
$DIMTXSTY
  7
STANDARD
  9
$DIMAUNIT
 70
     0
  9
$DIMADEC
 70
     0
  9
$DIMALTRND
 40
0.0
  9
$DIMAZIN
 70
     0
  9
$DIMDSEP
 70
    46
  9
$DIMATFIT
 70
     3
  9
$DIMFRAC
 70
     0
  9
$DIMLDRBLK
  1

  9
$DIMLUNIT
 70
     2
  9
$DIMLWD
 70
    -2
  9
$DIMLWE
 70
    -2
  9
$DIMTMOVE
 70
     2
  9
$LUNITS
 70
     2
  9
$LUPREC
 70
     4
  9
$SKETCHINC
 40
0.1
  9
$FILLETRAD
 40
0.5
  9
$AUNITS
 70
     0
  9
$AUPREC
 70
     0
  9
$MENU
  1
acad
  9
$ELEVATION
 40
0.0
  9
$PELEVATION
 40
0.0
  9
$THICKNESS
 40
0.0
  9
$LIMCHECK
 70
     0
  9
$CHAMFERA
 40
0.5
  9
$CHAMFERB
 40
0.5
  9
$CHAMFERC
 40
0.0
  9
$CHAMFERD
 40
0.0
  9
$SKPOLY
 70
     0
  9
$TDCREATE
 40
2453208.858126041
  9
$TDUCREATE
 40
2453209.191459375
  9
$TDUPDATE
 40
2453692.459005277
  9
$TDUUPDATE
 40
2453692.792338610
  9
$TDINDWG
 40
1.0379630671
  9
$TDUSRTIMER
 40
1.0379630671
  9
$USRTIMER
 70
     1
  9
$ANGBASE
 50
0.0
  9
$ANGDIR
 70
     0
  9
$PDMODE
 70
     0
  9
$PDSIZE
 40
0.0
  9
$PLINEWID
 40
0.02
  9
$SPLFRAME
 70
     0
  9
$SPLINETYPE
 70
     6
  9
$SPLINESEGS
 70
     8
  9
$HANDSEED
  5
F6DFB5ED78D8D9E8
  9
$SURFTAB1
 70
     6
  9
$SURFTAB2
 70
     6
  9
$SURFTYPE
 70
     6
  9
$SURFU
 70
     6
  9
$SURFV
 70
     6
  9
$UCSBASE
  2

  9
$UCSNAME
  2

  9
$UCSORG
 10
34.03574532538764
 20
3.8082843472781
 30
0.0
  9
$UCSXDIR
 10
1.0
 20
0.0
 30
0.0
  9
$UCSYDIR
 10
0.0
 20
1.0
 30
0.0
  9
$UCSORTHOREF
  2

  9
$UCSORTHOVIEW
 70
     0
  9
$UCSORGTOP
 10
0.0
 20
0.0
 30
0.0
  9
$UCSORGBOTTOM
 10
0.0
 20
0.0
 30
0.0
  9
$UCSORGLEFT
 10
0.0
 20
0.0
 30
0.0
  9
$UCSORGRIGHT
 10
0.0
 20
0.0
 30
0.0
  9
$UCSORGFRONT
 10
0.0
 20
0.0
 30
0.0
  9
$UCSORGBACK
 10
0.0
 20
0.0
 30
0.0
  9
$PUCSBASE
  2

  9
$PUCSNAME
  2

  9
$PUCSORG
 10
0.0
 20
0.0
 30
0.0
  9
$PUCSXDIR
 10
1.0
 20
0.0
 30
0.0
  9
$PUCSYDIR
 10
0.0
 20
1.0
 30
0.0
  9
$PUCSORTHOREF
  2

  9
$PUCSORTHOVIEW
 70
     0
  9
$PUCSORGTOP
 10
0.0
 20
0.0
 30
0.0
  9
$PUCSORGBOTTOM
 10
0.0
 20
0.0
 30
0.0
  9
$PUCSORGLEFT
 10
0.0
 20
0.0
 30
0.0
  9
$PUCSORGRIGHT
 10
0.0
 20
0.0
 30
0.0
  9
$PUCSORGFRONT
 10
0.0
 20
0.0
 30
0.0
  9
$PUCSORGBACK
 10
0.0
 20
0.0
 30
0.0
  9
$USERI1
 70
     0
  9
$USERI2
 70
     0
  9
$USERI3
 70
     0
  9
$USERI4
 70
     0
  9
$USERI5
 70
     0
  9
$USERR1
 40
0.0
  9
$USERR2
 40
0.0
  9
$USERR3
 40
0.0
  9
$USERR4
 40
0.0
  9
$USERR5
 40
0.0
  9
$WORLDVIEW
 70
     1
  9
$SHADEDGE
 70
     3
  9
$SHADEDIF
 70
    70
  9
$TILEMODE
 70
     1
  9
$MAXACTVP
 70
    16
  9
$PINSBASE
 10
0.0
 20
0.0
 30
0.0
  9
$PLIMCHECK
 70
     0
  9
$PEXTMIN
 10
1.000000000000000E+20
 20
1.000000000000000E+20
 30
1.000000000000000E+20
  9
$PEXTMAX
 10
-1.000000000000000E+20
 20
-1.000000000000000E+20
 30
-1.000000000000000E+20
  9
$PLIMMIN
 10
0.0
 20
0.0
  9
$PLIMMAX
 10
12.0
 20
9.0
  9
$UNITMODE
 70
     0
  9
$VISRETAIN
 70
     0
  9
$PLINEGEN
 70
     0
  9
$PSLTSCALE
 70
     0
  9
$TREEDEPTH
 70
  3020
  9
$CMLSTYLE
  2
Standard
  9
$CMLJUST
 70
     0
  9
$CMLSCALE
 40
1.0
  9
$PROXYGRAPHICS
 70
     1
  9
$MEASUREMENT
 70
     0
  9
$CELWEIGHT
370
    -1
  9
$ENDCAPS
280
     0
  9
$JOINSTYLE
280
     0
  9
$LWDISPLAY
290
     0
  9
$INSUNITS
 70
     0
  9
$HYPERLINKBASE
  1

  9
$STYLESHEET
  1

  9
$XEDIT
290
     1
  9
$CEPSNTYPE
380
     0
  9
$PSTYLEMODE
290
     1
  9
$FINGERPRINTGUID
  2
{A9DBF1E8-1C50-4995-AFDF-80FDDA208A20}
  9
$VERSIONGUID
  2
{86708EEB-1709-4840-8479-400BAD521474}
  9
$EXTNAMES
290
     1
  9
$PSVPSCALE
 40
0.0
  9
$OLESTARTUP
290
     0
  0
ENDSEC
  0
SECTION
  2
CLASSES
  0
CLASS
  1
ACDBDICTIONARYWDFLT
  2
AcDbDictionaryWithDefault
  3
AutoCAD 2000
 90
        0
280
     0
281
     0
  0
CLASS
  1
ACDBPLACEHOLDER
  2
AcDbPlaceHolder
  3
AutoCAD 2000
 90
        0
280
     0
281
     0
  0
CLASS
  1
LAYOUT
  2
AcDbLayout
  3
AutoCAD 2000
 90
        0
280
     0
281
     0
  0
ENDSEC
  0
SECTION
  2
TABLES
  0
TABLE
  2
VPORT
  5
A2409E46B754B19
330
0
100
AcDbSymbolTable
 70
     2
  0
VPORT
  5
F6DFB5ED78D8D9E7
330
A2409E46B754B19
100
AcDbSymbolTableRecord
100
AcDbViewportTableRecord
  2
*Active
 70
     0
 10
0.0
 20
0.0
 11
1.0
 21
1.0
 12
15.79478641079485
 22
6.320537740690909
 13
0.0
 23
0.0
 14
0.001
 24
0.001
 15
0.001
 25
0.001
 16
0.0
 26
0.0
 36
1.0
 17
0.0
 27
0.0
 37
0.0
 40
7.733488703740801
 41
1.767754318618042
 42
50.0
 43
0.0
 44
0.0
 50
0.0
 51
0.0
 71
     0
 72
   100
 73
     1
 74
     0
 75
     1
 76
     1
 77
     0
 78
     0
281
     0
 65
     1
110
0.0
120
0.0
130
0.0
111
1.0
121
0.0
131
0.0
112
0.0
122
1.0
132
0.0
 79
     0
146
0.0
  0
ENDTAB
  0
TABLE
  2
LTYPE
  5
A2409E46B754B16
330
0
100
AcDbSymbolTable
 70
     1
  0
LTYPE
  5
A2409E46B754B24
330
A2409E46B754B16
100
AcDbSymbolTableRecord
100
AcDbLinetypeTableRecord
  2
ByBlock
 70
     0
  3

 72
    65
 73
     0
 40
0.0
  0
LTYPE
  5
A2409E46B754B25
330
A2409E46B754B16
100
AcDbSymbolTableRecord
100
AcDbLinetypeTableRecord
  2
ByLayer
 70
     0
  3

 72
    65
 73
     0
 40
0.0
  0
LTYPE
  5
A2409E46B754B26
330
A2409E46B754B16
100
AcDbSymbolTableRecord
100
AcDbLinetypeTableRecord
  2
CONTINUOUS
 70
     0
  3
Solid line
 72
    65
 73
     0
 40
0.0
  0
ENDTAB
  0
TABLE
  2
LAYER
  5
A2409E46B754B13
330
0
100
AcDbSymbolTable
 70
     4
  0
LAYER
  5
A2409E46B754B21
330
A2409E46B754B13
100
AcDbSymbolTableRecord
100
AcDbLayerTableRecord
  2
0
 70
     0
 62
     7
  6
CONTINUOUS
370
    -3
390
A2409E46B754B20
  0
LAYER
  5
A2409E46B754B40
330
A2409E46B754B13
100
AcDbSymbolTableRecord
100
AcDbLayerTableRecord
  2
CASE
 70
     0
 62
     7
  6
CONTINUOUS
370
    -3
390
A2409E46B754B20
  0
LAYER
  5
A2409E46B754B41
330
A2409E46B754B13
100
AcDbSymbolTableRecord
100
AcDbLayerTableRecord
  2
LABEL
 70
     0
 62
     7
  6
CONTINUOUS
370
    -3
390
A2409E46B754B20
  0
LAYER
  5
A2409E46B754B42
330
A2409E46B754B13
100
AcDbSymbolTableRecord
100
AcDbLayerTableRecord
  2
COMP
 70
     0
 62
     7
  6
CONTINUOUS
370
    -3
390
A2409E46B754B20
  0
ENDTAB
  0
TABLE
  2
STYLE
  5
A2409E46B754B14
330
0
100
AcDbSymbolTable
 70
     3
  0
STYLE
  5
A2409E46B754B22
330
A2409E46B754B14
100
AcDbSymbolTableRecord
100
AcDbTextStyleTableRecord
  2
STANDARD
 70
     0
 40
0.0
 41
1.0
 50
0.0
 71
     0
 42
0.1
  3
txt
  4

  0
STYLE
  5
A2409E46B754B3C
330
A2409E46B754B14
100
AcDbSymbolTableRecord
100
AcDbTextStyleTableRecord
  2
ADESK1
 70
     0
 40
0.0
 41
1.0
 50
0.0
 71
     0
 42
0.25
  3
romans
  4

  0
STYLE
  5
A2409E46B754B3D
330
A2409E46B754B14
100
AcDbSymbolTableRecord
100
AcDbTextStyleTableRecord
  2
BRUSHSCRIPT
 70
     0
 40
0.1
 41
1.0
 50
0.0
 71
     0
 42
0.1
  3
brushscript.shx
  4

  0
ENDTAB
  0
TABLE
  2
VIEW
  5
A2409E46B754B17
330
0
100
AcDbSymbolTable
 70
     0
  0
ENDTAB
  0
TABLE
  2
UCS
  5
A2409E46B754B18
330
0
100
AcDbSymbolTable
 70
     0
  0
ENDTAB
  0
TABLE
  2
APPID
  5
A2409E46B754B1A
330
0
100
AcDbSymbolTable
 70
     1
  0
APPID
  5
A2409E46B754B23
330
A2409E46B754B1A
100
AcDbSymbolTableRecord
100
AcDbRegAppTableRecord
  2
ACAD
 70
     0
  0
ENDTAB
  0
TABLE
  2
DIMSTYLE
  5
A2409E46B754B1B
330
0
100
AcDbSymbolTable
 70
     1
100
AcDbDimStyleTable
 71
     0
  0
DIMSTYLE
105
F6DFB5ED78D8D7FD
330
A2409E46B754B1B
100
AcDbSymbolTableRecord
100
AcDbDimStyleTableRecord
  2
Standard
 70
     0
340
A2409E46B754B22
  0
ENDTAB
  0
TABLE
  2
BLOCK_RECORD
  5
A2409E46B754B12
330
0
100
AcDbSymbolTable
 70
     8
  0
BLOCK_RECORD
  5
A2409E46B754B2F
330
A2409E46B754B12
100
AcDbSymbolTableRecord
100
AcDbBlockTableRecord
  2
*Model_Space
340
A2409E46B754B32
  0
BLOCK_RECORD
  5
A2409E46B754B2B
330
A2409E46B754B12
100
AcDbSymbolTableRecord
100
AcDbBlockTableRecord
  2
*Paper_Space
340
A2409E46B754B2E
  0
BLOCK_RECORD
  5
A2409E46B754B33
330
A2409E46B754B12
100
AcDbSymbolTableRecord
100
AcDbBlockTableRecord
  2
ACAD1C6F
340
0
102
{BLKREFS
331
6C920E8BF1539CD5
102
}
  0
BLOCK_RECORD
  5
A2409E46B754B34
330
A2409E46B754B12
100
AcDbSymbolTableRecord
100
AcDbBlockTableRecord
  2
ACAD006E
340
0
102
{BLKREFS
331
6C920E8BF1539D0C
102
}
  0
BLOCK_RECORD
  5
A2409E46B754B35
330
A2409E46B754B12
100
AcDbSymbolTableRecord
100
AcDbBlockTableRecord
  2
ACAD0312
340
0
102
{BLKREFS
331
6C920E8BF1539E1D
102
}
  0
BLOCK_RECORD
  5
A2409E46B754B36
330
A2409E46B754B12
100
AcDbSymbolTableRecord
100
AcDbBlockTableRecord
  2
ACAD0626
340
0
102
{BLKREFS
331
6C920E8BF1539B7C
102
}
  0
BLOCK_RECORD
  5
A2409E46B754B38
330
A2409E46B754B12
100
AcDbSymbolTableRecord
100
AcDbBlockTableRecord
  2
ACAD037A
340
0
102
{BLKREFS
331
179D0A557A67615E
331
179D0A557A67615F
331
179D0A557A676164
331
179D0A557A676172
331
179D0A557A6761F2
331
179D0A557A6761FB
331
179D0A557A676204
331
179D0A557A676205
102
}
  0
BLOCK_RECORD
  5
A2409E46B754B39
330
A2409E46B754B12
100
AcDbSymbolTableRecord
100
AcDbBlockTableRecord
  2
ACAD3267
340
0
102
{BLKREFS
331
179D0A557A6761F3
102
}
  0
BLOCK_RECORD
  5
A2409E46B754B3A
330
A2409E46B754B12
100
AcDbSymbolTableRecord
100
AcDbBlockTableRecord
  2
ACAD0C1E
340
0
102
{BLKREFS
331
179D0A557A676171
331
179D0A557A676175
331
179D0A557A6761F8
331
179D0A557A6761FA
331
179D0A557A676200
331
179D0A557A676203
331
179D0A557A676206
331
179D0A557A676207
102
}
  0
BLOCK_RECORD
  5
A2409E46B754B3B
330
A2409E46B754B12
100
AcDbSymbolTableRecord
100
AcDbBlockTableRecord
  2
ACAD3D28
340
0
102
{BLKREFS
331
A2409E46B754B11
102
}
  0
ENDTAB
  0
ENDSEC
  0
SECTION
  2
BLOCKS
  0
BLOCK
  5
A2409E46B754B45
330
A2409E46B754B2F
100
AcDbEntity
  8
0
100
AcDbBlockBegin
  2
*Model_Space
 70
     0
 10
0.0
 20
0.0
 30
0.0
  3
*Model_Space
  1

  0
ENDBLK
  5
A2409E46B754B46
330
A2409E46B754B2F
100
AcDbEntity
  8
0
100
AcDbBlockEnd
  0
BLOCK
  5
A2409E46B754B43
330
A2409E46B754B2B
100
AcDbEntity
 67
     1
  8
0
100
AcDbBlockBegin
  2
*Paper_Space
 70
     0
 10
0.0
 20
0.0
 30
0.0
  3
*Paper_Space
  1

  0
ENDBLK
  5
A2409E46B754B44
330
A2409E46B754B2B
100
AcDbEntity
 67
     1
  8
0
100
AcDbBlockEnd
  0
BLOCK
  5
1
330
A2409E46B754B33
100
AcDbEntity
  8
0
100
AcDbBlockBegin
  2
ACAD1C6F
 70
     0
 10
0.0
 20
0.0
 30
0.0
  3
ACAD1C6F
  1

  0
ARC
  5
2
330
A2409E46B754B33
100
AcDbEntity
  8
CASE
100
AcDbCircle
 10
0.0
 20
0.0
 30
0.0
 40
0.1180000000000003
100
AcDbArc
 50
90.0
 51
270.0
  0
LINE
  5
3
330
A2409E46B754B33
100
AcDbEntity
  8
CASE
100
AcDbLine
 10
0.0
 20
0.1180000000000005
 30
0.0
 11
0.2949999999999999
 21
0.1180000000000005
 31
0.0
  0
LINE
  5
4
330
A2409E46B754B33
100
AcDbEntity
  8
CASE
100
AcDbLine
 10
0.0
 20
-0.1180000000000003
 30
0.0
 11
0.2949999999999999
 21
-0.1180000000000003
 31
0.0
  0
ARC
  5
5
330
A2409E46B754B33
100
AcDbEntity
  8
CASE
100
AcDbCircle
 10
0.4501085714285705
 20
0.0000000000000013
 30
0.0
 40
0.1948914285714288
100
AcDbArc
 50
217.2623329576324
 51
142.7376670423683
  0
LINE
  5
6
330
A2409E46B754B33
100
AcDbEntity
  8
CASE
100
AcDbLine
 10
0.0
 20
-0.1180000000000003
 30
0.0
 11
0.0
 21
-0.1180000000000003
 31
0.0
  0
LINE
  5
7
330
A2409E46B754B33
100
AcDbEntity
  8
CASE
100
AcDbLine
 10
0.0
 20
0.1180000000000005
 30
0.0
 11
0.0
 21
0.1180000000000005
 31
0.0
  0
ENDBLK
  5
8
330
A2409E46B754B33
100
AcDbEntity
  8
0
100
AcDbBlockEnd
  0
BLOCK
  5
9
330
A2409E46B754B34
100
AcDbEntity
  8
0
100
AcDbBlockBegin
  2
ACAD006E
 70
     0
 10
0.0
 20
0.0
 30
0.0
  3
ACAD006E
  1

  0
ARC
  5
A
330
A2409E46B754B34
100
AcDbEntity
  8
CASE
100
AcDbCircle
 10
0.0
 20
0.0
 30
0.0
 40
0.1180000000000003
100
AcDbArc
 50
90.0
 51
270.0
  0
LINE
  5
B
330
A2409E46B754B34
100
AcDbEntity
  8
CASE
100
AcDbLine
 10
0.0
 20
0.1180000000000005
 30
0.0
 11
0.2949999999999999
 21
0.1180000000000005
 31
0.0
  0
LINE
  5
C
330
A2409E46B754B34
100
AcDbEntity
  8
CASE
100
AcDbLine
 10
0.0
 20
-0.1180000000000003
 30
0.0
 11
0.2949999999999999
 21
-0.1180000000000003
 31
0.0
  0
ARC
  5
D
330
A2409E46B754B34
100
AcDbEntity
  8
CASE
100
AcDbCircle
 10
0.4501085714285705
 20
0.0000000000000013
 30
0.0
 40
0.1948914285714288
100
AcDbArc
 50
217.2623329576324
 51
142.7376670423683
  0
LINE
  5
E
330
A2409E46B754B34
100
AcDbEntity
  8
CASE
100
AcDbLine
 10
0.0
 20
-0.1180000000000003
 30
0.0
 11
0.0
 21
-0.1180000000000003
 31
0.0
  0
LINE
  5
F
330
A2409E46B754B34
100
AcDbEntity
  8
CASE
100
AcDbLine
 10
0.0
 20
0.1180000000000005
 30
0.0
 11
0.0
 21
0.1180000000000005
 31
0.0
  0
ENDBLK
  5
10
330
A2409E46B754B34
100
AcDbEntity
  8
0
100
AcDbBlockEnd
  0
BLOCK
  5
11
330
A2409E46B754B35
100
AcDbEntity
  8
0
100
AcDbBlockBegin
  2
ACAD0312
 70
     0
 10
0.0
 20
0.0
 30
0.0
  3
ACAD0312
  1

  0
ARC
  5
12
330
A2409E46B754B35
100
AcDbEntity
  8
CASE
100
AcDbCircle
 10
0.0
 20
0.0
 30
0.0
 40
0.1180000000000003
100
AcDbArc
 50
90.0
 51
270.0
  0
LINE
  5
13
330
A2409E46B754B35
100
AcDbEntity
  8
CASE
100
AcDbLine
 10
0.0
 20
0.1180000000000005
 30
0.0
 11
0.2949999999999999
 21
0.1180000000000005
 31
0.0
  0
LINE
  5
14
330
A2409E46B754B35
100
AcDbEntity
  8
CASE
100
AcDbLine
 10
0.0
 20
-0.1180000000000003
 30
0.0
 11
0.2949999999999999
 21
-0.1180000000000003
 31
0.0
  0
ARC
  5
15
330
A2409E46B754B35
100
AcDbEntity
  8
CASE
100
AcDbCircle
 10
0.4501085714285705
 20
0.0000000000000013
 30
0.0
 40
0.1948914285714288
100
AcDbArc
 50
217.2623329576324
 51
142.7376670423683
  0
LINE
  5
16
330
A2409E46B754B35
100
AcDbEntity
  8
CASE
100
AcDbLine
 10
0.0
 20
-0.1180000000000003
 30
0.0
 11
0.0
 21
-0.1180000000000003
 31
0.0
  0
LINE
  5
17
330
A2409E46B754B35
100
AcDbEntity
  8
CASE
100
AcDbLine
 10
0.0
 20
0.1180000000000005
 30
0.0
 11
0.0
 21
0.1180000000000005
 31
0.0
  0
ENDBLK
  5
18
330
A2409E46B754B35
100
AcDbEntity
  8
0
100
AcDbBlockEnd
  0
BLOCK
  5
19
330
A2409E46B754B36
100
AcDbEntity
  8
0
100
AcDbBlockBegin
  2
ACAD0626
 70
     0
 10
0.0
 20
0.0
 30
0.0
  3
ACAD0626
  1

  0
ARC
  5
1A
330
A2409E46B754B36
100
AcDbEntity
  8
CASE
100
AcDbCircle
 10
0.0
 20
0.0
 30
0.0
 40
0.1180000000000003
100
AcDbArc
 50
90.0
 51
270.0
  0
LINE
  5
1B
330
A2409E46B754B36
100
AcDbEntity
  8
CASE
100
AcDbLine
 10
0.0
 20
0.1180000000000005
 30
0.0
 11
0.2949999999999999
 21
0.1180000000000005
 31
0.0
  0
LINE
  5
1C
330
A2409E46B754B36
100
AcDbEntity
  8
CASE
100
AcDbLine
 10
0.0
 20
-0.1180000000000003
 30
0.0
 11
0.2949999999999999
 21
-0.1180000000000003
 31
0.0
  0
ARC
  5
1D
330
A2409E46B754B36
100
AcDbEntity
  8
CASE
100
AcDbCircle
 10
0.4501085714285705
 20
0.0000000000000013
 30
0.0
 40
0.1948914285714288
100
AcDbArc
 50
217.2623329576324
 51
142.7376670423683
  0
LINE
  5
1E
330
A2409E46B754B36
100
AcDbEntity
  8
CASE
100
AcDbLine
 10
0.0
 20
-0.1180000000000003
 30
0.0
 11
0.0
 21
-0.1180000000000003
 31
0.0
  0
LINE
  5
1F
330
A2409E46B754B36
100
AcDbEntity
  8
CASE
100
AcDbLine
 10
0.0
 20
0.1180000000000005
 30
0.0
 11
0.0
 21
0.1180000000000005
 31
0.0
  0
ENDBLK
  5
20
330
A2409E46B754B36
100
AcDbEntity
  8
0
100
AcDbBlockEnd
  0
BLOCK
  5
EF6DFB5ED78D8D7C
330
A2409E46B754B38
100
AcDbEntity
  8
0
100
AcDbBlockBegin
  2
ACAD037A
 70
     0
 10
0.0
 20
0.0
 30
0.0
  3
ACAD037A
  1

  0
LWPOLYLINE
  5
1F2BB34C52EBBFC0
330
A2409E46B754B38
100
AcDbEntity
  8
COMP
100
AcDbPolyline
 90
        2
 70
     0
 43
0.01
 10
0.0
 20
-0.0819999999999999
 42
1.0
 10
0.0
 20
0.0820000000000008
  0
LWPOLYLINE
  5
1F2BB34C52EBBFC4
330
A2409E46B754B38
100
AcDbEntity
  8
COMP
100
AcDbPolyline
 90
        2
 70
     0
 43
0.01
 10
0.0
 20
0.0820000000000008
 42
1.0
 10
0.0
 20
-0.0819999999999999
  0
LWPOLYLINE
  5
1F2BB34C52EBBFD4
330
A2409E46B754B38
100
AcDbEntity
  8
COMP
100
AcDbPolyline
 90
        2
 70
     1
 43
0.005
 10
0.0
 20
-0.0794999999999995
 42
1.0
 10
0.0
 20
-0.0844999999999994
 42
1.0
  0
LWPOLYLINE
  5
1F2BB34C52EBBFD0
330
A2409E46B754B38
100
AcDbEntity
  8
COMP
100
AcDbPolyline
 90
        2
 70
     1
 43
0.005
 10
0.0
 20
-0.0794999999999995
 42
1.0
 10
0.0
 20
-0.0844999999999994
 42
1.0
  0
LWPOLYLINE
  5
1F2BB34C52EBBFF4
330
A2409E46B754B38
100
AcDbEntity
  8
COMP
100
AcDbPolyline
 90
        2
 70
     1
 43
0.005
 10
0.0
 20
0.0845000000000003
 42
1.0
 10
0.0
 20
0.0795000000000004
 42
1.0
  0
LWPOLYLINE
  5
1F2BB34C52EBBFF0
330
A2409E46B754B38
100
AcDbEntity
  8
COMP
100
AcDbPolyline
 90
        2
 70
     1
 43
0.005
 10
0.0
 20
0.0845000000000003
 42
1.0
 10
0.0
 20
0.0795000000000004
 42
1.0
  0
ENDBLK
  5
DEDBF6BDAF1B1AFA
330
A2409E46B754B38
100
AcDbEntity
  8
0
100
AcDbBlockEnd
  0
BLOCK
  5
7B6FDAF6BC6C6BFC
330
A2409E46B754B39
100
AcDbEntity
  8
0
100
AcDbBlockBegin
  2
ACAD3267
 70
     0
 10
0.0
 20
0.0
 30
0.0
  3
ACAD3267
  1

  0
LWPOLYLINE
  5
AB2D92E437CAA113
330
A2409E46B754B39
100
AcDbEntity
  8
COMP
100
AcDbPolyline
 90
        2
 70
     1
 43
0.036
 10
0.0
 20
0.0179999999999989
 42
1.0
 10
0.0
 20
-0.0180000000000007
 42
1.0
  0
LWPOLYLINE
  5
AB2D92E437CAA11B
330
A2409E46B754B39
100
AcDbEntity
  8
COMP
100
AcDbPolyline
 90
        2
 70
     1
 43
0.036
 10
-0.1090000000000018
 20
0.0179999999999989
 42
1.0
 10
-0.1090000000000018
 20
-0.0180000000000007
 42
1.0
  0
LWPOLYLINE
  5
AB2D92E437CAA117
330
A2409E46B754B39
100
AcDbEntity
  8
COMP
100
AcDbPolyline
 90
        2
 70
     1
 43
0.036
 10
-0.2180000000000035
 20
0.0179999999999989
 42
1.0
 10
-0.2180000000000035
 20
-0.0180000000000007
 42
1.0
  0
LWPOLYLINE
  5
AB2D92E437CAA10F
330
A2409E46B754B39
100
AcDbEntity
  8
COMP
100
AcDbPolyline
 90
        2
 70
     1
 43
0.085
 10
0.2739999999999938
 20
-0.0170000000000013
 42
1.0
 10
0.2739999999999938
 20
-0.1010000000000009
 42
1.0
  0
LINE
  5
AB2D92E437CAA0F3
330
A2409E46B754B39
100
AcDbEntity
  8
COMP
100
AcDbLine
 10
0.090999999999994
 20
0.0759999999999987
 30
0.0
 11
0.0349999999999966
 21
-0.1920000000000002
 31
0.0
  0
SOLID
  5
AB2D92E437CAA0EE
330
A2409E46B754B39
100
AcDbEntity
  8
COMP
100
AcDbTrace
 10
-0.4720000000000013
 20
0.0359999999999996
 30
0.0
 11
-0.4720000000000013
 21
-0.0360000000000014
 31
0.0
 12
-0.4000000000000057
 22
0.0359999999999996
 32
0.0
 13
-0.4000000000000057
 23
-0.0360000000000014
 33
0.0
  0
LWPOLYLINE
  5
AB2D92E437CAA0EA
330
A2409E46B754B39
100
AcDbEntity
  8
COMP
100
AcDbPolyline
 90
        2
 70
     1
 43
0.085
 10
-0.7100000000000009
 20
-0.0170000000000013
 42
1.0
 10
-0.7100000000000009
 20
-0.1010000000000009
 42
1.0
  0
LINE
  5
AB2D92E437CAA0D5
330
A2409E46B754B39
100
AcDbEntity
  8
COMP
100
AcDbLine
 10
-0.5270000000000011
 20
0.0759999999999987
 30
0.0
 11
-0.4710000000000037
 21
-0.1920000000000002
 31
0.0
  0
LWPOLYLINE
  5
AB2D92E437CAA0CF
330
A2409E46B754B39
100
AcDbEntity
  8
COMP
100
AcDbPolyline
 90
        2
 70
     1
 43
0.036
 10
-0.3270000000000053
 20
0.0179999999999989
 42
1.0
 10
-0.3270000000000053
 20
-0.0180000000000007
 42
1.0
  0
LWPOLYLINE
  5
AB2D92E437CAA0C8
330
A2409E46B754B39
100
AcDbEntity
  8
COMP
100
AcDbPolyline
 90
        5
 70
     1
 43
0.01
 10
0.3889999999999958
 20
0.1909999999999989
 10
0.3889999999999958
 20
-0.3030000000000008
 10
-0.8250000000000028
 20
-0.3030000000000008
 10
-0.8250000000000028
 20
0.1909999999999989
 10
0.3889999999999958
 20
0.1909999999999989
  0
LWPOLYLINE
  5
AB2D92E437CAA0E6
330
A2409E46B754B39
100
AcDbEntity
  8
COMP
100
AcDbPolyline
 90
        2
 70
     1
 43
0.005
 10
-0.8250000000000028
 20
-0.3005000000000013
 42
1.0
 10
-0.8250000000000028
 20
-0.3055000000000003
 42
1.0
  0
LINE
  5
AB2D92E437CAA0D3
330
A2409E46B754B39
100
AcDbEntity
  8
COMP
100
AcDbLine
 10
-0.4710000000000037
 20
-0.1920000000000002
 30
0.0
 11
0.0349999999999966
 21
-0.1920000000000002
 31
0.0
  0
LWPOLYLINE
  5
AB2D92E437CAA0C4
330
A2409E46B754B39
100
AcDbEntity
  8
COMP
100
AcDbPolyline
 90
        2
 70
     1
 43
0.036
 10
-0.382000000000005
 20
-0.0940000000000012
 42
1.0
 10
-0.382000000000005
 20
-0.1300000000000008
 42
1.0
  0
LWPOLYLINE
  5
AB2D92E437CAA127
330
A2409E46B754B39
100
AcDbEntity
  8
COMP
100
AcDbPolyline
 90
        2
 70
     1
 43
0.036
 10
-0.0549999999999997
 20
-0.0940000000000012
 42
1.0
 10
-0.0549999999999997
 20
-0.1300000000000008
 42
1.0
  0
LWPOLYLINE
  5
AB2D92E437CAA123
330
A2409E46B754B39
100
AcDbEntity
  8
COMP
100
AcDbPolyline
 90
        2
 70
     1
 43
0.036
 10
-0.2730000000000032
 20
-0.0940000000000012
 42
1.0
 10
-0.2730000000000032
 20
-0.1300000000000008
 42
1.0
  0
LWPOLYLINE
  5
AB2D92E437CAA11F
330
A2409E46B754B39
100
AcDbEntity
  8
COMP
100
AcDbPolyline
 90
        2
 70
     1
 43
0.036
 10
-0.1640000000000015
 20
-0.0940000000000012
 42
1.0
 10
-0.1640000000000015
 20
-0.1300000000000008
 42
1.0
  0
LWPOLYLINE
  5
AB2D92E437CAA10A
330
A2409E46B754B39
100
AcDbEntity
  8
COMP
100
AcDbPolyline
 90
        2
 70
     1
 43
0.005
 10
0.3889999999999958
 20
-0.3005000000000013
 42
1.0
 10
0.3889999999999958
 20
-0.3055000000000003
 42
1.0
  0
LINE
  5
AB2D92E437CAA0D4
330
A2409E46B754B39
100
AcDbEntity
  8
COMP
100
AcDbLine
 10
-0.5270000000000011
 20
0.0759999999999987
 30
0.0
 11
0.090999999999994
 21
0.0759999999999987
 31
0.0
  0
LWPOLYLINE
  5
AB2D92E437CAA0EF
330
A2409E46B754B39
100
AcDbEntity
  8
COMP
100
AcDbPolyline
 90
        2
 70
     1
 43
0.005
 10
-0.8250000000000028
 20
0.1935000000000002
 42
1.0
 10
-0.8250000000000028
 20
0.1884999999999994
 42
1.0
  0
LWPOLYLINE
  5
AB2D92E437CAA147
330
A2409E46B754B39
100
AcDbEntity
  8
COMP
100
AcDbPolyline
 90
        2
 70
     1
 43
0.005
 10
0.3889999999999958
 20
0.1935000000000002
 42
1.0
 10
0.3889999999999958
 20
0.1884999999999994
 42
1.0
  0
LWPOLYLINE
  5
AB2D92E437CAA143
330
A2409E46B754B39
100
AcDbEntity
  8
COMP
100
AcDbPolyline
 90
        2
 70
     1
 43
0.005
 10
0.3889999999999958
 20
0.1935000000000002
 42
1.0
 10
0.3889999999999958
 20
0.1884999999999994
 42
1.0
  0
ENDBLK
  5
F6DFB5ED78D8D7FA
330
A2409E46B754B39
100
AcDbEntity
  8
0
100
AcDbBlockEnd
  0
BLOCK
  5
927C8721AA2A2775
330
A2409E46B754B3A
100
AcDbEntity
  8
0
100
AcDbBlockBegin
  2
ACAD0C1E
 70
     0
 10
0.0
 20
0.0
 30
0.0
  3
ACAD0C1E
  1

  0
LINE
  5
24F90E4354544EE8
330
A2409E46B754B3A
100
AcDbEntity
  8
LABEL
100
AcDbLine
 10
0.0559999999999974
 20
0.0559999999999992
 30
0.0
 11
0.0279999999999987
 21
0.0280000000000005
 31
0.0
  0
LINE
  5
24F90E4354544EE9
330
A2409E46B754B3A
100
AcDbEntity
  8
LABEL
100
AcDbLine
 10
-0.0559999999999974
 20
0.0559999999999992
 30
0.0
 11
-0.0279999999999987
 21
0.0280000000000005
 31
0.0
  0
LINE
  5
24F90E4354544EE2
330
A2409E46B754B3A
100
AcDbEntity
  8
LABEL
100
AcDbLine
 10
0.0559999999999974
 20
-0.0559999999999992
 30
0.0
 11
0.0279999999999987
 21
-0.0280000000000005
 31
0.0
  0
LINE
  5
24F90E4354544EE3
330
A2409E46B754B3A
100
AcDbEntity
  8
LABEL
100
AcDbLine
 10
-0.0559999999999974
 20
-0.0559999999999992
 30
0.0
 11
-0.0279999999999987
 21
-0.0280000000000005
 31
0.0
  0
CIRCLE
  5
24F90E4354544EE0
330
A2409E46B754B3A
100
AcDbEntity
  8
LABEL
100
AcDbCircle
 10
0.0
 20
0.0
 30
0.0
 40
0.0390000000000015
  0
ENDBLK
  5
24F90E4354544EEC
330
A2409E46B754B3A
100
AcDbEntity
  8
0
100
AcDbBlockEnd
  0
BLOCK
  5
851204F235BAA587
330
A2409E46B754B3B
100
AcDbEntity
  8
0
100
AcDbBlockBegin
  2
ACAD3D28
 70
     0
 10
0.0
 20
0.0
 30
0.0
  3
ACAD3D28
  1

  0
LINE
  5
6C920E8BF1539CE1
330
A2409E46B754B3B
100
AcDbEntity
  8
CASE
100
AcDbLine
 10
-0.5480000000000019
 20
5.344999999999995
 30
0.0
 11
-0.5480000000000019
 21
0.4149999999999965
 31
0.0
  0
LINE
  5
6C920E8BF1539CE0
330
A2409E46B754B3B
100
AcDbEntity
  8
CASE
100
AcDbLine
 10
-1.050000000000011
 20
0.4149999999999965
 30
0.0
 11
-1.050000000000011
 21
5.344999999999995
 31
0.0
  0
LINE
  5
6C920E8BF1539B60
330
A2409E46B754B3B
100
AcDbEntity
  8
CASE
100
AcDbLine
 10
-5.950000000000006
 20
0.4149999999999965
 30
0.0
 11
-5.950000000000006
 21
5.344999999999995
 31
0.0
  0
LINE
  5
6C920E8BF1539B5F
330
A2409E46B754B3B
100
AcDbEntity
  8
CASE
100
AcDbLine
 10
-6.452000000000008
 20
5.344999999999995
 30
0.0
 11
-6.452000000000008
 21
0.4149999999999965
 31
0.0
  0
LINE
  5
6C920E8BF1539B4D
330
A2409E46B754B3B
100
AcDbEntity
  8
CASE
100
AcDbLine
 10
0.0
 20
0.0
 30
0.0
 11
0.0
 21
5.75
 31
0.0
  0
LINE
  5
6C920E8BF1539B4C
330
A2409E46B754B3B
100
AcDbEntity
  8
CASE
100
AcDbLine
 10
-7.00000000000001
 20
0.0
 30
0.0
 11
-7.00000000000001
 21
5.75
 31
0.0
  0
LINE
  5
6C920E8BF1539B4B
330
A2409E46B754B3B
100
AcDbEntity
  8
CASE
100
AcDbLine
 10
-0.5
 20
-0.1250000000000035
 30
0.0
 11
-0.5
 21
5.874999999999996
 31
0.0
  0
LINE
  5
6C920E8BF1539B4A
330
A2409E46B754B3B
100
AcDbEntity
  8
CASE
100
AcDbLine
 10
-6.50000000000001
 20
-0.1250000000000035
 30
0.0
 11
-6.50000000000001
 21
5.874999999999996
 31
0.0
  0
LINE
  5
6C920E8BF1539B7B
330
A2409E46B754B3B
100
AcDbEntity
  8
CASE
100
AcDbLine
 10
-5.950000000000006
 20
0.4149999999999965
 30
0.0
 11
-6.50000000000001
 21
0.4149999999999965
 31
0.0
  0
LINE
  5
6C920E8BF1539B51
330
A2409E46B754B3B
100
AcDbEntity
  8
CASE
100
AcDbLine
 10
-0.125
 20
-0.1250000000000035
 30
0.0
 11
-6.87500000000001
 21
-0.1250000000000035
 31
0.0
  0
INSERT
  5
6C920E8BF1539B7C
330
A2409E46B754B3B
100
AcDbEntity
  8
CASE
100
AcDbBlockReference
  2
ACAD0626
 10
-6.75000000000001
 20
0.7501085714285658
 30
0.0
 50
270.0
  0
ARC
  5
6C920E8BF1539B53
330
A2409E46B754B3B
100
AcDbEntity
  8
CASE
100
AcDbCircle
 10
-6.875000000000003
 20
-0.0000000000000018
 30
0.0
 40
0.1250000000000015
100
AcDbArc
 50
179.999999999999
 51
269.999999999999
  0
LINE
  5
6C920E8BF1539BCB
330
A2409E46B754B3B
100
AcDbEntity
  8
CASE
100
AcDbLine
 10
-2.586000000000019
 20
0.7019999999999947
 30
0.0
 11
-3.844000000000018
 21
0.7019999999999947
 31
0.0
  0
LINE
  5
6C920E8BF1539B50
330
A2409E46B754B3B
100
AcDbEntity
  8
CASE
100
AcDbLine
 10
-2.066000000000009
 20
-0.0770000000000035
 30
0.0
 11
-4.935000000000009
 21
-0.0770000000000035
 31
0.0
  0
LINE
  5
6C920E8BF1539B4F
330
A2409E46B754B3B
100
AcDbEntity
  8
CASE
100
AcDbLine
 10
-4.935000000000009
 20
0.4249999999999936
 30
0.0
 11
-4.935000000000009
 21
-0.1250000000000053
 31
0.0
  0
LINE
  5
6C920E8BF1539BCE
330
A2409E46B754B3B
100
AcDbEntity
  8
CASE
100
AcDbLine
 10
-3.844000000000018
 20
0.7019999999999947
 30
0.0
 11
-3.844000000000018
 21
0.4249999999999936
 31
0.0
  0
LINE
  5
54121825ACECA2CA
330
A2409E46B754B3B
100
AcDbEntity
  8
CASE
100
AcDbLine
 10
-4.935000000000009
 20
0.4249999999999936
 30
0.0
 11
-3.844000000000018
 21
0.4249999999999936
 31
0.0
  0
LINE
  5
6C920E8BF1539B47
330
A2409E46B754B3B
100
AcDbEntity
  8
CASE
100
AcDbLine
 10
-2.066000000000009
 20
0.4249999999999936
 30
0.0
 11
-2.066000000000009
 21
-0.1250000000000053
 31
0.0
  0
LINE
  5
6C920E8BF1539B57
330
A2409E46B754B3B
100
AcDbEntity
  8
CASE
100
AcDbLine
 10
-2.066000000000009
 20
0.4249999999999936
 30
0.0
 11
-2.586000000000019
 21
0.4249999999999936
 31
0.0
  0
LINE
  5
6C920E8BF1539BE6
330
A2409E46B754B3B
100
AcDbEntity
  8
CASE
100
AcDbLine
 10
-2.586000000000019
 20
0.7019999999999947
 30
0.0
 11
-2.586000000000019
 21
0.4249999999999936
 31
0.0
  0
INSERT
  5
6C920E8BF1539D0C
330
A2409E46B754B3B
100
AcDbEntity
  8
CASE
100
AcDbBlockReference
  2
ACAD006E
 10
-0.25
 20
0.7501085714285658
 30
0.0
 50
270.0
  0
ARC
  5
6C920E8BF1539B55
330
A2409E46B754B3B
100
AcDbEntity
  8
CASE
100
AcDbCircle
 10
-0.125
 20
-0.0000000000000018
 30
0.0
 40
0.1250000000000018
100
AcDbArc
 50
270.0000000000008
 51
0.0000000000008142
  0
LINE
  5
6C920E8BF1539CF2
330
A2409E46B754B3B
100
AcDbEntity
  8
CASE
100
AcDbLine
 10
-0.5
 20
0.4149999999999965
 30
0.0
 11
-1.050000000000011
 21
0.4149999999999965
 31
0.0
  0
LINE
  5
6C920E8BF1539B5C
330
A2409E46B754B3B
100
AcDbEntity
  8
CASE
100
AcDbLine
 10
-0.125
 20
5.874999999999996
 30
0.0
 11
-6.87500000000001
 21
5.874999999999996
 31
0.0
  0
LINE
  5
6C920E8BF1539CD4
330
A2409E46B754B3B
100
AcDbEntity
  8
CASE
100
AcDbLine
 10
-5.950000000000006
 20
5.344999999999995
 30
0.0
 11
-6.50000000000001
 21
5.344999999999995
 31
0.0
  0
INSERT
  5
6C920E8BF1539CD5
330
A2409E46B754B3B
100
AcDbEntity
  8
CASE
100
AcDbBlockReference
  2
ACAD1C6F
 10
-6.75000000000001
 20
5.499999999999996
 30
0.0
 50
270.0
  0
ARC
  5
6C920E8BF1539CD8
330
A2409E46B754B3B
100
AcDbEntity
  8
CASE
100
AcDbCircle
 10
-6.87500000000001
 20
5.749999999999996
 30
0.0
 40
0.1249999999999982
100
AcDbArc
 50
89.9999999999992
 51
179.9999999999991
  0
INSERT
  5
6C920E8BF1539E1D
330
A2409E46B754B3B
100
AcDbEntity
  8
CASE
100
AcDbBlockReference
  2
ACAD0312
 10
-0.25
 20
5.499999999999996
 30
0.0
 50
270.0
  0
LINE
  5
6C920E8BF1539E1A
330
A2409E46B754B3B
100
AcDbEntity
  8
CASE
100
AcDbLine
 10
-1.050000000000011
 20
5.344999999999995
 30
0.0
 11
-0.5000000000000142
 21
5.344999999999995
 31
0.0
  0
ARC
  5
6C920E8BF1539E24
330
A2409E46B754B3B
100
AcDbEntity
  8
CASE
100
AcDbCircle
 10
-0.125
 20
5.749999999999996
 30
0.0
 40
0.1249999999999982
100
AcDbArc
 50
0.0000000000007888
 51
90.00000000000078
  0
ENDBLK
  5
A2409E46B754B10
330
A2409E46B754B3B
100
AcDbEntity
  8
0
100
AcDbBlockEnd
  0
ENDSEC
  0
SECTION
  2
ENTITIES
  0
LINE
  5
179D0A557A676154
330
A2409E46B754B2F
100
AcDbEntity
  8
LABEL
100
AcDbLine
 10
13.68374532538762
 20
9.658284347278092
 30
0.0
 11
13.68374532538762
 21
9.128284347278096
 31
0.0
  0
LINE
  5
179D0A557A676155
330
A2409E46B754B2F
100
AcDbEntity
  8
LABEL
100
AcDbLine
 10
12.93374532538762
 20
9.128284347278096
 30
0.0
 11
12.93374532538762
 21
9.65828434727809
 31
0.0
  0
LINE
  5
179D0A557A67615A
330
A2409E46B754B2F
100
AcDbEntity
  8
LABEL
100
AcDbLine
 10
15.67874532538763
 20
3.708284347278096
 30
0.0
 11
15.67874532538763
 21
9.658284347278096
 31
0.0
  0
LINE
  5
179D0A557A67615B
330
A2409E46B754B2F
100
AcDbEntity
  8
LABEL
100
AcDbLine
 10
10.82874532538762
 20
9.658284347278096
 30
0.0
 11
10.82874532538762
 21
3.708284347278096
 31
0.0
  0
LINE
  5
179D0A557A67615C
330
A2409E46B754B2F
100
AcDbEntity
  8
LABEL
100
AcDbLine
 10
11.79374532538762
 20
4.258284347278095
 30
0.0
 11
12.76674532538762
 21
4.258284347278095
 31
0.0
  0
TEXT
  5
179D0A557A67615D
330
A2409E46B754B2F
100
AcDbEntity
  8
LABEL
100
AcDbText
 10
12.02874532538761
 20
4.687784347278105
 30
0.0
 40
0.075
  1
RX
  7
ADESK1
 72
     4
 11
12.10374532538761
 21
4.725284347278105
 31
0.0
100
AcDbText
  0
INSERT
  5
179D0A557A67615E
330
A2409E46B754B2F
100
AcDbEntity
  8
CASE
100
AcDbBlockReference
  2
ACAD037A
 10
12.10374532538761
 20
3.917284347278089
 30
0.0
  0
INSERT
  5
179D0A557A67615F
330
A2409E46B754B2F
100
AcDbEntity
  8
CASE
100
AcDbBlockReference
  2
ACAD037A
 10
12.10374532538761
 20
4.102284347278091
 30
0.0
  0
TEXT
  5
179D0A557A676160
330
A2409E46B754B2F
100
AcDbEntity
  8
LABEL
100
AcDbText
 10
12.03053103967333
 20
4.439784347278106
 30
0.0
 40
0.075
  1
EN
  7
ADESK1
 72
     4
 11
12.10374532538761
 21
4.477284347278105
 31
0.0
100
AcDbText
  0
TEXT
  5
179D0A557A676161
330
A2409E46B754B2F
100
AcDbEntity
  8
LABEL
100
AcDbText
 10
11.41960246824476
 20
6.47099863299238
 30
0.0
 40
0.075
  1
Discrete Inputs 12/24V
 50
270.0
  7
ADESK1
 72
     4
 11
11.45174532538762
 21
5.785284347278095
 31
0.0
100
AcDbText
  0
LINE
  5
179D0A557A676162
330
A2409E46B754B2F
100
AcDbEntity
  8
LABEL
100
AcDbLine
 10
11.13674532538762
 20
5.988284347278094
 30
0.0
 11
11.13674532538762
 21
4.388284347278089
 31
0.0
  0
LINE
  5
179D0A557A676163
330
A2409E46B754B2F
100
AcDbEntity
  8
LABEL
100
AcDbLine
 10
11.79374532538762
 20
4.258284347278095
 30
0.0
 11
11.79374532538762
 21
3.708284347278096
 31
0.0
  0
INSERT
  5
179D0A557A676164
330
A2409E46B754B2F
100
AcDbEntity
  8
CASE
100
AcDbBlockReference
  2
ACAD037A
 10
11.92374532538762
 20
3.917284347278089
 30
0.0
  0
LINE
  5
179D0A557A676165
330
A2409E46B754B2F
100
AcDbEntity
  8
LABEL
100
AcDbLine
 10
10.82874532538762
 20
3.708284347278096
 30
0.0
 11
11.79374532538762
 21
3.708284347278096
 31
0.0
  0
LWPOLYLINE
  5
179D0A557A676166
330
A2409E46B754B2F
100
AcDbEntity
  8
LABEL
100
AcDbPolyline
 90
        3
 70
     0
 43
0.02
 10
11.45374532538761
 20
5.087284347278096
 10
11.45374532538761
 20
4.228284347278096
 10
10.82874532538761
 20
4.228284347278096
  0
LINE
  5
179D0A557A67616B
330
A2409E46B754B2F
100
AcDbEntity
  8
LABEL
100
AcDbLine
 10
11.13674532538762
 20
4.388284347278089
 30
0.0
 11
10.91274532538762
 21
4.388284347278089
 31
0.0
  0
CIRCLE
  5
179D0A557A67616C
330
A2409E46B754B2F
100
AcDbEntity
  8
LABEL
100
AcDbCircle
 10
10.96374532538762
 20
4.788284347278091
 30
0.0
 40
0.0500000000000007
  0
CIRCLE
  5
179D0A557A67616D
330
A2409E46B754B2F
100
AcDbEntity
  8
LABEL
100
AcDbCircle
 10
10.96374532538762
 20
4.588284347278091
 30
0.0
 40
0.0500000000000007
  0
LINE
  5
179D0A557A67616E
330
A2409E46B754B2F
100
AcDbEntity
  8
LABEL
100
AcDbLine
 10
11.01374532538762
 20
4.788284347278095
 30
0.0
 11
11.13674532538762
 21
4.788284347278091
 31
0.0
  0
LINE
  5
179D0A557A67616F
330
A2409E46B754B2F
100
AcDbEntity
  8
LABEL
100
AcDbLine
 10
11.01374532538762
 20
4.588284347278095
 30
0.0
 11
11.13674532538762
 21
4.588284347278092
 31
0.0
  0
TEXT
  5
179D0A557A676170
330
A2409E46B754B2F
100
AcDbEntity
  8
LABEL
100
AcDbText
 10
11.22724532538761
 20
4.351784347278087
 30
0.0
 40
0.075
  1
C
  7
ADESK1
 72
     4
 11
11.26474532538761
 21
4.389284347278087
 31
0.0
100
AcDbText
  0
INSERT
  5
179D0A557A676171
330
A2409E46B754B2F
100
AcDbEntity
  8
COMP
100
AcDbBlockReference
  2
ACAD0C1E
 10
11.92374532538762
 20
4.351284347278106
 30
0.0
  0
INSERT
  5
179D0A557A676172
330
A2409E46B754B2F
100
AcDbEntity
  8
CASE
100
AcDbBlockReference
  2
ACAD037A
 10
11.92374532538762
 20
4.102284347278091
 30
0.0
  0
TEXT
  5
179D0A557A676173
330
A2409E46B754B2F
100
AcDbEntity
  8
LABEL
100
AcDbText
 10
11.19867389681618
 20
4.750784347278088
 30
0.0
 40
0.075
  1
11
  7
ADESK1
 72
     4
 11
11.26474532538761
 21
4.788284347278088
 31
0.0
100
AcDbText
  0
TEXT
  5
179D0A557A676174
330
A2409E46B754B2F
100
AcDbEntity
  8
LABEL
100
AcDbText
 10
11.18795961110189
 20
4.550784347278089
 30
0.0
 40
0.075
  1
12
  7
ADESK1
 72
     4
 11
11.26474532538761
 21
4.588284347278088
 31
0.0
100
AcDbText
  0
INSERT
  5
179D0A557A676175
330
A2409E46B754B2F
100
AcDbEntity
  8
COMP
100
AcDbBlockReference
  2
ACAD0C1E
 10
11.92374532538762
 20
4.599284347278105
 30
0.0
  0
TEXT
  5
179D0A557A676176
330
A2409E46B754B2F
100
AcDbEntity
  8
LABEL
100
AcDbText
 10
11.84874532538762
 20
4.439784347278106
 30
0.0
 40
0.075
  1
CD
  7
ADESK1
 72
     4
 11
11.92374532538762
 21
4.477284347278105
 31
0.0
100
AcDbText
  0
TEXT
  5
179D0A557A676177
330
A2409E46B754B2F
100
AcDbEntity
  8
LABEL
100
AcDbText
 10
11.86303103967333
 20
4.687784347278105
 30
0.0
 40
0.075
  1
TX
  7
ADESK1
 72
     4
 11
11.92374532538762
 21
4.725284347278105
 31
0.0
100
AcDbText
  0
CIRCLE
  5
179D0A557A676178
330
A2409E46B754B2F
100
AcDbEntity
  8
LABEL
100
AcDbCircle
 10
10.96374532538762
 20
5.188284347278091
 30
0.0
 40
0.0500000000000007
  0
CIRCLE
  5
179D0A557A676179
330
A2409E46B754B2F
100
AcDbEntity
  8
LABEL
100
AcDbCircle
 10
10.96374532538762
 20
4.98828434727809
 30
0.0
 40
0.0500000000000007
  0
LINE
  5
179D0A557A67617A
330
A2409E46B754B2F
100
AcDbEntity
  8
LABEL
100
AcDbLine
 10
11.01374532538762
 20
4.988284347278094
 30
0.0
 11
11.13674532538762
 21
4.988284347278094
 31
0.0
  0
LINE
  5
179D0A557A67617B
330
A2409E46B754B2F
100
AcDbEntity
  8
LABEL
100
AcDbLine
 10
11.01374532538762
 20
5.188284347278097
 30
0.0
 11
11.13674532538762
 21
5.188284347278093
 31
0.0
  0
CIRCLE
  5
179D0A557A67617C
330
A2409E46B754B2F
100
AcDbEntity
  8
LABEL
100
AcDbCircle
 10
10.96374532538762
 20
5.588284347278091
 30
0.0
 40
0.0500000000000007
  0
CIRCLE
  5
179D0A557A67617D
330
A2409E46B754B2F
100
AcDbEntity
  8
LABEL
100
AcDbCircle
 10
10.96374532538762
 20
5.388284347278091
 30
0.0
 40
0.0500000000000007
  0
LINE
  5
179D0A557A67617E
330
A2409E46B754B2F
100
AcDbEntity
  8
LABEL
100
AcDbLine
 10
11.01374532538762
 20
5.388284347278096
 30
0.0
 11
11.13674532538762
 21
5.388284347278093
 31
0.0
  0
LINE
  5
179D0A557A67617F
330
A2409E46B754B2F
100
AcDbEntity
  8
LABEL
100
AcDbLine
 10
11.01374532538762
 20
5.588284347278095
 30
0.0
 11
11.13674532538762
 21
5.588284347278095
 31
0.0
  0
TEXT
  5
179D0A557A676180
330
A2409E46B754B2F
100
AcDbEntity
  8
LABEL
100
AcDbText
 10
11.23081675395904
 20
5.15078434727809
 30
0.0
 40
0.075
  1
9
  7
ADESK1
 72
     4
 11
11.26474532538761
 21
5.18828434727809
 31
0.0
100
AcDbText
  0
TEXT
  5
179D0A557A676181
330
A2409E46B754B2F
100
AcDbEntity
  8
LABEL
100
AcDbText
 10
11.18795961110189
 20
4.950784347278091
 30
0.0
 40
0.075
  1
10
  7
ADESK1
 72
     4
 11
11.26474532538761
 21
4.98828434727809
 31
0.0
100
AcDbText
  0
TEXT
  5
179D0A557A676182
330
A2409E46B754B2F
100
AcDbEntity
  8
LABEL
100
AcDbText
 10
11.22903103967332
 20
5.550784347278089
 30
0.0
 40
0.075
  1
7
  7
ADESK1
 72
     4
 11
11.26474532538761
 21
5.588284347278088
 31
0.0
100
AcDbText
  0
TEXT
  5
179D0A557A676183
330
A2409E46B754B2F
100
AcDbEntity
  8
LABEL
100
AcDbText
 10
11.22903103967332
 20
5.350784347278089
 30
0.0
 40
0.075
  1
8
  7
ADESK1
 72
     4
 11
11.26474532538761
 21
5.388284347278089
 31
0.0
100
AcDbText
  0
LINE
  5
179D0A557A676184
330
A2409E46B754B2F
100
AcDbEntity
  8
LABEL
100
AcDbLine
 10
11.13674532538762
 20
7.988284347278096
 30
0.0
 11
11.13674532538762
 21
7.188284347278091
 31
0.0
  0
LWPOLYLINE
  5
179D0A557A676185
330
A2409E46B754B2F
100
AcDbEntity
  8
LABEL
100
AcDbPolyline
 90
        3
 70
     0
 43
0.02
 10
10.82874532538762
 20
7.108284347278096
 10
11.45374532538762
 20
7.108284347278096
 10
11.45374532538762
 20
7.609284347278096
  0
LINE
  5
179D0A557A67618A
330
A2409E46B754B2F
100
AcDbEntity
  8
LABEL
100
AcDbLine
 10
11.13674532538762
 20
6.988284347278094
 30
0.0
 11
11.13674532538762
 21
6.188284347278093
 31
0.0
  0
CIRCLE
  5
179D0A557A67618B
330
A2409E46B754B2F
100
AcDbEntity
  8
LABEL
100
AcDbCircle
 10
10.96374532538762
 20
6.588284347278091
 30
0.0
 40
0.0500000000000007
  0
LWPOLYLINE
  5
179D0A557A67618C
330
A2409E46B754B2F
100
AcDbEntity
  8
LABEL
100
AcDbPolyline
 90
        3
 70
     0
 43
0.02
 10
10.82874532538761
 20
7.068284347278097
 10
11.45374532538761
 20
7.068284347278097
 10
11.45374532538761
 20
6.492284347278096
  0
CIRCLE
  5
179D0A557A676191
330
A2409E46B754B2F
100
AcDbEntity
  8
LABEL
100
AcDbCircle
 10
10.96374532538762
 20
5.98828434727809
 30
0.0
 40
0.0500000000000007
  0
CIRCLE
  5
179D0A557A676192
330
A2409E46B754B2F
100
AcDbEntity
  8
LABEL
100
AcDbCircle
 10
10.96374532538762
 20
5.788284347278091
 30
0.0
 40
0.0500000000000007
  0
LINE
  5
179D0A557A676193
330
A2409E46B754B2F
100
AcDbEntity
  8
LABEL
100
AcDbLine
 10
11.01374532538762
 20
5.788284347278095
 30
0.0
 11
11.13674532538762
 21
5.788284347278095
 31
0.0
  0
LINE
  5
179D0A557A676194
330
A2409E46B754B2F
100
AcDbEntity
  8
LABEL
100
AcDbLine
 10
11.01374532538762
 20
5.988284347278094
 30
0.0
 11
11.13674532538762
 21
5.988284347278094
 31
0.0
  0
LINE
  5
179D0A557A676195
330
A2409E46B754B2F
100
AcDbEntity
  8
LABEL
100
AcDbLine
 10
11.13674532538762
 20
6.188284347278093
 30
0.0
 11
10.91274532538762
 21
6.188284347278093
 31
0.0
  0
CIRCLE
  5
179D0A557A676196
330
A2409E46B754B2F
100
AcDbEntity
  8
LABEL
100
AcDbCircle
 10
10.96374532538762
 20
6.388284347278091
 30
0.0
 40
0.0500000000000007
  0
LINE
  5
179D0A557A676197
330
A2409E46B754B2F
100
AcDbEntity
  8
LABEL
100
AcDbLine
 10
11.01374532538762
 20
6.388284347278096
 30
0.0
 11
11.13674532538762
 21
6.388284347278096
 31
0.0
  0
LINE
  5
179D0A557A676198
330
A2409E46B754B2F
100
AcDbEntity
  8
LABEL
100
AcDbLine
 10
11.01374532538762
 20
6.588284347278095
 30
0.0
 11
11.13674532538762
 21
6.588284347278095
 31
0.0
  0
TEXT
  5
179D0A557A676199
330
A2409E46B754B2F
100
AcDbEntity
  8
LABEL
100
AcDbText
 10
11.22724532538761
 20
6.15078434727809
 30
0.0
 40
0.075
  1
C
  7
ADESK1
 72
     4
 11
11.26474532538761
 21
6.18828434727809
 31
0.0
100
AcDbText
  0
TEXT
  5
179D0A557A67619A
330
A2409E46B754B2F
100
AcDbEntity
  8
LABEL
100
AcDbText
 10
11.22903103967332
 20
5.950784347278091
 30
0.0
 40
0.075
  1
5
  7
ADESK1
 72
     4
 11
11.26474532538761
 21
5.98828434727809
 31
0.0
100
AcDbText
  0
TEXT
  5
179D0A557A67619B
330
A2409E46B754B2F
100
AcDbEntity
  8
LABEL
100
AcDbText
 10
11.22724532538761
 20
5.750784347278091
 30
0.0
 40
0.075
  1
6
  7
ADESK1
 72
     4
 11
11.26474532538761
 21
5.788284347278091
 31
0.0
100
AcDbText
  0
TEXT
  5
179D0A557A67619C
330
A2409E46B754B2F
100
AcDbEntity
  8
LABEL
100
AcDbText
 10
11.22903103967332
 20
6.550784347278089
 30
0.0
 40
0.075
  1
3
  7
ADESK1
 72
     4
 11
11.26474532538761
 21
6.588284347278088
 31
0.0
100
AcDbText
  0
TEXT
  5
179D0A557A67619D
330
A2409E46B754B2F
100
AcDbEntity
  8
LABEL
100
AcDbText
 10
11.22724532538761
 20
6.350784347278089
 30
0.0
 40
0.075
  1
4
  7
ADESK1
 72
     4
 11
11.26474532538761
 21
6.388284347278089
 31
0.0
100
AcDbText
  0
CIRCLE
  5
179D0A557A67619E
330
A2409E46B754B2F
100
AcDbEntity
  8
LABEL
100
AcDbCircle
 10
10.96374532538762
 20
6.788284347278091
 30
0.0
 40
0.0500000000000007
  0
CIRCLE
  5
179D0A557A67619F
330
A2409E46B754B2F
100
AcDbEntity
  8
LABEL
100
AcDbCircle
 10
10.96374532538762
 20
6.988284347278091
 30
0.0
 40
0.0500000000000007
  0
LINE
  5
179D0A557A6761A0
330
A2409E46B754B2F
100
AcDbEntity
  8
LABEL
100
AcDbLine
 10
11.01374532538762
 20
6.788284347278095
 30
0.0
 11
11.13674532538762
 21
6.788284347278095
 31
0.0
  0
LINE
  5
179D0A557A6761A1
330
A2409E46B754B2F
100
AcDbEntity
  8
LABEL
100
AcDbLine
 10
11.01374532538762
 20
6.988284347278094
 30
0.0
 11
11.13674532538762
 21
6.988284347278094
 31
0.0
  0
CIRCLE
  5
179D0A557A6761A2
330
A2409E46B754B2F
100
AcDbEntity
  8
LABEL
100
AcDbCircle
 10
10.96374532538762
 20
7.388284347278091
 30
0.0
 40
0.0500000000000007
  0
LINE
  5
179D0A557A6761A3
330
A2409E46B754B2F
100
AcDbEntity
  8
LABEL
100
AcDbLine
 10
11.08574532538762
 20
7.388284347278094
 30
0.0
 11
11.13674532538762
 21
7.388284347278094
 31
0.0
  0
LINE
  5
179D0A557A6761A4
330
A2409E46B754B2F
100
AcDbEntity
  8
LABEL
100
AcDbLine
 10
11.05774532538762
 20
7.388284347278094
 30
0.0
 11
11.01374532538762
 21
7.388284347278094
 31
0.0
  0
LINE
  5
179D0A557A6761A5
330
A2409E46B754B2F
100
AcDbEntity
  8
LABEL
100
AcDbLine
 10
11.05774532538762
 20
7.348284347278095
 30
0.0
 11
11.05774532538762
 21
7.428284347278093
 31
0.0
  0
LINE
  5
179D0A557A6761A6
330
A2409E46B754B2F
100
AcDbEntity
  8
LABEL
100
AcDbLine
 10
11.08574532538762
 20
7.348284347278095
 30
0.0
 11
11.08574532538762
 21
7.428284347278093
 31
0.0
  0
LINE
  5
179D0A557A6761A7
330
A2409E46B754B2F
100
AcDbEntity
  8
LABEL
100
AcDbLine
 10
11.13674532538762
 20
7.188284347278091
 30
0.0
 11
10.91274532538763
 21
7.188284347278091
 31
0.0
  0
TEXT
  5
179D0A557A6761A8
330
A2409E46B754B2F
100
AcDbEntity
  8
LABEL
100
AcDbText
 10
11.23438818253046
 20
6.950784347278091
 30
0.0
 40
0.075
  1
1
  7
ADESK1
 72
     4
 11
11.26474532538761
 21
6.98828434727809
 31
0.0
100
AcDbText
  0
TEXT
  5
179D0A557A6761A9
330
A2409E46B754B2F
100
AcDbEntity
  8
LABEL
100
AcDbText
 10
11.22903103967332
 20
6.750784347278091
 30
0.0
 40
0.075
  1
2
  7
ADESK1
 72
     4
 11
11.26474532538761
 21
6.788284347278091
 31
0.0
100
AcDbText
  0
TEXT
  5
179D0A557A6761AA
330
A2409E46B754B2F
100
AcDbEntity
  8
LABEL
100
AcDbText
 10
11.22603103967332
 20
7.350784347278091
 30
0.0
 40
0.075
  1
8
  7
ADESK1
 72
     4
 11
11.26174532538761
 21
7.388284347278091
 31
0.0
100
AcDbText
  0
TEXT
  5
179D0A557A6761AB
330
A2409E46B754B2F
100
AcDbEntity
  8
LABEL
100
AcDbText
 10
11.22424532538762
 20
7.150784347278092
 30
0.0
 40
0.075
  1
C
  7
ADESK1
 72
     4
 11
11.26174532538762
 21
7.188284347278091
 31
0.0
100
AcDbText
  0
CIRCLE
  5
179D0A557A6761AC
330
A2409E46B754B2F
100
AcDbEntity
  8
LABEL
100
AcDbCircle
 10
10.96374532538762
 20
8.388284347278089
 30
0.0
 40
0.0500000000000007
  0
TEXT
  5
179D0A557A6761AD
330
A2409E46B754B2F
100
AcDbEntity
  8
LABEL
100
AcDbText
 10
11.22424532538761
 20
8.350784347278091
 30
0.0
 40
0.075
  1
4
  7
ADESK1
 72
     4
 11
11.26174532538761
 21
8.388284347278091
 31
0.0
100
AcDbText
  0
LINE
  5
179D0A557A6761AE
330
A2409E46B754B2F
100
AcDbEntity
  8
LABEL
100
AcDbLine
 10
11.08574532538762
 20
8.348284347278095
 30
0.0
 11
11.08574532538762
 21
8.428284347278093
 31
0.0
  0
LINE
  5
179D0A557A6761AF
330
A2409E46B754B2F
100
AcDbEntity
  8
LABEL
100
AcDbLine
 10
11.05774532538762
 20
8.348284347278095
 30
0.0
 11
11.05774532538762
 21
8.428284347278093
 31
0.0
  0
TEXT
  5
179D0A557A6761B0
330
A2409E46B754B2F
100
AcDbEntity
  8
LABEL
100
AcDbText
 10
11.42674532538762
 20
8.573070061563811
 30
0.0
 40
0.075
  1
Discrete Outputs
 50
270.0
  7
ADESK1
 72
     4
 11
11.45174532538762
 21
8.096284347278096
 31
0.0
100
AcDbText
  0
LINE
  5
179D0A557A6761B1
330
A2409E46B754B2F
100
AcDbEntity
  8
LABEL
100
AcDbLine
 10
11.13674532538762
 20
8.988284347278096
 30
0.0
 11
11.13674532538762
 21
8.188284347278091
 31
0.0
  0
CIRCLE
  5
179D0A557A6761B2
330
A2409E46B754B2F
100
AcDbEntity
  8
LABEL
100
AcDbCircle
 10
10.96374532538762
 20
7.98828434727809
 30
0.0
 40
0.0500000000000007
  0
LINE
  5
179D0A557A6761B3
330
A2409E46B754B2F
100
AcDbEntity
  8
LABEL
100
AcDbLine
 10
11.05774532538762
 20
7.948284347278097
 30
0.0
 11
11.05774532538762
 21
8.028284347278095
 31
0.0
  0
LINE
  5
179D0A557A6761B4
330
A2409E46B754B2F
100
AcDbEntity
  8
LABEL
100
AcDbLine
 10
11.08574532538762
 20
7.948284347278097
 30
0.0
 11
11.08574532538762
 21
8.028284347278095
 31
0.0
  0
CIRCLE
  5
179D0A557A6761B5
330
A2409E46B754B2F
100
AcDbEntity
  8
LABEL
100
AcDbCircle
 10
10.96374532538762
 20
7.588284347278089
 30
0.0
 40
0.0500000000000007
  0
CIRCLE
  5
179D0A557A6761B6
330
A2409E46B754B2F
100
AcDbEntity
  8
LABEL
100
AcDbCircle
 10
10.96374532538762
 20
7.788284347278089
 30
0.0
 40
0.0500000000000007
  0
LINE
  5
179D0A557A6761B7
330
A2409E46B754B2F
100
AcDbEntity
  8
LABEL
100
AcDbLine
 10
11.08574532538762
 20
7.788284347278096
 30
0.0
 11
11.13674532538762
 21
7.788284347278096
 31
0.0
  0
LINE
  5
179D0A557A6761B8
330
A2409E46B754B2F
100
AcDbEntity
  8
LABEL
100
AcDbLine
 10
11.05774532538762
 20
7.788284347278096
 30
0.0
 11
11.01374532538762
 21
7.788284347278096
 31
0.0
  0
LINE
  5
179D0A557A6761B9
330
A2409E46B754B2F
100
AcDbEntity
  8
LABEL
100
AcDbLine
 10
11.05774532538762
 20
7.748284347278097
 30
0.0
 11
11.05774532538762
 21
7.828284347278096
 31
0.0
  0
LINE
  5
179D0A557A6761BA
330
A2409E46B754B2F
100
AcDbEntity
  8
LABEL
100
AcDbLine
 10
11.08574532538762
 20
7.748284347278097
 30
0.0
 11
11.08574532538762
 21
7.828284347278096
 31
0.0
  0
LINE
  5
179D0A557A6761BB
330
A2409E46B754B2F
100
AcDbEntity
  8
LABEL
100
AcDbLine
 10
11.08574532538762
 20
7.588284347278094
 30
0.0
 11
11.13674532538762
 21
7.588284347278094
 31
0.0
  0
LINE
  5
179D0A557A6761BC
330
A2409E46B754B2F
100
AcDbEntity
  8
LABEL
100
AcDbLine
 10
11.05774532538762
 20
7.588284347278094
 30
0.0
 11
11.01374532538762
 21
7.588284347278094
 31
0.0
  0
LINE
  5
179D0A557A6761BD
330
A2409E46B754B2F
100
AcDbEntity
  8
LABEL
100
AcDbLine
 10
11.05774532538762
 20
7.548284347278094
 30
0.0
 11
11.05774532538762
 21
7.628284347278093
 31
0.0
  0
LINE
  5
179D0A557A6761BE
330
A2409E46B754B2F
100
AcDbEntity
  8
LABEL
100
AcDbLine
 10
11.08574532538762
 20
7.548284347278094
 30
0.0
 11
11.08574532538762
 21
7.628284347278093
 31
0.0
  0
LINE
  5
179D0A557A6761BF
330
A2409E46B754B2F
100
AcDbEntity
  8
LABEL
100
AcDbLine
 10
11.08574532538762
 20
7.988284347278096
 30
0.0
 11
11.13674532538762
 21
7.988284347278096
 31
0.0
  0
LINE
  5
179D0A557A6761C0
330
A2409E46B754B2F
100
AcDbEntity
  8
LABEL
100
AcDbLine
 10
11.05774532538762
 20
7.988284347278096
 30
0.0
 11
11.01374532538762
 21
7.988284347278096
 31
0.0
  0
LINE
  5
179D0A557A6761C1
330
A2409E46B754B2F
100
AcDbEntity
  8
LABEL
100
AcDbLine
 10
11.05774532538762
 20
8.388284347278094
 30
0.0
 11
11.01374532538762
 21
8.388284347278094
 31
0.0
  0
LINE
  5
179D0A557A6761C2
330
A2409E46B754B2F
100
AcDbEntity
  8
LABEL
100
AcDbLine
 10
11.08574532538762
 20
8.388284347278094
 30
0.0
 11
11.13674532538762
 21
8.388284347278094
 31
0.0
  0
LINE
  5
179D0A557A6761C3
330
A2409E46B754B2F
100
AcDbEntity
  8
LABEL
100
AcDbLine
 10
11.13674532538762
 20
8.188284347278091
 30
0.0
 11
10.91274532538763
 21
8.188284347278091
 31
0.0
  0
TEXT
  5
179D0A557A6761C4
330
A2409E46B754B2F
100
AcDbEntity
  8
LABEL
100
AcDbText
 10
11.22603103967332
 20
7.950784347278093
 30
0.0
 40
0.075
  1
5
  7
ADESK1
 72
     4
 11
11.26174532538761
 21
7.988284347278092
 31
0.0
100
AcDbText
  0
TEXT
  5
179D0A557A6761C5
330
A2409E46B754B2F
100
AcDbEntity
  8
LABEL
100
AcDbText
 10
11.22424532538761
 20
7.75078434727809
 30
0.0
 40
0.075
  1
6
  7
ADESK1
 72
     4
 11
11.26174532538761
 21
7.788284347278089
 31
0.0
100
AcDbText
  0
TEXT
  5
179D0A557A6761C6
330
A2409E46B754B2F
100
AcDbEntity
  8
LABEL
100
AcDbText
 10
11.22603103967332
 20
7.550784347278087
 30
0.0
 40
0.075
  1
7
  7
ADESK1
 72
     4
 11
11.26174532538761
 21
7.588284347278086
 31
0.0
100
AcDbText
  0
TEXT
  5
179D0A557A6761C7
330
A2409E46B754B2F
100
AcDbEntity
  8
LABEL
100
AcDbText
 10
11.22424532538762
 20
8.150784347278092
 30
0.0
 40
0.075
  1
C
  7
ADESK1
 72
     4
 11
11.26174532538762
 21
8.188284347278091
 31
0.0
100
AcDbText
  0
LWPOLYLINE
  5
179D0A557A6761C8
330
A2409E46B754B2F
100
AcDbEntity
  8
LABEL
100
AcDbPolyline
 90
        3
 70
     0
 43
0.02
 10
10.82874532538762
 20
9.153284347278095
 10
11.45374532538762
 20
9.153284347278095
 10
11.45374532538762
 20
8.580284347278096
  0
CIRCLE
  5
179D0A557A6761CD
330
A2409E46B754B2F
100
AcDbEntity
  8
LABEL
100
AcDbCircle
 10
10.96374532538762
 20
8.588284347278092
 30
0.0
 40
0.0500000000000007
  0
CIRCLE
  5
179D0A557A6761CE
330
A2409E46B754B2F
100
AcDbEntity
  8
LABEL
100
AcDbCircle
 10
10.96374532538762
 20
8.788284347278091
 30
0.0
 40
0.0500000000000007
  0
LINE
  5
179D0A557A6761CF
330
A2409E46B754B2F
100
AcDbEntity
  8
LABEL
100
AcDbLine
 10
11.08574532538762
 20
8.548284347278094
 30
0.0
 11
11.08574532538762
 21
8.628284347278093
 31
0.0
  0
LINE
  5
179D0A557A6761D0
330
A2409E46B754B2F
100
AcDbEntity
  8
LABEL
100
AcDbLine
 10
11.05774532538762
 20
8.548284347278094
 30
0.0
 11
11.05774532538762
 21
8.628284347278093
 31
0.0
  0
LINE
  5
179D0A557A6761D1
330
A2409E46B754B2F
100
AcDbEntity
  8
LABEL
100
AcDbLine
 10
11.05774532538762
 20
8.588284347278094
 30
0.0
 11
11.01374532538762
 21
8.588284347278094
 31
0.0
  0
LINE
  5
179D0A557A6761D2
330
A2409E46B754B2F
100
AcDbEntity
  8
LABEL
100
AcDbLine
 10
11.08574532538762
 20
8.748284347278097
 30
0.0
 11
11.08574532538762
 21
8.828284347278096
 31
0.0
  0
LINE
  5
179D0A557A6761D3
330
A2409E46B754B2F
100
AcDbEntity
  8
LABEL
100
AcDbLine
 10
11.05774532538762
 20
8.748284347278097
 30
0.0
 11
11.05774532538762
 21
8.828284347278096
 31
0.0
  0
LINE
  5
179D0A557A6761D4
330
A2409E46B754B2F
100
AcDbEntity
  8
LABEL
100
AcDbLine
 10
11.05774532538762
 20
8.788284347278096
 30
0.0
 11
11.01374532538762
 21
8.788284347278096
 31
0.0
  0
LINE
  5
179D0A557A6761D5
330
A2409E46B754B2F
100
AcDbEntity
  8
LABEL
100
AcDbLine
 10
11.08574532538762
 20
8.588284347278094
 30
0.0
 11
11.13674532538762
 21
8.588284347278094
 31
0.0
  0
LINE
  5
179D0A557A6761D6
330
A2409E46B754B2F
100
AcDbEntity
  8
LABEL
100
AcDbLine
 10
11.08574532538762
 20
8.788284347278096
 30
0.0
 11
11.13674532538762
 21
8.788284347278096
 31
0.0
  0
CIRCLE
  5
179D0A557A6761D7
330
A2409E46B754B2F
100
AcDbEntity
  8
LABEL
100
AcDbCircle
 10
10.96374532538762
 20
8.98828434727809
 30
0.0
 40
0.0500000000000007
  0
LINE
  5
179D0A557A6761D8
330
A2409E46B754B2F
100
AcDbEntity
  8
LABEL
100
AcDbLine
 10
11.08574532538762
 20
8.948284347278097
 30
0.0
 11
11.08574532538762
 21
9.028284347278095
 31
0.0
  0
LINE
  5
179D0A557A6761D9
330
A2409E46B754B2F
100
AcDbEntity
  8
LABEL
100
AcDbLine
 10
11.05774532538762
 20
8.948284347278097
 30
0.0
 11
11.05774532538762
 21
9.028284347278095
 31
0.0
  0
LINE
  5
179D0A557A6761DA
330
A2409E46B754B2F
100
AcDbEntity
  8
LABEL
100
AcDbLine
 10
11.05774532538762
 20
8.988284347278096
 30
0.0
 11
11.01374532538762
 21
8.988284347278096
 31
0.0
  0
LINE
  5
179D0A557A6761DB
330
A2409E46B754B2F
100
AcDbEntity
  8
LABEL
100
AcDbLine
 10
11.08574532538762
 20
8.988284347278096
 30
0.0
 11
11.13674532538762
 21
8.988284347278096
 31
0.0
  0
TEXT
  5
179D0A557A6761DC
330
A2409E46B754B2F
100
AcDbEntity
  8
LABEL
100
AcDbText
 10
11.22603103967332
 20
8.75078434727809
 30
0.0
 40
0.075
  1
2
  7
ADESK1
 72
     4
 11
11.26174532538761
 21
8.788284347278089
 31
0.0
100
AcDbText
  0
TEXT
  5
179D0A557A6761DD
330
A2409E46B754B2F
100
AcDbEntity
  8
LABEL
100
AcDbText
 10
11.22603103967332
 20
8.550784347278087
 30
0.0
 40
0.075
  1
3
  7
ADESK1
 72
     4
 11
11.26174532538761
 21
8.588284347278086
 31
0.0
100
AcDbText
  0
TEXT
  5
179D0A557A6761DE
330
A2409E46B754B2F
100
AcDbEntity
  8
LABEL
100
AcDbText
 10
11.23138818253047
 20
8.950784347278093
 30
0.0
 40
0.075
  1
1
  7
ADESK1
 72
     4
 11
11.26174532538761
 21
8.988284347278092
 31
0.0
100
AcDbText
  0
LINE
  5
179D0A557A6761E1
330
A2409E46B754B2F
100
AcDbEntity
  8
LABEL
100
AcDbLine
 10
15.37074532538762
 20
6.988284347278097
 30
0.0
 11
15.37074532538762
 21
5.3882843472781
 31
0.0
  0
TEXT
  5
179D0A557A6761E2
330
A2409E46B754B2F
100
AcDbEntity
  8
LABEL
100
AcDbText
 10
15.08788818253048
 20
5.097570061563809
 30
0.0
 40
0.075
  1
Discrete Inputs 12/24V
 50
90.0
  7
ADESK1
 72
     4
 11
15.05574532538762
 21
5.783284347278094
 31
0.0
100
AcDbText
  0
LINE
  5
179D0A557A6761E3
330
A2409E46B754B2F
100
AcDbEntity
  8
LABEL
100
AcDbLine
 10
15.37074532538762
 20
5.188284347278099
 30
0.0
 11
15.59474532538761
 21
5.188284347278099
 31
0.0
  0
CIRCLE
  5
179D0A557A6761E4
330
A2409E46B754B2F
100
AcDbEntity
  8
LABEL
100
AcDbCircle
 10
15.54374532538762
 20
5.588284347278091
 30
0.0
 40
0.0500000000000007
  0
CIRCLE
  5
179D0A557A6761E5
330
A2409E46B754B2F
100
AcDbEntity
  8
LABEL
100
AcDbCircle
 10
15.54374532538762
 20
5.388284347278091
 30
0.0
 40
0.0500000000000007
  0
CIRCLE
  5
179D0A557A6761E6
330
A2409E46B754B2F
100
AcDbEntity
  8
LABEL
100
AcDbCircle
 10
15.54374532538762
 20
4.98828434727809
 30
0.0
 40
0.0500000000000007
  0
CIRCLE
  5
179D0A557A6761E7
330
A2409E46B754B2F
100
AcDbEntity
  8
LABEL
100
AcDbCircle
 10
15.54374532538762
 20
4.788284347278091
 30
0.0
 40
0.0500000000000007
  0
CIRCLE
  5
179D0A557A6761E8
330
A2409E46B754B2F
100
AcDbEntity
  8
LABEL
100
AcDbCircle
 10
15.54374532538762
 20
4.588284347278091
 30
0.0
 40
0.0500000000000007
  0
CIRCLE
  5
179D0A557A6761E9
330
A2409E46B754B2F
100
AcDbEntity
  8
LABEL
100
AcDbCircle
 10
15.54374532538762
 20
4.388284347278091
 30
0.0
 40
0.0500000000000007
  0
LWPOLYLINE
  5
179D0A557A6761EA
330
A2409E46B754B2F
100
AcDbEntity
  8
LABEL
100
AcDbPolyline
 90
        3
 70
     0
 43
0.02
 10
15.05374532538762
 20
5.077284347278096
 10
15.05374532538762
 20
4.228284347278096
 10
15.67874532538762
 20
4.228284347278096
  0
LINE
  5
179D0A557A6761EF
330
A2409E46B754B2F
100
AcDbEntity
  8
LABEL
100
AcDbLine
 10
15.67874532538763
 20
3.708284347278096
 30
0.0
 11
14.71374532538763
 21
3.708284347278096
 31
0.0
  0
LINE
  5
179D0A557A6761F1
330
A2409E46B754B2F
100
AcDbEntity
  8
LABEL
100
AcDbLine
 10
14.71374532538763
 20
3.708284347278096
 30
0.0
 11
14.71374532538763
 21
4.258284347278095
 31
0.0
  0
INSERT
  5
179D0A557A6761F2
330
A2409E46B754B2F
100
AcDbEntity
  8
CASE
100
AcDbBlockReference
  2
ACAD037A
 10
12.28374532538762
 20
3.917284347278089
 30
0.0
  0
INSERT
  5
179D0A557A6761F3
330
A2409E46B754B2F
100
AcDbEntity
  8
CASE
100
AcDbBlockReference
  2
ACAD3267
 10
13.32074532538762
 20
4.01228434727809
 30
0.0
 50
180.0
  0
LINE
  5
179D0A557A6761F6
330
A2409E46B754B2F
100
AcDbEntity
  8
LABEL
100
AcDbLine
 10
14.25374532538762
 20
4.535284347278095
 30
0.0
 11
12.82874532538762
 21
4.535284347278095
 31
0.0
  0
TEXT
  5
179D0A557A6761F7
330
A2409E46B754B2F
100
AcDbEntity
  8
LABEL
100
AcDbText
 10
13.39210246824477
 20
4.818784347278095
 30
0.0
 40
0.075
  1
COM1
  7
ADESK1
 72
     4
 11
13.53674532538763
 21
4.856284347278094
 31
0.0
100
AcDbText
  0
INSERT
  5
179D0A557A6761F8
330
A2409E46B754B2F
100
AcDbEntity
  8
COMP
100
AcDbBlockReference
  2
ACAD0C1E
 10
12.28374532538762
 20
4.351284347278106
 30
0.0
  0
LINE
  5
179D0A557A6761F9
330
A2409E46B754B2F
100
AcDbEntity
  8
LABEL
100
AcDbLine
 10
12.82874532538762
 20
4.535284347278095
 30
0.0
 11
12.82874532538762
 21
4.320284347278096
 31
0.0
  0
INSERT
  5
179D0A557A6761FA
330
A2409E46B754B2F
100
AcDbEntity
  8
COMP
100
AcDbBlockReference
  2
ACAD0C1E
 10
12.10374532538761
 20
4.351284347278106
 30
0.0
  0
INSERT
  5
179D0A557A6761FB
330
A2409E46B754B2F
100
AcDbEntity
  8
CASE
100
AcDbBlockReference
  2
ACAD037A
 10
12.28374532538762
 20
4.102284347278091
 30
0.0
  0
ARC
  5
179D0A557A6761FC
330
A2409E46B754B2F
100
AcDbEntity
  8
LABEL
100
AcDbCircle
 10
12.76674532538763
 20
4.320284347278096
 30
0.0
 40
0.0620000000000003
100
AcDbArc
 50
270.0
 51
0.0
  0
TEXT
  5
179D0A557A6761FD
330
A2409E46B754B2F
100
AcDbEntity
  8
LABEL
100
AcDbText
 10
12.71231675395905
 20
4.319141490135239
 30
0.0
 40
0.075
  1
+
  7
ADESK1
 72
     4
 11
12.75874532538763
 21
4.351284347278096
 31
0.0
100
AcDbText
  0
TEXT
  5
179D0A557A6761FE
330
A2409E46B754B2F
100
AcDbEntity
  8
LABEL
100
AcDbText
 10
12.51331675395906
 20
4.319141490135239
 30
0.0
 40
0.075
  1
-
  7
ADESK1
 72
     4
 11
12.55974532538763
 21
4.351284347278096
 31
0.0
100
AcDbText
  0
TEXT
  5
179D0A557A6761FF
330
A2409E46B754B2F
100
AcDbEntity
  8
LABEL
100
AcDbText
 10
12.42817389681619
 20
4.561784347278097
 30
0.0
 40
0.075
  1
RS-485
  7
ADESK1
 72
     4
 11
12.65674532538761
 21
4.599284347278096
 31
0.0
100
AcDbText
  0
INSERT
  5
179D0A557A676200
330
A2409E46B754B2F
100
AcDbEntity
  8
COMP
100
AcDbBlockReference
  2
ACAD0C1E
 10
12.28374532538762
 20
4.599284347278105
 30
0.0
  0
TEXT
  5
179D0A557A676201
330
A2409E46B754B2F
100
AcDbEntity
  8
LABEL
100
AcDbText
 10
12.18195961110191
 20
4.439784347278106
 30
0.0
 40
0.075
  1
CTS
  7
ADESK1
 72
     4
 11
12.28374532538762
 21
4.477284347278105
 31
0.0
100
AcDbText
  0
TEXT
  5
179D0A557A676202
330
A2409E46B754B2F
100
AcDbEntity
  8
LABEL
100
AcDbText
 10
12.21588818253048
 20
4.687784347278105
 30
0.0
 40
0.075
  1
ST
  7
ADESK1
 72
     4
 11
12.28374532538762
 21
4.725284347278105
 31
0.0
100
AcDbText
  0
INSERT
  5
179D0A557A676203
330
A2409E46B754B2F
100
AcDbEntity
  8
COMP
100
AcDbBlockReference
  2
ACAD0C1E
 10
12.10374532538761
 20
4.599284347278105
 30
0.0
  0
INSERT
  5
179D0A557A676204
330
A2409E46B754B2F
100
AcDbEntity
  8
CASE
100
AcDbBlockReference
  2
ACAD037A
 10
13.63874532538762
 20
4.424284347278089
 30
0.0
  0
INSERT
  5
179D0A557A676205
330
A2409E46B754B2F
100
AcDbEntity
  8
CASE
100
AcDbBlockReference
  2
ACAD037A
 10
13.43374532538762
 20
4.424284347278089
 30
0.0
  0
INSERT
  5
179D0A557A676206
330
A2409E46B754B2F
100
AcDbEntity
  8
COMP
100
AcDbBlockReference
  2
ACAD0C1E
 10
13.63874532538762
 20
4.612284347278105
 30
0.0
  0
INSERT
  5
179D0A557A676207
330
A2409E46B754B2F
100
AcDbEntity
  8
COMP
100
AcDbBlockReference
  2
ACAD0C1E
 10
13.43374532538762
 20
4.612284347278105
 30
0.0
  0
TEXT
  5
179D0A557A676208
330
A2409E46B754B2F
100
AcDbEntity
  8
LABEL
100
AcDbText
 10
13.37303103967334
 20
4.696784347278105
 30
0.0
 40
0.075
  1
TX
  7
ADESK1
 72
     4
 11
13.43374532538762
 21
4.734284347278105
 31
0.0
100
AcDbText
  0
TEXT
  5
179D0A557A676209
330
A2409E46B754B2F
100
AcDbEntity
  8
LABEL
100
AcDbText
 10
13.56374532538762
 20
4.696784347278105
 30
0.0
 40
0.075
  1
RX
  7
ADESK1
 72
     4
 11
13.63874532538762
 21
4.734284347278105
 31
0.0
100
AcDbText
  0
LINE
  5
179D0A557A67620A
330
A2409E46B754B2F
100
AcDbEntity
  8
LABEL
100
AcDbLine
 10
15.37074532538762
 20
4.388284347278096
 30
0.0
 11
15.37074532538762
 21
5.188284347278099
 31
0.0
  0
LINE
  5
179D0A557A67620B
330
A2409E46B754B2F
100
AcDbEntity
  8
LABEL
100
AcDbLine
 10
14.71374532538763
 20
4.258284347278095
 30
0.0
 11
14.31574532538762
 21
4.258284347278095
 31
0.0
  0
TEXT
  5
179D0A557A67620C
330
A2409E46B754B2F
100
AcDbEntity
  8
LABEL
100
AcDbText
 10
14.27610246824476
 20
4.404784347278097
 30
0.0
 40
0.075
  1
10-26Vac
  7
ADESK1
 72
     4
 11
14.5689596111019
 21
4.442284347278096
 31
0.0
100
AcDbText
  0
TEXT
  5
179D0A557A67620D
330
A2409E46B754B2F
100
AcDbEntity
  8
LABEL
100
AcDbText
 10
14.27610246824476
 20
4.512784347278097
 30
0.0
 40
0.075
  1
10-36Vdc
  7
ADESK1
 72
     4
 11
14.5689596111019
 21
4.550284347278097
 31
0.0
100
AcDbText
  0
LINE
  5
179D0A557A67620E
330
A2409E46B754B2F
100
AcDbEntity
  8
LABEL
100
AcDbLine
 10
14.25374532538762
 20
4.535284347278095
 30
0.0
 11
14.25374532538762
 21
4.320284347278096
 31
0.0
  0
ARC
  5
179D0A557A67620F
330
A2409E46B754B2F
100
AcDbEntity
  8
LABEL
100
AcDbCircle
 10
14.31574532538763
 20
4.320284347278096
 30
0.0
 40
0.0620000000000012
100
AcDbArc
 50
180.0
 51
270.0
  0
TEXT
  5
179D0A557A676210
330
A2409E46B754B2F
100
AcDbEntity
  8
LABEL
100
AcDbText
 10
14.47531675395905
 20
4.319141490135239
 30
0.0
 40
0.075
  1
+
  7
ADESK1
 72
     4
 11
14.52174532538763
 21
4.351284347278096
 31
0.0
100
AcDbText
  0
TEXT
  5
179D0A557A676211
330
A2409E46B754B2F
100
AcDbEntity
  8
LABEL
100
AcDbText
 10
14.27531675395905
 20
4.319141490135239
 30
0.0
 40
0.075
  1
-
  7
ADESK1
 72
     4
 11
14.32174532538762
 21
4.351284347278096
 31
0.0
100
AcDbText
  0
TEXT
  5
179D0A557A676212
330
A2409E46B754B2F
100
AcDbEntity
  8
LABEL
100
AcDbText
 10
14.31131675395904
 20
4.615784347278095
 30
0.0
 40
0.075
  1
Power
  7
ADESK1
 72
     4
 11
14.48274532538762
 21
4.653284347278095
 31
0.0
100
AcDbText
  0
TEXT
  5
179D0A557A676213
330
A2409E46B754B2F
100
AcDbEntity
  8
LABEL
100
AcDbText
 10
15.16595961110192
 20
4.351784347278087
 30
0.0
 40
0.075
  1
13
  7
ADESK1
 72
     4
 11
15.24274532538763
 21
4.389284347278087
 31
0.0
100
AcDbText
  0
LINE
  5
179D0A557A676214
330
A2409E46B754B2F
100
AcDbEntity
  8
LABEL
100
AcDbLine
 10
15.49374532538762
 20
4.3882843472781
 30
0.0
 11
15.37074532538762
 21
4.388284347278096
 31
0.0
  0
LINE
  5
179D0A557A676215
330
A2409E46B754B2F
100
AcDbEntity
  8
LABEL
100
AcDbLine
 10
15.49374532538762
 20
4.588284347278099
 30
0.0
 11
15.37074532538762
 21
4.588284347278095
 31
0.0
  0
LINE
  5
179D0A557A676216
330
A2409E46B754B2F
100
AcDbEntity
  8
LABEL
100
AcDbLine
 10
15.49374532538762
 20
4.788284347278098
 30
0.0
 11
15.37074532538762
 21
4.788284347278098
 31
0.0
  0
TEXT
  5
179D0A557A676217
330
A2409E46B754B2F
100
AcDbEntity
  8
LABEL
100
AcDbText
 10
15.1641738968162
 20
4.550784347278089
 30
0.0
 40
0.075
  1
14
  7
ADESK1
 72
     4
 11
15.24274532538763
 21
4.588284347278088
 31
0.0
100
AcDbText
  0
TEXT
  5
179D0A557A676218
330
A2409E46B754B2F
100
AcDbEntity
  8
LABEL
100
AcDbText
 10
15.16595961110192
 20
4.750784347278088
 30
0.0
 40
0.075
  1
15
  7
ADESK1
 72
     4
 11
15.24274532538763
 21
4.788284347278088
 31
0.0
100
AcDbText
  0
LINE
  5
179D0A557A676219
330
A2409E46B754B2F
100
AcDbEntity
  8
LABEL
100
AcDbLine
 10
15.49374532538762
 20
4.988284347278101
 30
0.0
 11
15.37074532538762
 21
4.988284347278097
 31
0.0
  0
TEXT
  5
179D0A557A67621A
330
A2409E46B754B2F
100
AcDbEntity
  8
LABEL
100
AcDbText
 10
15.16595961110192
 20
4.950784347278091
 30
0.0
 40
0.075
  1
16
  7
ADESK1
 72
     4
 11
15.24274532538763
 21
4.98828434727809
 31
0.0
100
AcDbText
  0
TEXT
  5
179D0A557A67621B
330
A2409E46B754B2F
100
AcDbEntity
  8
LABEL
100
AcDbText
 10
15.20524532538763
 20
5.15078434727809
 30
0.0
 40
0.075
  1
C
  7
ADESK1
 72
     4
 11
15.24274532538763
 21
5.18828434727809
 31
0.0
100
AcDbText
  0
LINE
  5
179D0A557A67621C
330
A2409E46B754B2F
100
AcDbEntity
  8
LABEL
100
AcDbLine
 10
15.49374532538762
 20
5.588284347278099
 30
0.0
 11
15.37074532538762
 21
5.588284347278099
 31
0.0
  0
TEXT
  5
179D0A557A67621D
330
A2409E46B754B2F
100
AcDbEntity
  8
LABEL
100
AcDbText
 10
15.16595961110192
 20
5.350784347278089
 30
0.0
 40
0.075
  1
17
  7
ADESK1
 72
     4
 11
15.24274532538763
 21
5.388284347278089
 31
0.0
100
AcDbText
  0
LINE
  5
179D0A557A67621E
330
A2409E46B754B2F
100
AcDbEntity
  8
LABEL
100
AcDbLine
 10
15.49374532538762
 20
5.3882843472781
 30
0.0
 11
15.37074532538762
 21
5.3882843472781
 31
0.0
  0
TEXT
  5
179D0A557A67621F
330
A2409E46B754B2F
100
AcDbEntity
  8
LABEL
100
AcDbText
 10
15.16595961110192
 20
5.550784347278089
 30
0.0
 40
0.075
  1
18
  7
ADESK1
 72
     4
 11
15.24274532538763
 21
5.588284347278088
 31
0.0
100
AcDbText
  0
CIRCLE
  5
179D0A557A676220
330
A2409E46B754B2F
100
AcDbEntity
  8
LABEL
100
AcDbCircle
 10
15.54374532538762
 20
8.788284347278089
 30
0.0
 40
0.0500000000000007
  0
CIRCLE
  5
179D0A557A676221
330
A2409E46B754B2F
100
AcDbEntity
  8
LABEL
100
AcDbCircle
 10
15.54374532538762
 20
8.588284347278088
 30
0.0
 40
0.0500000000000007
  0
CIRCLE
  5
179D0A557A676222
330
A2409E46B754B2F
100
AcDbEntity
  8
LABEL
100
AcDbCircle
 10
15.54374532538762
 20
8.388284347278089
 30
0.0
 40
0.0500000000000007
  0
CIRCLE
  5
179D0A557A676223
330
A2409E46B754B2F
100
AcDbEntity
  8
LABEL
100
AcDbCircle
 10
15.54374532538762
 20
8.188284347278091
 30
0.0
 40
0.0500000000000007
  0
CIRCLE
  5
179D0A557A676224
330
A2409E46B754B2F
100
AcDbEntity
  8
LABEL
100
AcDbCircle
 10
15.54374532538762
 20
7.788284347278091
 30
0.0
 40
0.0500000000000007
  0
CIRCLE
  5
179D0A557A676225
330
A2409E46B754B2F
100
AcDbEntity
  8
LABEL
100
AcDbCircle
 10
15.54374532538762
 20
7.588284347278091
 30
0.0
 40
0.0500000000000007
  0
CIRCLE
  5
179D0A557A676226
330
A2409E46B754B2F
100
AcDbEntity
  8
LABEL
100
AcDbCircle
 10
15.54374532538762
 20
7.388284347278089
 30
0.0
 40
0.0500000000000007
  0
CIRCLE
  5
179D0A557A676227
330
A2409E46B754B2F
100
AcDbEntity
  8
LABEL
100
AcDbCircle
 10
15.54374532538762
 20
7.188284347278091
 30
0.0
 40
0.0500000000000007
  0
CIRCLE
  5
179D0A557A676228
330
A2409E46B754B2F
100
AcDbEntity
  8
LABEL
100
AcDbCircle
 10
15.54374532538762
 20
6.788284347278091
 30
0.0
 40
0.0500000000000007
  0
CIRCLE
  5
179D0A557A676229
330
A2409E46B754B2F
100
AcDbEntity
  8
LABEL
100
AcDbCircle
 10
15.54374532538762
 20
6.588284347278091
 30
0.0
 40
0.0500000000000007
  0
CIRCLE
  5
179D0A557A67622A
330
A2409E46B754B2F
100
AcDbEntity
  8
LABEL
100
AcDbCircle
 10
15.54374532538762
 20
6.388284347278091
 30
0.0
 40
0.0500000000000007
  0
CIRCLE
  5
179D0A557A67622B
330
A2409E46B754B2F
100
AcDbEntity
  8
LABEL
100
AcDbCircle
 10
15.54374532538762
 20
6.188284347278091
 30
0.0
 40
0.0500000000000007
  0
CIRCLE
  5
179D0A557A67622C
330
A2409E46B754B2F
100
AcDbEntity
  8
LABEL
100
AcDbCircle
 10
15.54374532538762
 20
5.98828434727809
 30
0.0
 40
0.0500000000000007
  0
CIRCLE
  5
179D0A557A67622D
330
A2409E46B754B2F
100
AcDbEntity
  8
LABEL
100
AcDbCircle
 10
15.54374532538762
 20
5.788284347278091
 30
0.0
 40
0.0500000000000007
  0
LINE
  5
179D0A557A67622E
330
A2409E46B754B2F
100
AcDbEntity
  8
LABEL
100
AcDbLine
 10
15.37074532538762
 20
8.988284347278097
 30
0.0
 11
15.59474532538761
 21
8.988284347278097
 31
0.0
  0
LWPOLYLINE
  5
179D0A557A67622F
330
A2409E46B754B2F
100
AcDbEntity
  8
LABEL
100
AcDbPolyline
 90
        3
 70
     0
 43
0.02
 10
15.67874532538762
 20
7.068284347278097
 10
15.05374532538762
 20
7.068284347278097
 10
15.05374532538762
 20
6.480284347278097
  0
LINE
  5
179D0A557A676234
330
A2409E46B754B2F
100
AcDbEntity
  8
LABEL
100
AcDbLine
 10
15.37074532538762
 20
6.988284347278097
 30
0.0
 11
15.59474532538761
 21
6.988284347278097
 31
0.0
  0
LWPOLYLINE
  5
179D0A557A676235
330
A2409E46B754B2F
100
AcDbEntity
  8
LABEL
100
AcDbPolyline
 90
        3
 70
     0
 43
0.02
 10
15.67874532538762
 20
9.153284347278095
 10
15.05374532538762
 20
9.153284347278095
 10
15.05374532538762
 20
8.587284347278096
  0
LINE
  5
179D0A557A67623A
330
A2409E46B754B2F
100
AcDbEntity
  8
LABEL
100
AcDbLine
 10
15.37074532538762
 20
7.988284347278097
 30
0.0
 11
15.59474532538761
 21
7.988284347278097
 31
0.0
  0
LWPOLYLINE
  5
179D0A557A67623B
330
A2409E46B754B2F
100
AcDbEntity
  8
LABEL
100
AcDbPolyline
 90
        3
 70
     0
 43
0.02
 10
15.67874532538762
 20
7.108284347278096
 10
15.05374532538762
 20
7.108284347278096
 10
15.05374532538762
 20
7.590284347278096
  0
TEXT
  5
179D0A557A676240
330
A2409E46B754B2F
100
AcDbEntity
  8
LABEL
100
AcDbText
 10
12.5407009920975
 20
7.361397360585669
 30
0.0
 40
0.478
  1
MAXIO
 50
30.0
  7
BRUSHSCRIPT
 72
     4
 11
13.25374532538763
 21
7.953284347278096
 31
0.0
100
AcDbText
  0
LINE
  5
179D0A557A676241
330
A2409E46B754B2F
100
AcDbEntity
  8
LABEL
100
AcDbLine
 10
15.37074532538762
 20
7.18828434727809
 30
0.0
 11
15.37074532538762
 21
7.988284347278097
 31
0.0
  0
TEXT
  5
179D0A557A676242
330
A2409E46B754B2F
100
AcDbEntity
  8
LABEL
100
AcDbText
 10
12.68191058022002
 20
6.993509179441599
 30
0.0
 40
0.478
  1
D2416
 50
30.0
  7
BRUSHSCRIPT
 72
     4
 11
13.25374532538763
 21
7.508284347278097
 31
0.0
100
AcDbText
  0
TEXT
  5
179D0A557A676244
330
A2409E46B754B2F
100
AcDbEntity
  8
LABEL
100
AcDbText
 10
12.6251738968162
 20
6.801998632992382
 30
0.0
 40
0.08
  1
DIGITAL I/O MODULE
  7
ADESK1
 72
     4
 11
13.25374532538763
 21
6.836284347278096
 31
0.0
100
AcDbText
  0
TEXT
  5
179D0A557A676245
330
A2409E46B754B2F
100
AcDbEntity
  8
LABEL
100
AcDbText
 10
15.18203103967334
 20
6.15078434727809
 30
0.0
 40
0.075
  1
21
  7
ADESK1
 72
     4
 11
15.24274532538763
 21
6.18828434727809
 31
0.0
100
AcDbText
  0
LINE
  5
179D0A557A676246
330
A2409E46B754B2F
100
AcDbEntity
  8
LABEL
100
AcDbLine
 10
15.49374532538762
 20
5.988284347278097
 30
0.0
 11
15.37074532538762
 21
5.988284347278097
 31
0.0
  0
TEXT
  5
179D0A557A676247
330
A2409E46B754B2F
100
AcDbEntity
  8
LABEL
100
AcDbText
 10
15.16774532538763
 20
5.750784347278091
 30
0.0
 40
0.075
  1
19
  7
ADESK1
 72
     4
 11
15.24274532538763
 21
5.788284347278091
 31
0.0
100
AcDbText
  0
TEXT
  5
179D0A557A676248
330
A2409E46B754B2F
100
AcDbEntity
  8
LABEL
100
AcDbText
 10
15.17131675395906
 20
5.950784347278091
 30
0.0
 40
0.075
  1
20
  7
ADESK1
 72
     4
 11
15.24274532538763
 21
5.98828434727809
 31
0.0
100
AcDbText
  0
LINE
  5
179D0A557A676249
330
A2409E46B754B2F
100
AcDbEntity
  8
LABEL
100
AcDbLine
 10
15.49374532538762
 20
5.788284347278098
 30
0.0
 11
15.37074532538762
 21
5.788284347278098
 31
0.0
  0
LINE
  5
179D0A557A67624A
330
A2409E46B754B2F
100
AcDbEntity
  8
LABEL
100
AcDbLine
 10
15.49374532538762
 20
6.588284347278099
 30
0.0
 11
15.37074532538762
 21
6.588284347278099
 31
0.0
  0
TEXT
  5
179D0A557A67624B
330
A2409E46B754B2F
100
AcDbEntity
  8
LABEL
100
AcDbText
 10
15.17131675395906
 20
6.350784347278089
 30
0.0
 40
0.075
  1
22
  7
ADESK1
 72
     4
 11
15.24274532538763
 21
6.388284347278089
 31
0.0
100
AcDbText
  0
TEXT
  5
179D0A557A67624C
330
A2409E46B754B2F
100
AcDbEntity
  8
LABEL
100
AcDbText
 10
15.17131675395906
 20
6.550784347278089
 30
0.0
 40
0.075
  1
23
  7
ADESK1
 72
     4
 11
15.24274532538763
 21
6.588284347278088
 31
0.0
100
AcDbText
  0
LINE
  5
179D0A557A67624D
330
A2409E46B754B2F
100
AcDbEntity
  8
LABEL
100
AcDbLine
 10
15.49374532538762
 20
6.3882843472781
 30
0.0
 11
15.37074532538762
 21
6.3882843472781
 31
0.0
  0
LINE
  5
179D0A557A67624E
330
A2409E46B754B2F
100
AcDbEntity
  8
LABEL
100
AcDbLine
 10
15.49374532538762
 20
6.1882843472781
 30
0.0
 11
15.37074532538762
 21
6.1882843472781
 31
0.0
  0
TEXT
  5
179D0A557A67624F
330
A2409E46B754B2F
100
AcDbEntity
  8
LABEL
100
AcDbText
 10
15.16953103967335
 20
6.750784347278091
 30
0.0
 40
0.075
  1
24
  7
ADESK1
 72
     4
 11
15.24274532538763
 21
6.788284347278091
 31
0.0
100
AcDbText
  0
TEXT
  5
179D0A557A676250
330
A2409E46B754B2F
100
AcDbEntity
  8
LABEL
100
AcDbText
 10
15.20524532538763
 20
6.950784347278091
 30
0.0
 40
0.075
  1
C
  7
ADESK1
 72
     4
 11
15.24274532538763
 21
6.98828434727809
 31
0.0
100
AcDbText
  0
LINE
  5
179D0A557A676251
330
A2409E46B754B2F
100
AcDbEntity
  8
LABEL
100
AcDbLine
 10
15.49374532538762
 20
6.788284347278098
 30
0.0
 11
15.37074532538762
 21
6.788284347278098
 31
0.0
  0
LINE
  5
179D0A557A676252
330
A2409E46B754B2F
100
AcDbEntity
  8
LABEL
100
AcDbLine
 10
15.44974532538762
 20
7.18828434727809
 30
0.0
 11
15.49374532538762
 21
7.18828434727809
 31
0.0
  0
LINE
  5
179D0A557A676253
330
A2409E46B754B2F
100
AcDbEntity
  8
LABEL
100
AcDbLine
 10
15.42174532538762
 20
7.18828434727809
 30
0.0
 11
15.37074532538762
 21
7.18828434727809
 31
0.0
  0
LINE
  5
179D0A557A676254
330
A2409E46B754B2F
100
AcDbEntity
  8
LABEL
100
AcDbLine
 10
15.42174532538762
 20
7.428284347278088
 30
0.0
 11
15.42174532538762
 21
7.34828434727809
 31
0.0
  0
LINE
  5
179D0A557A676255
330
A2409E46B754B2F
100
AcDbEntity
  8
LABEL
100
AcDbLine
 10
15.44974532538762
 20
7.428284347278088
 30
0.0
 11
15.44974532538762
 21
7.34828434727809
 31
0.0
  0
LINE
  5
179D0A557A676256
330
A2409E46B754B2F
100
AcDbEntity
  8
LABEL
100
AcDbLine
 10
15.44974532538762
 20
7.388284347278089
 30
0.0
 11
15.49374532538762
 21
7.388284347278089
 31
0.0
  0
LINE
  5
179D0A557A676257
330
A2409E46B754B2F
100
AcDbEntity
  8
LABEL
100
AcDbLine
 10
15.42174532538762
 20
7.388284347278089
 30
0.0
 11
15.37074532538762
 21
7.388284347278089
 31
0.0
  0
TEXT
  5
179D0A557A676258
330
A2409E46B754B2F
100
AcDbEntity
  8
LABEL
100
AcDbText
 10
15.16895961110192
 20
7.350784347278096
 30
0.0
 40
0.075
  1
10
  7
ADESK1
 72
     4
 11
15.24574532538763
 21
7.388284347278096
 31
0.0
100
AcDbText
  0
LINE
  5
179D0A557A676259
330
A2409E46B754B2F
100
AcDbEntity
  8
LABEL
100
AcDbLine
 10
15.42174532538762
 20
7.228284347278089
 30
0.0
 11
15.42174532538762
 21
7.148284347278091
 31
0.0
  0
LINE
  5
179D0A557A67625A
330
A2409E46B754B2F
100
AcDbEntity
  8
LABEL
100
AcDbLine
 10
15.44974532538762
 20
7.228284347278089
 30
0.0
 11
15.44974532538762
 21
7.148284347278091
 31
0.0
  0
TEXT
  5
179D0A557A67625B
330
A2409E46B754B2F
100
AcDbEntity
  8
LABEL
100
AcDbText
 10
15.21181675395906
 20
7.150784347278094
 30
0.0
 40
0.075
  1
9
  7
ADESK1
 72
     4
 11
15.24574532538763
 21
7.188284347278093
 31
0.0
100
AcDbText
  0
TEXT
  5
179D0A557A67625C
330
A2409E46B754B2F
100
AcDbEntity
  8
LABEL
100
AcDbText
 10
13.09624532538762
 20
8.905784347278096
 30
0.0
 40
0.075
  1
Address
  7
ADESK1
 72
     4
 11
13.30874532538762
 21
8.943284347278096
 31
0.0
100
AcDbText
  0
TEXT
  5
179D0A557A67625D
330
A2409E46B754B2F
100
AcDbEntity
  8
LABEL
100
AcDbText
 10
13.08553103967333
 20
9.013784347278097
 30
0.0
 40
0.075
  1
Network
  7
ADESK1
 72
     4
 11
13.30874532538762
 21
9.051284347278096
 31
0.0
100
AcDbText
  0
LINE
  5
179D0A557A67625E
330
A2409E46B754B2F
100
AcDbEntity
  8
LABEL
100
AcDbLine
 10
12.93374532538762
 20
9.128284347278096
 30
0.0
 11
13.68374532538762
 21
9.128284347278096
 31
0.0
  0
LINE
  5
179D0A557A67625F
330
A2409E46B754B2F
100
AcDbEntity
  8
LABEL
100
AcDbLine
 10
15.42174532538762
 20
8.428284347278088
 30
0.0
 11
15.42174532538762
 21
8.34828434727809
 31
0.0
  0
LINE
  5
179D0A557A676260
330
A2409E46B754B2F
100
AcDbEntity
  8
LABEL
100
AcDbLine
 10
15.44974532538762
 20
8.428284347278088
 30
0.0
 11
15.44974532538762
 21
8.34828434727809
 31
0.0
  0
TEXT
  5
179D0A557A676261
330
A2409E46B754B2F
100
AcDbEntity
  8
LABEL
100
AcDbText
 10
15.1671738968162
 20
8.350784347278096
 30
0.0
 40
0.075
  1
14
  7
ADESK1
 72
     4
 11
15.24574532538763
 21
8.388284347278096
 31
0.0
100
AcDbText
  0
LINE
  5
179D0A557A676262
330
A2409E46B754B2F
100
AcDbEntity
  8
LABEL
100
AcDbLine
 10
15.37074532538762
 20
8.18828434727809
 30
0.0
 11
15.37074532538762
 21
8.988284347278097
 31
0.0
  0
TEXT
  5
179D0A557A676263
330
A2409E46B754B2F
100
AcDbEntity
  8
LABEL
100
AcDbText
 10
15.08074532538762
 20
7.605498632992383
 30
0.0
 40
0.075
  1
Discrete Outputs
 50
90.0
  7
ADESK1
 72
     4
 11
15.05574532538762
 21
8.082284347278097
 31
0.0
100
AcDbText
  0
TEXT
  5
179D0A557A676264
330
A2409E46B754B2F
100
AcDbEntity
  8
LABEL
100
AcDbText
 10
15.18724532538762
 20
7.950784347278094
 30
0.0
 40
0.075
  1
C
  7
ADESK1
 72
     4
 11
15.22474532538762
 21
7.988284347278094
 31
0.0
100
AcDbText
  0
LINE
  5
179D0A557A676265
330
A2409E46B754B2F
100
AcDbEntity
  8
LABEL
100
AcDbLine
 10
15.42174532538762
 20
7.628284347278091
 30
0.0
 11
15.42174532538762
 21
7.548284347278093
 31
0.0
  0
LINE
  5
179D0A557A676266
330
A2409E46B754B2F
100
AcDbEntity
  8
LABEL
100
AcDbLine
 10
15.44974532538762
 20
7.628284347278091
 30
0.0
 11
15.44974532538762
 21
7.548284347278093
 31
0.0
  0
LINE
  5
179D0A557A676267
330
A2409E46B754B2F
100
AcDbEntity
  8
LABEL
100
AcDbLine
 10
15.44974532538762
 20
7.588284347278092
 30
0.0
 11
15.49374532538762
 21
7.588284347278092
 31
0.0
  0
LINE
  5
179D0A557A676268
330
A2409E46B754B2F
100
AcDbEntity
  8
LABEL
100
AcDbLine
 10
15.42174532538762
 20
7.588284347278092
 30
0.0
 11
15.37074532538762
 21
7.588284347278092
 31
0.0
  0
TEXT
  5
179D0A557A676269
330
A2409E46B754B2F
100
AcDbEntity
  8
LABEL
100
AcDbText
 10
15.1796738968162
 20
7.550784347278099
 30
0.0
 40
0.075
  1
11
  7
ADESK1
 72
     4
 11
15.24574532538763
 21
7.588284347278099
 31
0.0
100
AcDbText
  0
LINE
  5
179D0A557A67626A
330
A2409E46B754B2F
100
AcDbEntity
  8
LABEL
100
AcDbLine
 10
15.42174532538762
 20
7.82828434727809
 30
0.0
 11
15.42174532538762
 21
7.748284347278092
 31
0.0
  0
LINE
  5
179D0A557A67626B
330
A2409E46B754B2F
100
AcDbEntity
  8
LABEL
100
AcDbLine
 10
15.44974532538762
 20
7.82828434727809
 30
0.0
 11
15.44974532538762
 21
7.748284347278092
 31
0.0
  0
LINE
  5
179D0A557A67626C
330
A2409E46B754B2F
100
AcDbEntity
  8
LABEL
100
AcDbLine
 10
15.44974532538762
 20
7.788284347278091
 30
0.0
 11
15.49374532538762
 21
7.788284347278091
 31
0.0
  0
LINE
  5
179D0A557A67626D
330
A2409E46B754B2F
100
AcDbEntity
  8
LABEL
100
AcDbLine
 10
15.42174532538762
 20
7.788284347278091
 30
0.0
 11
15.37074532538762
 21
7.788284347278091
 31
0.0
  0
TEXT
  5
179D0A557A67626E
330
A2409E46B754B2F
100
AcDbEntity
  8
LABEL
100
AcDbText
 10
15.16895961110192
 20
7.750784347278095
 30
0.0
 40
0.075
  1
12
  7
ADESK1
 72
     4
 11
15.24574532538763
 21
7.788284347278095
 31
0.0
100
AcDbText
  0
LINE
  5
179D0A557A67626F
330
A2409E46B754B2F
100
AcDbEntity
  8
LABEL
100
AcDbLine
 10
15.44974532538762
 20
8.388284347278089
 30
0.0
 11
15.49374532538762
 21
8.388284347278089
 31
0.0
  0
LINE
  5
179D0A557A676270
330
A2409E46B754B2F
100
AcDbEntity
  8
LABEL
100
AcDbLine
 10
15.42174532538762
 20
8.388284347278089
 30
0.0
 11
15.37074532538762
 21
8.388284347278089
 31
0.0
  0
LINE
  5
179D0A557A676271
330
A2409E46B754B2F
100
AcDbEntity
  8
LABEL
100
AcDbLine
 10
15.42174532538762
 20
8.228284347278089
 30
0.0
 11
15.42174532538762
 21
8.148284347278091
 31
0.0
  0
LINE
  5
179D0A557A676272
330
A2409E46B754B2F
100
AcDbEntity
  8
LABEL
100
AcDbLine
 10
15.44974532538762
 20
8.228284347278089
 30
0.0
 11
15.44974532538762
 21
8.148284347278091
 31
0.0
  0
LINE
  5
179D0A557A676273
330
A2409E46B754B2F
100
AcDbEntity
  8
LABEL
100
AcDbLine
 10
15.44974532538762
 20
8.18828434727809
 30
0.0
 11
15.49374532538762
 21
8.18828434727809
 31
0.0
  0
LINE
  5
179D0A557A676274
330
A2409E46B754B2F
100
AcDbEntity
  8
LABEL
100
AcDbLine
 10
15.42174532538762
 20
8.18828434727809
 30
0.0
 11
15.37074532538762
 21
8.18828434727809
 31
0.0
  0
TEXT
  5
179D0A557A676275
330
A2409E46B754B2F
100
AcDbEntity
  8
LABEL
100
AcDbText
 10
15.16895961110192
 20
8.150784347278094
 30
0.0
 40
0.075
  1
13
  7
ADESK1
 72
     4
 11
15.24574532538763
 21
8.188284347278093
 31
0.0
100
AcDbText
  0
LINE
  5
179D0A557A676276
330
A2409E46B754B2F
100
AcDbEntity
  8
LABEL
100
AcDbLine
 10
15.42174532538762
 20
8.628284347278091
 30
0.0
 11
15.42174532538762
 21
8.548284347278093
 31
0.0
  0
LINE
  5
179D0A557A676277
330
A2409E46B754B2F
100
AcDbEntity
  8
LABEL
100
AcDbLine
 10
15.44974532538762
 20
8.628284347278091
 30
0.0
 11
15.44974532538762
 21
8.548284347278093
 31
0.0
  0
LINE
  5
179D0A557A676278
330
A2409E46B754B2F
100
AcDbEntity
  8
LABEL
100
AcDbLine
 10
15.44974532538762
 20
8.588284347278092
 30
0.0
 11
15.49374532538762
 21
8.588284347278092
 31
0.0
  0
LINE
  5
179D0A557A676279
330
A2409E46B754B2F
100
AcDbEntity
  8
LABEL
100
AcDbLine
 10
15.42174532538762
 20
8.588284347278092
 30
0.0
 11
15.37074532538762
 21
8.588284347278092
 31
0.0
  0
LINE
  5
179D0A557A67627A
330
A2409E46B754B2F
100
AcDbEntity
  8
LABEL
100
AcDbLine
 10
15.44974532538762
 20
8.788284347278091
 30
0.0
 11
15.49374532538762
 21
8.788284347278091
 31
0.0
  0
LINE
  5
179D0A557A67627B
330
A2409E46B754B2F
100
AcDbEntity
  8
LABEL
100
AcDbLine
 10
15.42174532538762
 20
8.788284347278091
 30
0.0
 11
15.37074532538762
 21
8.788284347278091
 31
0.0
  0
TEXT
  5
179D0A557A67627C
330
A2409E46B754B2F
100
AcDbEntity
  8
LABEL
100
AcDbText
 10
15.16895961110192
 20
8.550784347278099
 30
0.0
 40
0.075
  1
15
  7
ADESK1
 72
     4
 11
15.24574532538763
 21
8.588284347278099
 31
0.0
100
AcDbText
  0
TEXT
  5
179D0A557A67627D
330
A2409E46B754B2F
100
AcDbEntity
  8
LABEL
100
AcDbText
 10
15.16895961110192
 20
8.750784347278095
 30
0.0
 40
0.075
  1
16
  7
ADESK1
 72
     4
 11
15.24574532538763
 21
8.788284347278095
 31
0.0
100
AcDbText
  0
LINE
  5
179D0A557A67627E
330
A2409E46B754B2F
100
AcDbEntity
  8
LABEL
100
AcDbLine
 10
15.42174532538762
 20
8.82828434727809
 30
0.0
 11
15.42174532538762
 21
8.748284347278092
 31
0.0
  0
LINE
  5
179D0A557A67627F
330
A2409E46B754B2F
100
AcDbEntity
  8
LABEL
100
AcDbLine
 10
15.44974532538762
 20
8.82828434727809
 30
0.0
 11
15.44974532538762
 21
8.748284347278092
 31
0.0
  0
TEXT
  5
179D0A557A676280
330
A2409E46B754B2F
100
AcDbEntity
  8
LABEL
100
AcDbText
 10
15.18724532538762
 20
8.950784347278094
 30
0.0
 40
0.075
  1
C
  7
ADESK1
 72
     4
 11
15.22474532538762
 21
8.988284347278094
 31
0.0
100
AcDbText
  0
LINE
  5
179D0A557A676281
330
A2409E46B754B2F
100
AcDbEntity
  8
LABEL
100
AcDbLine
 10
12.93374532538762
 20
9.65828434727809
 30
0.0
 11
10.82874532538762
 21
9.658284347278096
 31
0.0
  0
LINE
  5
179D0A557A676282
330
A2409E46B754B2F
100
AcDbEntity
  8
LABEL
100
AcDbLine
 10
13.68374532538762
 20
9.658284347278096
 30
0.0
 11
15.67874532538763
 21
9.658284347278096
 31
0.0
  0
LWPOLYLINE
  5
851204F235BAA4EE
330
A2409E46B754B2F
100
AcDbEntity
  8
COMP
100
AcDbPolyline
 90
        6
 70
     1
 43
0.01
 10
13.65874532538762
 20
9.525784347278088
 10
13.65874532538762
 20
9.150784347278088
 10
12.95874532538762
 20
9.150784347278088
 10
12.95874532538762
 20
9.550784347278089
 10
13.65874532538762
 20
9.550784347278089
 10
13.65874532538762
 20
9.525784347278088
  0
LINE
  5
851204F235BAA515
330
A2409E46B754B2F
100
AcDbEntity
  8
COMP
100
AcDbLine
 10
13.02674532538762
 20
9.424784347278093
 30
0.0
 11
13.02674532538762
 21
9.286784347278091
 31
0.0
  0
LINE
  5
851204F235BAA516
330
A2409E46B754B2F
100
AcDbEntity
  8
COMP
100
AcDbLine
 10
13.09074532538762
 20
9.286784347278091
 30
0.0
 11
13.09074532538762
 21
9.424784347278093
 31
0.0
  0
LINE
  5
851204F235BAA517
330
A2409E46B754B2F
100
AcDbEntity
  8
COMP
100
AcDbLine
 10
13.12674532538762
 20
9.424784347278093
 30
0.0
 11
13.12674532538762
 21
9.286784347278091
 31
0.0
  0
LINE
  5
851204F235BAA518
330
A2409E46B754B2F
100
AcDbEntity
  8
COMP
100
AcDbLine
 10
13.19074532538762
 20
9.286784347278091
 30
0.0
 11
13.19074532538762
 21
9.424784347278093
 31
0.0
  0
LINE
  5
851204F235BAA519
330
A2409E46B754B2F
100
AcDbEntity
  8
COMP
100
AcDbLine
 10
13.22674532538762
 20
9.424784347278093
 30
0.0
 11
13.22674532538762
 21
9.286784347278091
 31
0.0
  0
LINE
  5
851204F235BAA51A
330
A2409E46B754B2F
100
AcDbEntity
  8
COMP
100
AcDbLine
 10
13.29074532538762
 20
9.286784347278091
 30
0.0
 11
13.29074532538762
 21
9.424784347278093
 31
0.0
  0
LINE
  5
851204F235BAA51B
330
A2409E46B754B2F
100
AcDbEntity
  8
COMP
100
AcDbLine
 10
13.32674532538762
 20
9.424784347278093
 30
0.0
 11
13.32674532538762
 21
9.286784347278091
 31
0.0
  0
LINE
  5
851204F235BAA51C
330
A2409E46B754B2F
100
AcDbEntity
  8
COMP
100
AcDbLine
 10
13.39074532538762
 20
9.286784347278091
 30
0.0
 11
13.39074532538762
 21
9.424784347278093
 31
0.0
  0
LINE
  5
851204F235BAA51D
330
A2409E46B754B2F
100
AcDbEntity
  8
COMP
100
AcDbLine
 10
13.42674532538761
 20
9.424784347278093
 30
0.0
 11
13.42674532538761
 21
9.286784347278091
 31
0.0
  0
LINE
  5
851204F235BAA51E
330
A2409E46B754B2F
100
AcDbEntity
  8
COMP
100
AcDbLine
 10
13.49074532538761
 20
9.286784347278091
 30
0.0
 11
13.49074532538761
 21
9.424784347278093
 31
0.0
  0
LINE
  5
851204F235BAA51F
330
A2409E46B754B2F
100
AcDbEntity
  8
COMP
100
AcDbLine
 10
13.52674532538761
 20
9.424784347278093
 30
0.0
 11
13.52674532538761
 21
9.286784347278091
 31
0.0
  0
LINE
  5
851204F235BAA520
330
A2409E46B754B2F
100
AcDbEntity
  8
COMP
100
AcDbLine
 10
13.59074532538762
 20
9.286784347278091
 30
0.0
 11
13.59074532538762
 21
9.424784347278093
 31
0.0
  0
LINE
  5
851204F235BAA523
330
A2409E46B754B2F
100
AcDbEntity
  8
COMP
100
AcDbLine
 10
13.34174532538762
 20
9.318784347278091
 30
0.0
 11
13.34174532538762
 21
9.389784347278093
 31
0.0
  0
LINE
  5
851204F235BAA524
330
A2409E46B754B2F
100
AcDbEntity
  8
COMP
100
AcDbLine
 10
13.37474532538762
 20
9.389784347278093
 30
0.0
 11
13.37474532538762
 21
9.318784347278091
 31
0.0
  0
LINE
  5
851204F235BAA525
330
A2409E46B754B2F
100
AcDbEntity
  8
COMP
100
AcDbLine
 10
13.37474532538762
 20
9.318784347278091
 30
0.0
 11
13.34174532538762
 21
9.318784347278091
 31
0.0
  0
LINE
  5
851204F235BAA526
330
A2409E46B754B2F
100
AcDbEntity
  8
COMP
100
AcDbLine
 10
13.34174532538762
 20
9.389784347278093
 30
0.0
 11
13.37474532538762
 21
9.389784347278093
 31
0.0
  0
LINE
  5
851204F235BAA527
330
A2409E46B754B2F
100
AcDbEntity
  8
COMP
100
AcDbLine
 10
13.37474532538762
 20
9.363784347278093
 30
0.0
 11
13.34174532538762
 21
9.363784347278093
 31
0.0
  0
LINE
  5
851204F235BAA528
330
A2409E46B754B2F
100
AcDbEntity
  8
COMP
100
AcDbLine
 10
13.37474532538762
 20
9.367784347278091
 30
0.0
 11
13.34174532538762
 21
9.367784347278091
 31
0.0
  0
LINE
  5
851204F235BAA529
330
A2409E46B754B2F
100
AcDbEntity
  8
COMP
100
AcDbLine
 10
13.37474532538762
 20
9.371784347278092
 30
0.0
 11
13.34174532538762
 21
9.371784347278092
 31
0.0
  0
LINE
  5
851204F235BAA52A
330
A2409E46B754B2F
100
AcDbEntity
  8
COMP
100
AcDbLine
 10
13.37474532538762
 20
9.375784347278093
 30
0.0
 11
13.34174532538762
 21
9.375784347278093
 31
0.0
  0
LINE
  5
851204F235BAA52B
330
A2409E46B754B2F
100
AcDbEntity
  8
COMP
100
AcDbLine
 10
13.37474532538762
 20
9.379784347278091
 30
0.0
 11
13.34174532538762
 21
9.379784347278091
 31
0.0
  0
LINE
  5
851204F235BAA52C
330
A2409E46B754B2F
100
AcDbEntity
  8
COMP
100
AcDbLine
 10
13.37474532538762
 20
9.383784347278092
 30
0.0
 11
13.34174532538762
 21
9.383784347278092
 31
0.0
  0
LINE
  5
851204F235BAA52D
330
A2409E46B754B2F
100
AcDbEntity
  8
COMP
100
AcDbLine
 10
13.37474532538762
 20
9.386784347278092
 30
0.0
 11
13.34174532538762
 21
9.386784347278092
 31
0.0
  0
LINE
  5
851204F235BAA52E
330
A2409E46B754B2F
100
AcDbEntity
  8
COMP
100
AcDbLine
 10
13.44174532538761
 20
9.318784347278091
 30
0.0
 11
13.44174532538761
 21
9.389784347278093
 31
0.0
  0
LINE
  5
851204F235BAA52F
330
A2409E46B754B2F
100
AcDbEntity
  8
COMP
100
AcDbLine
 10
13.47474532538762
 20
9.389784347278093
 30
0.0
 11
13.47474532538762
 21
9.318784347278091
 31
0.0
  0
LINE
  5
851204F235BAA530
330
A2409E46B754B2F
100
AcDbEntity
  8
COMP
100
AcDbLine
 10
13.47474532538762
 20
9.318784347278091
 30
0.0
 11
13.44174532538761
 21
9.318784347278091
 31
0.0
  0
LINE
  5
851204F235BAA531
330
A2409E46B754B2F
100
AcDbEntity
  8
COMP
100
AcDbLine
 10
13.44174532538761
 20
9.389784347278093
 30
0.0
 11
13.47474532538762
 21
9.389784347278093
 31
0.0
  0
LINE
  5
851204F235BAA532
330
A2409E46B754B2F
100
AcDbEntity
  8
COMP
100
AcDbLine
 10
13.47474532538762
 20
9.363784347278093
 30
0.0
 11
13.44174532538761
 21
9.363784347278093
 31
0.0
  0
LINE
  5
851204F235BAA533
330
A2409E46B754B2F
100
AcDbEntity
  8
COMP
100
AcDbLine
 10
13.47474532538762
 20
9.367784347278091
 30
0.0
 11
13.44174532538761
 21
9.367784347278091
 31
0.0
  0
LINE
  5
851204F235BAA534
330
A2409E46B754B2F
100
AcDbEntity
  8
COMP
100
AcDbLine
 10
13.47474532538762
 20
9.371784347278092
 30
0.0
 11
13.44174532538761
 21
9.371784347278092
 31
0.0
  0
LINE
  5
851204F235BAA535
330
A2409E46B754B2F
100
AcDbEntity
  8
COMP
100
AcDbLine
 10
13.47474532538762
 20
9.375784347278093
 30
0.0
 11
13.44174532538761
 21
9.375784347278093
 31
0.0
  0
LINE
  5
851204F235BAA536
330
A2409E46B754B2F
100
AcDbEntity
  8
COMP
100
AcDbLine
 10
13.47474532538762
 20
9.379784347278091
 30
0.0
 11
13.44174532538761
 21
9.379784347278091
 31
0.0
  0
LINE
  5
851204F235BAA537
330
A2409E46B754B2F
100
AcDbEntity
  8
COMP
100
AcDbLine
 10
13.47474532538762
 20
9.383784347278092
 30
0.0
 11
13.44174532538761
 21
9.383784347278092
 31
0.0
  0
LINE
  5
851204F235BAA538
330
A2409E46B754B2F
100
AcDbEntity
  8
COMP
100
AcDbLine
 10
13.47474532538762
 20
9.386784347278092
 30
0.0
 11
13.44174532538761
 21
9.386784347278092
 31
0.0
  0
LINE
  5
851204F235BAA539
330
A2409E46B754B2F
100
AcDbEntity
  8
COMP
100
AcDbLine
 10
13.54174532538761
 20
9.318784347278091
 30
0.0
 11
13.54174532538761
 21
9.389784347278093
 31
0.0
  0
LINE
  5
851204F235BAA53A
330
A2409E46B754B2F
100
AcDbEntity
  8
COMP
100
AcDbLine
 10
13.57474532538762
 20
9.389784347278093
 30
0.0
 11
13.57474532538762
 21
9.318784347278091
 31
0.0
  0
LINE
  5
851204F235BAA53B
330
A2409E46B754B2F
100
AcDbEntity
  8
COMP
100
AcDbLine
 10
13.57474532538762
 20
9.318784347278091
 30
0.0
 11
13.54174532538761
 21
9.318784347278091
 31
0.0
  0
LINE
  5
851204F235BAA53C
330
A2409E46B754B2F
100
AcDbEntity
  8
COMP
100
AcDbLine
 10
13.54174532538761
 20
9.389784347278093
 30
0.0
 11
13.57474532538762
 21
9.389784347278093
 31
0.0
  0
LINE
  5
851204F235BAA53D
330
A2409E46B754B2F
100
AcDbEntity
  8
COMP
100
AcDbLine
 10
13.57474532538762
 20
9.363784347278093
 30
0.0
 11
13.54174532538761
 21
9.363784347278093
 31
0.0
  0
LINE
  5
851204F235BAA53E
330
A2409E46B754B2F
100
AcDbEntity
  8
COMP
100
AcDbLine
 10
13.57474532538762
 20
9.367784347278091
 30
0.0
 11
13.54174532538761
 21
9.367784347278091
 31
0.0
  0
LINE
  5
851204F235BAA53F
330
A2409E46B754B2F
100
AcDbEntity
  8
COMP
100
AcDbLine
 10
13.57474532538762
 20
9.371784347278092
 30
0.0
 11
13.54174532538761
 21
9.371784347278092
 31
0.0
  0
LINE
  5
851204F235BAA540
330
A2409E46B754B2F
100
AcDbEntity
  8
COMP
100
AcDbLine
 10
13.57474532538762
 20
9.375784347278093
 30
0.0
 11
13.54174532538761
 21
9.375784347278093
 31
0.0
  0
LINE
  5
851204F235BAA541
330
A2409E46B754B2F
100
AcDbEntity
  8
COMP
100
AcDbLine
 10
13.57474532538762
 20
9.379784347278091
 30
0.0
 11
13.54174532538761
 21
9.379784347278091
 31
0.0
  0
LINE
  5
851204F235BAA542
330
A2409E46B754B2F
100
AcDbEntity
  8
COMP
100
AcDbLine
 10
13.57474532538762
 20
9.383784347278092
 30
0.0
 11
13.54174532538761
 21
9.383784347278092
 31
0.0
  0
LINE
  5
851204F235BAA543
330
A2409E46B754B2F
100
AcDbEntity
  8
COMP
100
AcDbLine
 10
13.57474532538762
 20
9.386784347278092
 30
0.0
 11
13.54174532538761
 21
9.386784347278092
 31
0.0
  0
LINE
  5
851204F235BAA54F
330
A2409E46B754B2F
100
AcDbEntity
  8
COMP
100
AcDbLine
 10
13.39074532538762
 20
9.424784347278093
 30
0.0
 11
13.32674532538762
 21
9.424784347278093
 31
0.0
  0
LINE
  5
851204F235BAA550
330
A2409E46B754B2F
100
AcDbEntity
  8
COMP
100
AcDbLine
 10
13.49074532538761
 20
9.424784347278093
 30
0.0
 11
13.42674532538761
 21
9.424784347278093
 31
0.0
  0
LINE
  5
851204F235BAA551
330
A2409E46B754B2F
100
AcDbEntity
  8
COMP
100
AcDbLine
 10
13.59074532538762
 20
9.424784347278093
 30
0.0
 11
13.52674532538761
 21
9.424784347278093
 31
0.0
  0
LINE
  5
851204F235BAA553
330
A2409E46B754B2F
100
AcDbEntity
  8
COMP
100
AcDbLine
 10
13.04174532538762
 20
9.318784347278091
 30
0.0
 11
13.04174532538762
 21
9.389784347278093
 31
0.0
  0
LINE
  5
851204F235BAA554
330
A2409E46B754B2F
100
AcDbEntity
  8
COMP
100
AcDbLine
 10
13.07474532538762
 20
9.389784347278093
 30
0.0
 11
13.07474532538762
 21
9.318784347278091
 31
0.0
  0
LINE
  5
851204F235BAA555
330
A2409E46B754B2F
100
AcDbEntity
  8
COMP
100
AcDbLine
 10
13.14174532538762
 20
9.318784347278091
 30
0.0
 11
13.14174532538762
 21
9.389784347278093
 31
0.0
  0
LINE
  5
851204F235BAA556
330
A2409E46B754B2F
100
AcDbEntity
  8
COMP
100
AcDbLine
 10
13.17474532538762
 20
9.389784347278093
 30
0.0
 11
13.17474532538762
 21
9.318784347278091
 31
0.0
  0
LINE
  5
851204F235BAA557
330
A2409E46B754B2F
100
AcDbEntity
  8
COMP
100
AcDbLine
 10
13.17474532538762
 20
9.318784347278091
 30
0.0
 11
13.14174532538762
 21
9.318784347278091
 31
0.0
  0
LINE
  5
851204F235BAA558
330
A2409E46B754B2F
100
AcDbEntity
  8
COMP
100
AcDbLine
 10
13.14174532538762
 20
9.389784347278093
 30
0.0
 11
13.17474532538762
 21
9.389784347278093
 31
0.0
  0
LINE
  5
851204F235BAA559
330
A2409E46B754B2F
100
AcDbEntity
  8
COMP
100
AcDbLine
 10
13.17474532538762
 20
9.363784347278093
 30
0.0
 11
13.14174532538762
 21
9.363784347278093
 31
0.0
  0
LINE
  5
851204F235BAA55A
330
A2409E46B754B2F
100
AcDbEntity
  8
COMP
100
AcDbLine
 10
13.17474532538762
 20
9.367784347278091
 30
0.0
 11
13.14174532538762
 21
9.367784347278091
 31
0.0
  0
LINE
  5
851204F235BAA55B
330
A2409E46B754B2F
100
AcDbEntity
  8
COMP
100
AcDbLine
 10
13.17474532538762
 20
9.371784347278092
 30
0.0
 11
13.14174532538762
 21
9.371784347278092
 31
0.0
  0
LINE
  5
851204F235BAA55C
330
A2409E46B754B2F
100
AcDbEntity
  8
COMP
100
AcDbLine
 10
13.17474532538762
 20
9.375784347278093
 30
0.0
 11
13.14174532538762
 21
9.375784347278093
 31
0.0
  0
LINE
  5
851204F235BAA55D
330
A2409E46B754B2F
100
AcDbEntity
  8
COMP
100
AcDbLine
 10
13.17474532538762
 20
9.379784347278091
 30
0.0
 11
13.14174532538762
 21
9.379784347278091
 31
0.0
  0
LINE
  5
851204F235BAA55E
330
A2409E46B754B2F
100
AcDbEntity
  8
COMP
100
AcDbLine
 10
13.17474532538762
 20
9.383784347278092
 30
0.0
 11
13.14174532538762
 21
9.383784347278092
 31
0.0
  0
LINE
  5
851204F235BAA55F
330
A2409E46B754B2F
100
AcDbEntity
  8
COMP
100
AcDbLine
 10
13.17474532538762
 20
9.386784347278092
 30
0.0
 11
13.14174532538762
 21
9.386784347278092
 31
0.0
  0
LINE
  5
851204F235BAA560
330
A2409E46B754B2F
100
AcDbEntity
  8
COMP
100
AcDbLine
 10
13.24174532538762
 20
9.318784347278091
 30
0.0
 11
13.24174532538762
 21
9.389784347278093
 31
0.0
  0
LINE
  5
851204F235BAA561
330
A2409E46B754B2F
100
AcDbEntity
  8
COMP
100
AcDbLine
 10
13.27474532538762
 20
9.389784347278093
 30
0.0
 11
13.27474532538762
 21
9.318784347278091
 31
0.0
  0
LINE
  5
851204F235BAA562
330
A2409E46B754B2F
100
AcDbEntity
  8
COMP
100
AcDbLine
 10
13.27474532538762
 20
9.318784347278091
 30
0.0
 11
13.24174532538762
 21
9.318784347278091
 31
0.0
  0
LINE
  5
851204F235BAA563
330
A2409E46B754B2F
100
AcDbEntity
  8
COMP
100
AcDbLine
 10
13.24174532538762
 20
9.389784347278093
 30
0.0
 11
13.27474532538762
 21
9.389784347278093
 31
0.0
  0
LINE
  5
851204F235BAA564
330
A2409E46B754B2F
100
AcDbEntity
  8
COMP
100
AcDbLine
 10
13.27474532538762
 20
9.363784347278093
 30
0.0
 11
13.24174532538762
 21
9.363784347278093
 31
0.0
  0
LINE
  5
851204F235BAA565
330
A2409E46B754B2F
100
AcDbEntity
  8
COMP
100
AcDbLine
 10
13.27474532538762
 20
9.367784347278091
 30
0.0
 11
13.24174532538762
 21
9.367784347278091
 31
0.0
  0
LINE
  5
851204F235BAA566
330
A2409E46B754B2F
100
AcDbEntity
  8
COMP
100
AcDbLine
 10
13.27474532538762
 20
9.371784347278092
 30
0.0
 11
13.24174532538762
 21
9.371784347278092
 31
0.0
  0
LINE
  5
851204F235BAA567
330
A2409E46B754B2F
100
AcDbEntity
  8
COMP
100
AcDbLine
 10
13.27474532538762
 20
9.375784347278093
 30
0.0
 11
13.24174532538762
 21
9.375784347278093
 31
0.0
  0
LINE
  5
851204F235BAA568
330
A2409E46B754B2F
100
AcDbEntity
  8
COMP
100
AcDbLine
 10
13.27474532538762
 20
9.379784347278091
 30
0.0
 11
13.24174532538762
 21
9.379784347278091
 31
0.0
  0
LINE
  5
851204F235BAA569
330
A2409E46B754B2F
100
AcDbEntity
  8
COMP
100
AcDbLine
 10
13.27474532538762
 20
9.383784347278092
 30
0.0
 11
13.24174532538762
 21
9.383784347278092
 31
0.0
  0
LINE
  5
851204F235BAA56A
330
A2409E46B754B2F
100
AcDbEntity
  8
COMP
100
AcDbLine
 10
13.27474532538762
 20
9.386784347278092
 30
0.0
 11
13.24174532538762
 21
9.386784347278092
 31
0.0
  0
LINE
  5
851204F235BAA56B
330
A2409E46B754B2F
100
AcDbEntity
  8
COMP
100
AcDbLine
 10
13.07474532538762
 20
9.318784347278091
 30
0.0
 11
13.04174532538762
 21
9.318784347278091
 31
0.0
  0
LINE
  5
851204F235BAA56C
330
A2409E46B754B2F
100
AcDbEntity
  8
COMP
100
AcDbLine
 10
13.04174532538762
 20
9.389784347278093
 30
0.0
 11
13.07474532538762
 21
9.389784347278093
 31
0.0
  0
LINE
  5
851204F235BAA56D
330
A2409E46B754B2F
100
AcDbEntity
  8
COMP
100
AcDbLine
 10
13.07474532538762
 20
9.363784347278093
 30
0.0
 11
13.04174532538762
 21
9.363784347278093
 31
0.0
  0
LINE
  5
851204F235BAA56E
330
A2409E46B754B2F
100
AcDbEntity
  8
COMP
100
AcDbLine
 10
13.07474532538762
 20
9.367784347278091
 30
0.0
 11
13.04174532538762
 21
9.367784347278091
 31
0.0
  0
LINE
  5
851204F235BAA56F
330
A2409E46B754B2F
100
AcDbEntity
  8
COMP
100
AcDbLine
 10
13.07474532538762
 20
9.371784347278092
 30
0.0
 11
13.04174532538762
 21
9.371784347278092
 31
0.0
  0
LINE
  5
851204F235BAA570
330
A2409E46B754B2F
100
AcDbEntity
  8
COMP
100
AcDbLine
 10
13.07474532538762
 20
9.375784347278093
 30
0.0
 11
13.04174532538762
 21
9.375784347278093
 31
0.0
  0
LINE
  5
851204F235BAA571
330
A2409E46B754B2F
100
AcDbEntity
  8
COMP
100
AcDbLine
 10
13.07474532538762
 20
9.379784347278091
 30
0.0
 11
13.04174532538762
 21
9.379784347278091
 31
0.0
  0
LINE
  5
851204F235BAA572
330
A2409E46B754B2F
100
AcDbEntity
  8
COMP
100
AcDbLine
 10
13.07474532538762
 20
9.383784347278092
 30
0.0
 11
13.04174532538762
 21
9.383784347278092
 31
0.0
  0
LINE
  5
851204F235BAA573
330
A2409E46B754B2F
100
AcDbEntity
  8
COMP
100
AcDbLine
 10
13.07474532538762
 20
9.386784347278092
 30
0.0
 11
13.04174532538762
 21
9.386784347278092
 31
0.0
  0
LWPOLYLINE
  5
851204F235BAA574
330
A2409E46B754B2F
100
AcDbEntity
  8
COMP
100
AcDbPolyline
 90
        2
 70
     1
 43
0.005
 10
12.95874532538762
 20
9.548284347278089
 42
1.0
 10
12.95874532538762
 20
9.553284347278088
 42
1.0
  0
LINE
  5
851204F235BAA578
330
A2409E46B754B2F
100
AcDbEntity
  8
COMP
100
AcDbLine
 10
13.19074532538762
 20
9.424784347278093
 30
0.0
 11
13.12674532538762
 21
9.424784347278093
 31
0.0
  0
LINE
  5
851204F235BAA579
330
A2409E46B754B2F
100
AcDbEntity
  8
COMP
100
AcDbLine
 10
13.29074532538762
 20
9.424784347278093
 30
0.0
 11
13.22674532538762
 21
9.424784347278093
 31
0.0
  0
LINE
  5
851204F235BAA57A
330
A2409E46B754B2F
100
AcDbEntity
  8
COMP
100
AcDbLine
 10
13.09074532538762
 20
9.424784347278093
 30
0.0
 11
13.02674532538762
 21
9.424784347278093
 31
0.0
  0
LINE
  5
851204F235BAA57B
330
A2409E46B754B2F
100
AcDbEntity
  8
COMP
100
AcDbLine
 10
13.32674532538762
 20
9.286784347278091
 30
0.0
 11
13.39074532538762
 21
9.286784347278091
 31
0.0
  0
LINE
  5
851204F235BAA57C
330
A2409E46B754B2F
100
AcDbEntity
  8
COMP
100
AcDbLine
 10
13.42674532538761
 20
9.286784347278091
 30
0.0
 11
13.49074532538761
 21
9.286784347278091
 31
0.0
  0
LINE
  5
851204F235BAA57D
330
A2409E46B754B2F
100
AcDbEntity
  8
COMP
100
AcDbLine
 10
13.52674532538761
 20
9.286784347278091
 30
0.0
 11
13.59074532538762
 21
9.286784347278091
 31
0.0
  0
LWPOLYLINE
  5
851204F235BAA57F
330
A2409E46B754B2F
100
AcDbEntity
  8
COMP
100
AcDbPolyline
 90
        2
 70
     1
 43
0.005
 10
12.95874532538762
 20
9.148284347278089
 42
1.0
 10
12.95874532538762
 20
9.15328434727809
 42
1.0
  0
LINE
  5
851204F235BAA583
330
A2409E46B754B2F
100
AcDbEntity
  8
COMP
100
AcDbLine
 10
13.12674532538762
 20
9.286784347278091
 30
0.0
 11
13.19074532538762
 21
9.286784347278091
 31
0.0
  0
LINE
  5
851204F235BAA584
330
A2409E46B754B2F
100
AcDbEntity
  8
COMP
100
AcDbLine
 10
13.22674532538762
 20
9.286784347278091
 30
0.0
 11
13.29074532538762
 21
9.286784347278091
 31
0.0
  0
LINE
  5
851204F235BAA585
330
A2409E46B754B2F
100
AcDbEntity
  8
COMP
100
AcDbLine
 10
13.02674532538762
 20
9.286784347278091
 30
0.0
 11
13.09074532538762
 21
9.286784347278091
 31
0.0
  0
INSERT
  5
A2409E46B754B11
330
A2409E46B754B2F
100
AcDbEntity
  8
LABEL
100
AcDbBlockReference
  2
ACAD3D28
 10
16.75074532538763
 20
3.8082843472781
 30
0.0
  0
LINE
  5
F6DFB5ED78D8D868
330
A2409E46B754B2F
100
AcDbEntity
  8
LABEL
100
AcDbLine
 10
16.12374532538764
 20
9.136284347278099
 30
0.0
 11
16.12374532538764
 21
4.238284347278088
 31
0.0
  0
LINE
  5
F6DFB5ED78D8D869
330
A2409E46B754B2F
100
AcDbEntity
  8
LABEL
100
AcDbLine
 10
15.82374532538764
 20
4.238284347278088
 30
0.0
 11
15.82374532538764
 21
9.136284347278099
 31
0.0
  0
LINE
  5
F6DFB5ED78D8D86A
330
A2409E46B754B2F
100
AcDbEntity
  8
LABEL
100
AcDbLine
 10
16.09874532538763
 20
9.136284347278099
 30
0.0
 11
16.09874532538763
 21
4.238284347278088
 31
0.0
  0
CIRCLE
  5
F6DFB5ED78D8D86C
330
A2409E46B754B2F
100
AcDbEntity
  8
LABEL
100
AcDbCircle
 10
15.97374532538764
 20
4.788284347278092
 30
0.0
 40
0.0610000000000106
  0
CIRCLE
  5
F6DFB5ED78D8D86D
330
A2409E46B754B2F
100
AcDbEntity
  8
LABEL
100
AcDbCircle
 10
15.97374532538764
 20
4.388284347278101
 30
0.0
 40
0.0610000000000106
  0
LINE
  5
F6DFB5ED78D8D86E
330
A2409E46B754B2F
100
AcDbEntity
  8
LABEL
100
AcDbLine
 10
16.12374532538764
 20
4.238284347278088
 30
0.0
 11
15.82374532538764
 21
4.238284347278088
 31
0.0
  0
LINE
  5
F6DFB5ED78D8D877
330
A2409E46B754B2F
100
AcDbEntity
  8
LABEL
100
AcDbLine
 10
15.82374532538764
 20
4.238284347278088
 30
0.0
 11
15.82374532538764
 21
4.238284347278088
 31
0.0
  0
LINE
  5
F6DFB5ED78D8D878
330
A2409E46B754B2F
100
AcDbEntity
  8
LABEL
100
AcDbLine
 10
15.91474532538764
 20
4.576284347278103
 30
0.0
 11
16.03374532538764
 21
4.576284347278103
 31
0.0
  0
LINE
  5
F6DFB5ED78D8D879
330
A2409E46B754B2F
100
AcDbEntity
  8
LABEL
100
AcDbLine
 10
15.91474532538764
 20
4.600284347278104
 30
0.0
 11
16.03374532538764
 21
4.600284347278104
 31
0.0
  0
CIRCLE
  5
F6DFB5ED78D8D87A
330
A2409E46B754B2F
100
AcDbEntity
  8
LABEL
100
AcDbCircle
 10
15.97374532538764
 20
4.588284347278089
 30
0.0
 40
0.0610000000000106
  0
LINE
  5
F6DFB5ED78D8D87B
330
A2409E46B754B2F
100
AcDbEntity
  8
LABEL
100
AcDbLine
 10
15.91474532538764
 20
4.376284347278107
 30
0.0
 11
16.03374532538764
 21
4.376284347278107
 31
0.0
  0
LINE
  5
F6DFB5ED78D8D87C
330
A2409E46B754B2F
100
AcDbEntity
  8
LABEL
100
AcDbLine
 10
15.91474532538764
 20
4.400284347278108
 30
0.0
 11
16.03374532538764
 21
4.400284347278108
 31
0.0
  0
CIRCLE
  5
F6DFB5ED78D8D87D
330
A2409E46B754B2F
100
AcDbEntity
  8
LABEL
100
AcDbCircle
 10
15.97374532538764
 20
5.188284347278083
 30
0.0
 40
0.0610000000000106
  0
LINE
  5
F6DFB5ED78D8D87E
330
A2409E46B754B2F
100
AcDbEntity
  8
LABEL
100
AcDbLine
 10
15.91474532538764
 20
4.976284347278101
 30
0.0
 11
16.03374532538764
 21
4.976284347278101
 31
0.0
  0
LINE
  5
F6DFB5ED78D8D87F
330
A2409E46B754B2F
100
AcDbEntity
  8
LABEL
100
AcDbLine
 10
15.91474532538764
 20
5.000284347278102
 30
0.0
 11
16.03374532538764
 21
5.000284347278102
 31
0.0
  0
CIRCLE
  5
F6DFB5ED78D8D880
330
A2409E46B754B2F
100
AcDbEntity
  8
LABEL
100
AcDbCircle
 10
15.97374532538764
 20
4.988284347278095
 30
0.0
 40
0.0610000000000106
  0
LINE
  5
F6DFB5ED78D8D881
330
A2409E46B754B2F
100
AcDbEntity
  8
LABEL
100
AcDbLine
 10
15.91474532538764
 20
4.776284347278099
 30
0.0
 11
16.03374532538764
 21
4.776284347278099
 31
0.0
  0
LINE
  5
F6DFB5ED78D8D882
330
A2409E46B754B2F
100
AcDbEntity
  8
LABEL
100
AcDbLine
 10
15.91474532538764
 20
4.8002843472781
 30
0.0
 11
16.03374532538764
 21
4.8002843472781
 31
0.0
  0
LINE
  5
F6DFB5ED78D8D883
330
A2409E46B754B2F
100
AcDbEntity
  8
LABEL
100
AcDbLine
 10
15.91474532538764
 20
5.3762843472781
 30
0.0
 11
16.03374532538764
 21
5.3762843472781
 31
0.0
  0
LINE
  5
F6DFB5ED78D8D884
330
A2409E46B754B2F
100
AcDbEntity
  8
LABEL
100
AcDbLine
 10
15.91474532538764
 20
5.400284347278101
 30
0.0
 11
16.03374532538764
 21
5.400284347278101
 31
0.0
  0
CIRCLE
  5
F6DFB5ED78D8D885
330
A2409E46B754B2F
100
AcDbEntity
  8
LABEL
100
AcDbCircle
 10
15.97374532538764
 20
5.388284347278086
 30
0.0
 40
0.0610000000000106
  0
LINE
  5
F6DFB5ED78D8D886
330
A2409E46B754B2F
100
AcDbEntity
  8
LABEL
100
AcDbLine
 10
15.91474532538764
 20
5.176284347278097
 30
0.0
 11
16.03374532538764
 21
5.176284347278097
 31
0.0
  0
LINE
  5
F6DFB5ED78D8D887
330
A2409E46B754B2F
100
AcDbEntity
  8
LABEL
100
AcDbLine
 10
15.91474532538764
 20
5.200284347278098
 30
0.0
 11
16.03374532538764
 21
5.200284347278098
 31
0.0
  0
CIRCLE
  5
F6DFB5ED78D8D889
330
A2409E46B754B2F
100
AcDbEntity
  8
LABEL
100
AcDbCircle
 10
15.97374532538764
 20
6.988284347278084
 30
0.0
 40
0.0610000000000106
  0
LINE
  5
F6DFB5ED78D8D88A
330
A2409E46B754B2F
100
AcDbEntity
  8
LABEL
100
AcDbLine
 10
15.91474532538764
 20
5.576284347278103
 30
0.0
 11
16.03374532538764
 21
5.576284347278103
 31
0.0
  0
LINE
  5
F6DFB5ED78D8D88B
330
A2409E46B754B2F
100
AcDbEntity
  8
LABEL
100
AcDbLine
 10
15.91474532538764
 20
5.600284347278104
 30
0.0
 11
16.03374532538764
 21
5.600284347278104
 31
0.0
  0
CIRCLE
  5
F6DFB5ED78D8D88C
330
A2409E46B754B2F
100
AcDbEntity
  8
LABEL
100
AcDbCircle
 10
15.97374532538764
 20
5.588284347278089
 30
0.0
 40
0.0610000000000106
  0
LINE
  5
F6DFB5ED78D8D88D
330
A2409E46B754B2F
100
AcDbEntity
  8
LABEL
100
AcDbLine
 10
15.91474532538764
 20
5.776284347278099
 30
0.0
 11
16.03374532538764
 21
5.776284347278099
 31
0.0
  0
LINE
  5
F6DFB5ED78D8D88E
330
A2409E46B754B2F
100
AcDbEntity
  8
LABEL
100
AcDbLine
 10
15.91474532538764
 20
5.8002843472781
 30
0.0
 11
16.03374532538764
 21
5.8002843472781
 31
0.0
  0
CIRCLE
  5
F6DFB5ED78D8D88F
330
A2409E46B754B2F
100
AcDbEntity
  8
LABEL
100
AcDbCircle
 10
15.97374532538764
 20
5.788284347278092
 30
0.0
 40
0.0610000000000106
  0
LINE
  5
F6DFB5ED78D8D890
330
A2409E46B754B2F
100
AcDbEntity
  8
LABEL
100
AcDbLine
 10
15.91474532538764
 20
5.976284347278101
 30
0.0
 11
16.03374532538764
 21
5.976284347278101
 31
0.0
  0
LINE
  5
F6DFB5ED78D8D891
330
A2409E46B754B2F
100
AcDbEntity
  8
LABEL
100
AcDbLine
 10
15.91474532538764
 20
6.000284347278102
 30
0.0
 11
16.03374532538764
 21
6.000284347278102
 31
0.0
  0
CIRCLE
  5
F6DFB5ED78D8D892
330
A2409E46B754B2F
100
AcDbEntity
  8
LABEL
100
AcDbCircle
 10
15.97374532538764
 20
5.988284347278095
 30
0.0
 40
0.0610000000000106
  0
LINE
  5
F6DFB5ED78D8D893
330
A2409E46B754B2F
100
AcDbEntity
  8
LABEL
100
AcDbLine
 10
15.91474532538764
 20
6.176284347278097
 30
0.0
 11
16.03374532538764
 21
6.176284347278097
 31
0.0
  0
LINE
  5
F6DFB5ED78D8D894
330
A2409E46B754B2F
100
AcDbEntity
  8
LABEL
100
AcDbLine
 10
15.91474532538764
 20
6.200284347278098
 30
0.0
 11
16.03374532538764
 21
6.200284347278098
 31
0.0
  0
CIRCLE
  5
F6DFB5ED78D8D895
330
A2409E46B754B2F
100
AcDbEntity
  8
LABEL
100
AcDbCircle
 10
15.97374532538764
 20
6.188284347278083
 30
0.0
 40
0.0610000000000106
  0
CIRCLE
  5
F6DFB5ED78D8D896
330
A2409E46B754B2F
100
AcDbEntity
  8
LABEL
100
AcDbCircle
 10
15.97374532538764
 20
6.588284347278086
 30
0.0
 40
0.0610000000000106
  0
LINE
  5
F6DFB5ED78D8D897
330
A2409E46B754B2F
100
AcDbEntity
  8
LABEL
100
AcDbLine
 10
15.91474532538764
 20
6.3762843472781
 30
0.0
 11
16.03374532538764
 21
6.3762843472781
 31
0.0
  0
LINE
  5
F6DFB5ED78D8D898
330
A2409E46B754B2F
100
AcDbEntity
  8
LABEL
100
AcDbLine
 10
15.91474532538764
 20
6.400284347278101
 30
0.0
 11
16.03374532538764
 21
6.400284347278101
 31
0.0
  0
CIRCLE
  5
F6DFB5ED78D8D899
330
A2409E46B754B2F
100
AcDbEntity
  8
LABEL
100
AcDbCircle
 10
15.97374532538764
 20
6.388284347278086
 30
0.0
 40
0.0610000000000106
  0
LINE
  5
F6DFB5ED78D8D89A
330
A2409E46B754B2F
100
AcDbEntity
  8
LABEL
100
AcDbLine
 10
15.91474532538764
 20
6.576284347278096
 30
0.0
 11
16.03374532538764
 21
6.576284347278096
 31
0.0
  0
LINE
  5
F6DFB5ED78D8D89B
330
A2409E46B754B2F
100
AcDbEntity
  8
LABEL
100
AcDbLine
 10
15.91474532538764
 20
6.600284347278097
 30
0.0
 11
16.03374532538764
 21
6.600284347278097
 31
0.0
  0
LINE
  5
F6DFB5ED78D8D89C
330
A2409E46B754B2F
100
AcDbEntity
  8
LABEL
100
AcDbLine
 10
15.91474532538764
 20
6.776284347278099
 30
0.0
 11
16.03374532538764
 21
6.776284347278099
 31
0.0
  0
LINE
  5
F6DFB5ED78D8D89D
330
A2409E46B754B2F
100
AcDbEntity
  8
LABEL
100
AcDbLine
 10
15.91474532538764
 20
6.8002843472781
 30
0.0
 11
16.03374532538764
 21
6.8002843472781
 31
0.0
  0
CIRCLE
  5
F6DFB5ED78D8D89E
330
A2409E46B754B2F
100
AcDbEntity
  8
LABEL
100
AcDbCircle
 10
15.97374532538764
 20
6.788284347278088
 30
0.0
 40
0.0610000000000106
  0
LINE
  5
F6DFB5ED78D8D89F
330
A2409E46B754B2F
100
AcDbEntity
  8
LABEL
100
AcDbLine
 10
15.91474532538764
 20
6.976284347278094
 30
0.0
 11
16.03374532538764
 21
6.976284347278094
 31
0.0
  0
LINE
  5
F6DFB5ED78D8D8A0
330
A2409E46B754B2F
100
AcDbEntity
  8
LABEL
100
AcDbLine
 10
15.91474532538764
 20
7.000284347278095
 30
0.0
 11
16.03374532538764
 21
7.000284347278095
 31
0.0
  0
CIRCLE
  5
F6DFB5ED78D8D8A1
330
A2409E46B754B2F
100
AcDbEntity
  8
LABEL
100
AcDbCircle
 10
15.97374532538764
 20
7.788284347278088
 30
0.0
 40
0.0610000000000106
  0
CIRCLE
  5
F6DFB5ED78D8D8A2
330
A2409E46B754B2F
100
AcDbEntity
  8
LABEL
100
AcDbCircle
 10
15.97374532538764
 20
7.38828434727809
 30
0.0
 40
0.0610000000000106
  0
LINE
  5
F6DFB5ED78D8D8A3
330
A2409E46B754B2F
100
AcDbEntity
  8
LABEL
100
AcDbLine
 10
15.91474532538764
 20
7.176284347278097
 30
0.0
 11
16.03374532538764
 21
7.176284347278097
 31
0.0
  0
LINE
  5
F6DFB5ED78D8D8A4
330
A2409E46B754B2F
100
AcDbEntity
  8
LABEL
100
AcDbLine
 10
15.91474532538764
 20
7.200284347278098
 30
0.0
 11
16.03374532538764
 21
7.200284347278098
 31
0.0
  0
CIRCLE
  5
F6DFB5ED78D8D8A5
330
A2409E46B754B2F
100
AcDbEntity
  8
LABEL
100
AcDbCircle
 10
15.97374532538764
 20
7.188284347278087
 30
0.0
 40
0.0610000000000106
  0
LINE
  5
F6DFB5ED78D8D8A6
330
A2409E46B754B2F
100
AcDbEntity
  8
LABEL
100
AcDbLine
 10
15.91474532538764
 20
7.3762843472781
 30
0.0
 11
16.03374532538764
 21
7.3762843472781
 31
0.0
  0
LINE
  5
F6DFB5ED78D8D8A7
330
A2409E46B754B2F
100
AcDbEntity
  8
LABEL
100
AcDbLine
 10
15.91474532538764
 20
7.576284347278096
 30
0.0
 11
16.03374532538764
 21
7.576284347278096
 31
0.0
  0
LINE
  5
F6DFB5ED78D8D8A8
330
A2409E46B754B2F
100
AcDbEntity
  8
LABEL
100
AcDbLine
 10
15.91474532538764
 20
7.600284347278097
 30
0.0
 11
16.03374532538764
 21
7.600284347278097
 31
0.0
  0
CIRCLE
  5
F6DFB5ED78D8D8A9
330
A2409E46B754B2F
100
AcDbEntity
  8
LABEL
100
AcDbCircle
 10
15.97374532538764
 20
7.588284347278086
 30
0.0
 40
0.0610000000000106
  0
LINE
  5
F6DFB5ED78D8D8AA
330
A2409E46B754B2F
100
AcDbEntity
  8
LABEL
100
AcDbLine
 10
15.91474532538764
 20
7.400284347278101
 30
0.0
 11
16.03374532538764
 21
7.400284347278101
 31
0.0
  0
CIRCLE
  5
F6DFB5ED78D8D8AB
330
A2409E46B754B2F
100
AcDbEntity
  8
LABEL
100
AcDbCircle
 10
15.97374532538764
 20
8.188284347278088
 30
0.0
 40
0.0610000000000106
  0
LINE
  5
F6DFB5ED78D8D8AC
330
A2409E46B754B2F
100
AcDbEntity
  8
LABEL
100
AcDbLine
 10
15.91474532538764
 20
7.976284347278094
 30
0.0
 11
16.03374532538764
 21
7.976284347278094
 31
0.0
  0
LINE
  5
F6DFB5ED78D8D8AD
330
A2409E46B754B2F
100
AcDbEntity
  8
LABEL
100
AcDbLine
 10
15.91474532538764
 20
8.000284347278096
 30
0.0
 11
16.03374532538764
 21
8.000284347278096
 31
0.0
  0
CIRCLE
  5
F6DFB5ED78D8D8AE
330
A2409E46B754B2F
100
AcDbEntity
  8
LABEL
100
AcDbCircle
 10
15.97374532538764
 20
7.988284347278084
 30
0.0
 40
0.0610000000000106
  0
LINE
  5
F6DFB5ED78D8D8AF
330
A2409E46B754B2F
100
AcDbEntity
  8
LABEL
100
AcDbLine
 10
15.91474532538764
 20
7.776284347278099
 30
0.0
 11
16.03374532538764
 21
7.776284347278099
 31
0.0
  0
LINE
  5
F6DFB5ED78D8D8B0
330
A2409E46B754B2F
100
AcDbEntity
  8
LABEL
100
AcDbLine
 10
15.91474532538764
 20
7.8002843472781
 30
0.0
 11
16.03374532538764
 21
7.8002843472781
 31
0.0
  0
LINE
  5
F6DFB5ED78D8D8B1
330
A2409E46B754B2F
100
AcDbEntity
  8
LABEL
100
AcDbLine
 10
15.91474532538764
 20
8.176284347278098
 30
0.0
 11
16.03374532538764
 21
8.176284347278098
 31
0.0
  0
LINE
  5
F6DFB5ED78D8D8B2
330
A2409E46B754B2F
100
AcDbEntity
  8
LABEL
100
AcDbLine
 10
15.91474532538764
 20
8.200284347278099
 30
0.0
 11
16.03374532538764
 21
8.200284347278099
 31
0.0
  0
LINE
  5
F6DFB5ED78D8D8B3
330
A2409E46B754B2F
100
AcDbEntity
  8
LABEL
100
AcDbLine
 10
15.82374532538764
 20
9.136284347278099
 30
0.0
 11
16.12374532538764
 21
9.136284347278099
 31
0.0
  0
LINE
  5
F6DFB5ED78D8D8BD
330
A2409E46B754B2F
100
AcDbEntity
  8
LABEL
100
AcDbLine
 10
15.91474532538764
 20
8.600284347278098
 30
0.0
 11
16.03374532538764
 21
8.600284347278098
 31
0.0
  0
LINE
  5
F6DFB5ED78D8D8BE
330
A2409E46B754B2F
100
AcDbEntity
  8
LABEL
100
AcDbLine
 10
15.91474532538764
 20
8.576284347278097
 30
0.0
 11
16.03374532538764
 21
8.576284347278097
 31
0.0
  0
CIRCLE
  5
F6DFB5ED78D8D8BF
330
A2409E46B754B2F
100
AcDbEntity
  8
LABEL
100
AcDbCircle
 10
15.97374532538764
 20
8.388284347278084
 30
0.0
 40
0.0610000000000106
  0
LINE
  5
F6DFB5ED78D8D8C0
330
A2409E46B754B2F
100
AcDbEntity
  8
LABEL
100
AcDbLine
 10
15.91474532538764
 20
8.400284347278095
 30
0.0
 11
16.03374532538764
 21
8.400284347278095
 31
0.0
  0
LINE
  5
F6DFB5ED78D8D8C1
330
A2409E46B754B2F
100
AcDbEntity
  8
LABEL
100
AcDbLine
 10
15.91474532538764
 20
8.376284347278094
 30
0.0
 11
16.03374532538764
 21
8.376284347278094
 31
0.0
  0
CIRCLE
  5
F6DFB5ED78D8D8C2
330
A2409E46B754B2F
100
AcDbEntity
  8
LABEL
100
AcDbCircle
 10
15.97374532538764
 20
8.588284347278086
 30
0.0
 40
0.0610000000000106
  0
LINE
  5
F6DFB5ED78D8D8C3
330
A2409E46B754B2F
100
AcDbEntity
  8
LABEL
100
AcDbLine
 10
15.91474532538764
 20
9.000284347278096
 30
0.0
 11
16.03374532538764
 21
9.000284347278096
 31
0.0
  0
LINE
  5
F6DFB5ED78D8D8C4
330
A2409E46B754B2F
100
AcDbEntity
  8
LABEL
100
AcDbLine
 10
15.91474532538764
 20
8.976284347278095
 30
0.0
 11
16.03374532538764
 21
8.976284347278095
 31
0.0
  0
CIRCLE
  5
F6DFB5ED78D8D8C5
330
A2409E46B754B2F
100
AcDbEntity
  8
LABEL
100
AcDbCircle
 10
15.97374532538764
 20
8.788284347278082
 30
0.0
 40
0.0610000000000106
  0
LINE
  5
F6DFB5ED78D8D8C6
330
A2409E46B754B2F
100
AcDbEntity
  8
LABEL
100
AcDbLine
 10
15.91474532538764
 20
8.800284347278093
 30
0.0
 11
16.03374532538764
 21
8.800284347278093
 31
0.0
  0
LINE
  5
F6DFB5ED78D8D8C7
330
A2409E46B754B2F
100
AcDbEntity
  8
LABEL
100
AcDbLine
 10
15.91474532538764
 20
8.776284347278092
 30
0.0
 11
16.03374532538764
 21
8.776284347278092
 31
0.0
  0
CIRCLE
  5
F6DFB5ED78D8D8C8
330
A2409E46B754B2F
100
AcDbEntity
  8
LABEL
100
AcDbCircle
 10
15.97374532538764
 20
8.988284347278085
 30
0.0
 40
0.0610000000000106
  0
LINE
  5
F6DFB5ED78D8D8C9
330
A2409E46B754B2F
100
AcDbEntity
  8
LABEL
100
AcDbLine
 10
10.40874532538762
 20
4.240284347278077
 30
0.0
 11
10.40874532538762
 21
9.138284347278087
 31
0.0
  0
LINE
  5
F6DFB5ED78D8D8CA
330
A2409E46B754B2F
100
AcDbEntity
  8
LABEL
100
AcDbLine
 10
10.38374532538762
 20
4.240284347278077
 30
0.0
 11
10.38374532538762
 21
9.138284347278087
 31
0.0
  0
LINE
  5
F6DFB5ED78D8D8CB
330
A2409E46B754B2F
100
AcDbEntity
  8
LABEL
100
AcDbLine
 10
10.68374532538762
 20
9.138284347278087
 30
0.0
 11
10.68374532538762
 21
4.240284347278077
 31
0.0
  0
LINE
  5
F6DFB5ED78D8D8CC
330
A2409E46B754B2F
100
AcDbEntity
  8
LABEL
100
AcDbLine
 10
10.59274532538762
 20
8.976284347278067
 30
0.0
 11
10.47374532538761
 21
8.976284347278067
 31
0.0
  0
LINE
  5
F6DFB5ED78D8D8CD
330
A2409E46B754B2F
100
AcDbEntity
  8
LABEL
100
AcDbLine
 10
10.59274532538762
 20
9.000284347278068
 30
0.0
 11
10.47374532538761
 21
9.000284347278068
 31
0.0
  0
LINE
  5
F6DFB5ED78D8D8CE
330
A2409E46B754B2F
100
AcDbEntity
  8
LABEL
100
AcDbLine
 10
10.38374532538762
 20
9.138284347278087
 30
0.0
 11
10.68374532538762
 21
9.138284347278087
 31
0.0
  0
CIRCLE
  5
F6DFB5ED78D8D8CF
330
A2409E46B754B2F
100
AcDbEntity
  8
LABEL
100
AcDbCircle
 10
10.53374532538762
 20
8.988284347278074
 30
0.0
 40
0.0610000000000106
  0
LINE
  5
F6DFB5ED78D8D8D0
330
A2409E46B754B2F
100
AcDbEntity
  8
LABEL
100
AcDbLine
 10
10.68374532538762
 20
9.138284347278087
 30
0.0
 11
10.68374532538762
 21
9.138284347278087
 31
0.0
  0
LINE
  5
F6DFB5ED78D8D8D1
330
A2409E46B754B2F
100
AcDbEntity
  8
LABEL
100
AcDbLine
 10
10.59274532538762
 20
8.576284347278075
 30
0.0
 11
10.47374532538761
 21
8.576284347278075
 31
0.0
  0
LINE
  5
F6DFB5ED78D8D8D2
330
A2409E46B754B2F
100
AcDbEntity
  8
LABEL
100
AcDbLine
 10
10.59274532538762
 20
8.600284347278076
 30
0.0
 11
10.47374532538761
 21
8.600284347278076
 31
0.0
  0
CIRCLE
  5
F6DFB5ED78D8D8D3
330
A2409E46B754B2F
100
AcDbEntity
  8
LABEL
100
AcDbCircle
 10
10.53374532538762
 20
8.788284347278086
 30
0.0
 40
0.0610000000000106
  0
LINE
  5
F6DFB5ED78D8D8D4
330
A2409E46B754B2F
100
AcDbEntity
  8
LABEL
100
AcDbLine
 10
10.59274532538762
 20
8.776284347278071
 30
0.0
 11
10.47374532538761
 21
8.776284347278071
 31
0.0
  0
LINE
  5
F6DFB5ED78D8D8D5
330
A2409E46B754B2F
100
AcDbEntity
  8
LABEL
100
AcDbLine
 10
10.59274532538762
 20
8.800284347278072
 30
0.0
 11
10.47374532538761
 21
8.800284347278072
 31
0.0
  0
CIRCLE
  5
F6DFB5ED78D8D8D6
330
A2409E46B754B2F
100
AcDbEntity
  8
LABEL
100
AcDbCircle
 10
10.53374532538762
 20
8.588284347278083
 30
0.0
 40
0.0610000000000106
  0
CIRCLE
  5
F6DFB5ED78D8D8D7
330
A2409E46B754B2F
100
AcDbEntity
  8
LABEL
100
AcDbCircle
 10
10.53374532538762
 20
6.988284347278089
 30
0.0
 40
0.0610000000000106
  0
CIRCLE
  5
F6DFB5ED78D8D8D8
330
A2409E46B754B2F
100
AcDbEntity
  8
LABEL
100
AcDbCircle
 10
10.53374532538762
 20
7.788284347278086
 30
0.0
 40
0.0610000000000106
  0
CIRCLE
  5
F6DFB5ED78D8D8D9
330
A2409E46B754B2F
100
AcDbEntity
  8
LABEL
100
AcDbCircle
 10
10.53374532538762
 20
8.188284347278091
 30
0.0
 40
0.0610000000000106
  0
LINE
  5
F6DFB5ED78D8D8DA
330
A2409E46B754B2F
100
AcDbEntity
  8
LABEL
100
AcDbLine
 10
10.59274532538762
 20
8.176284347278077
 30
0.0
 11
10.47374532538761
 21
8.176284347278077
 31
0.0
  0
LINE
  5
F6DFB5ED78D8D8DB
330
A2409E46B754B2F
100
AcDbEntity
  8
LABEL
100
AcDbLine
 10
10.59274532538762
 20
8.200284347278078
 30
0.0
 11
10.47374532538761
 21
8.200284347278078
 31
0.0
  0
CIRCLE
  5
F6DFB5ED78D8D8DC
330
A2409E46B754B2F
100
AcDbEntity
  8
LABEL
100
AcDbCircle
 10
10.53374532538762
 20
8.38828434727808
 30
0.0
 40
0.0610000000000106
  0
LINE
  5
F6DFB5ED78D8D8DD
330
A2409E46B754B2F
100
AcDbEntity
  8
LABEL
100
AcDbLine
 10
10.59274532538762
 20
8.376284347278073
 30
0.0
 11
10.47374532538761
 21
8.376284347278073
 31
0.0
  0
LINE
  5
F6DFB5ED78D8D8DE
330
A2409E46B754B2F
100
AcDbEntity
  8
LABEL
100
AcDbLine
 10
10.59274532538762
 20
8.400284347278073
 30
0.0
 11
10.47374532538761
 21
8.400284347278073
 31
0.0
  0
LINE
  5
F6DFB5ED78D8D8DF
330
A2409E46B754B2F
100
AcDbEntity
  8
LABEL
100
AcDbLine
 10
10.59274532538762
 20
7.776284347278071
 30
0.0
 11
10.47374532538761
 21
7.776284347278071
 31
0.0
  0
LINE
  5
F6DFB5ED78D8D8E0
330
A2409E46B754B2F
100
AcDbEntity
  8
LABEL
100
AcDbLine
 10
10.59274532538762
 20
7.800284347278072
 30
0.0
 11
10.47374532538761
 21
7.800284347278072
 31
0.0
  0
CIRCLE
  5
F6DFB5ED78D8D8E1
330
A2409E46B754B2F
100
AcDbEntity
  8
LABEL
100
AcDbCircle
 10
10.53374532538762
 20
7.988284347278089
 30
0.0
 40
0.0610000000000106
  0
LINE
  5
F6DFB5ED78D8D8E2
330
A2409E46B754B2F
100
AcDbEntity
  8
LABEL
100
AcDbLine
 10
10.59274532538762
 20
7.976284347278074
 30
0.0
 11
10.47374532538761
 21
7.976284347278074
 31
0.0
  0
LINE
  5
F6DFB5ED78D8D8E3
330
A2409E46B754B2F
100
AcDbEntity
  8
LABEL
100
AcDbLine
 10
10.59274532538762
 20
8.000284347278075
 30
0.0
 11
10.47374532538761
 21
8.000284347278075
 31
0.0
  0
CIRCLE
  5
F6DFB5ED78D8D8E4
330
A2409E46B754B2F
100
AcDbEntity
  8
LABEL
100
AcDbCircle
 10
10.53374532538762
 20
7.38828434727808
 30
0.0
 40
0.0610000000000106
  0
LINE
  5
F6DFB5ED78D8D8E5
330
A2409E46B754B2F
100
AcDbEntity
  8
LABEL
100
AcDbLine
 10
10.59274532538762
 20
7.400284347278073
 30
0.0
 11
10.47374532538761
 21
7.400284347278073
 31
0.0
  0
CIRCLE
  5
F6DFB5ED78D8D8E6
330
A2409E46B754B2F
100
AcDbEntity
  8
LABEL
100
AcDbCircle
 10
10.53374532538762
 20
7.588284347278083
 30
0.0
 40
0.0610000000000106
  0
LINE
  5
F6DFB5ED78D8D8E7
330
A2409E46B754B2F
100
AcDbEntity
  8
LABEL
100
AcDbLine
 10
10.59274532538762
 20
7.576284347278075
 30
0.0
 11
10.47374532538761
 21
7.576284347278075
 31
0.0
  0
LINE
  5
F6DFB5ED78D8D8E8
330
A2409E46B754B2F
100
AcDbEntity
  8
LABEL
100
AcDbLine
 10
10.59274532538762
 20
7.600284347278076
 30
0.0
 11
10.47374532538761
 21
7.600284347278076
 31
0.0
  0
CIRCLE
  5
F6DFB5ED78D8D8E9
330
A2409E46B754B2F
100
AcDbEntity
  8
LABEL
100
AcDbCircle
 10
10.53374532538762
 20
7.188284347278091
 30
0.0
 40
0.0610000000000106
  0
LINE
  5
F6DFB5ED78D8D8EA
330
A2409E46B754B2F
100
AcDbEntity
  8
LABEL
100
AcDbLine
 10
10.59274532538762
 20
7.176284347278077
 30
0.0
 11
10.47374532538761
 21
7.176284347278077
 31
0.0
  0
LINE
  5
F6DFB5ED78D8D8EB
330
A2409E46B754B2F
100
AcDbEntity
  8
LABEL
100
AcDbLine
 10
10.59274532538762
 20
7.200284347278078
 30
0.0
 11
10.47374532538761
 21
7.200284347278078
 31
0.0
  0
LINE
  5
F6DFB5ED78D8D8EC
330
A2409E46B754B2F
100
AcDbEntity
  8
LABEL
100
AcDbLine
 10
10.59274532538762
 20
7.376284347278073
 30
0.0
 11
10.47374532538761
 21
7.376284347278073
 31
0.0
  0
CIRCLE
  5
F6DFB5ED78D8D8ED
330
A2409E46B754B2F
100
AcDbEntity
  8
LABEL
100
AcDbCircle
 10
10.53374532538762
 20
6.188284347278088
 30
0.0
 40
0.0610000000000106
  0
CIRCLE
  5
F6DFB5ED78D8D8EE
330
A2409E46B754B2F
100
AcDbEntity
  8
LABEL
100
AcDbCircle
 10
10.53374532538762
 20
6.588284347278086
 30
0.0
 40
0.0610000000000106
  0
LINE
  5
F6DFB5ED78D8D8EF
330
A2409E46B754B2F
100
AcDbEntity
  8
LABEL
100
AcDbLine
 10
10.59274532538762
 20
6.776284347278078
 30
0.0
 11
10.47374532538761
 21
6.776284347278078
 31
0.0
  0
LINE
  5
F6DFB5ED78D8D8F0
330
A2409E46B754B2F
100
AcDbEntity
  8
LABEL
100
AcDbLine
 10
10.59274532538762
 20
6.800284347278079
 30
0.0
 11
10.47374532538761
 21
6.800284347278079
 31
0.0
  0
LINE
  5
F6DFB5ED78D8D8F1
330
A2409E46B754B2F
100
AcDbEntity
  8
LABEL
100
AcDbLine
 10
10.59274532538762
 20
6.976284347278074
 30
0.0
 11
10.47374532538761
 21
6.976284347278074
 31
0.0
  0
LINE
  5
F6DFB5ED78D8D8F2
330
A2409E46B754B2F
100
AcDbEntity
  8
LABEL
100
AcDbLine
 10
10.59274532538762
 20
7.000284347278075
 30
0.0
 11
10.47374532538761
 21
7.000284347278075
 31
0.0
  0
CIRCLE
  5
F6DFB5ED78D8D8F3
330
A2409E46B754B2F
100
AcDbEntity
  8
LABEL
100
AcDbCircle
 10
10.53374532538762
 20
6.788284347278089
 30
0.0
 40
0.0610000000000106
  0
LINE
  5
F6DFB5ED78D8D8F4
330
A2409E46B754B2F
100
AcDbEntity
  8
LABEL
100
AcDbLine
 10
10.59274532538762
 20
6.37628434727808
 30
0.0
 11
10.47374532538761
 21
6.37628434727808
 31
0.0
  0
LINE
  5
F6DFB5ED78D8D8F5
330
A2409E46B754B2F
100
AcDbEntity
  8
LABEL
100
AcDbLine
 10
10.59274532538762
 20
6.400284347278081
 30
0.0
 11
10.47374532538761
 21
6.400284347278081
 31
0.0
  0
LINE
  5
F6DFB5ED78D8D8F6
330
A2409E46B754B2F
100
AcDbEntity
  8
LABEL
100
AcDbLine
 10
10.59274532538762
 20
6.576284347278075
 30
0.0
 11
10.47374532538761
 21
6.576284347278075
 31
0.0
  0
LINE
  5
F6DFB5ED78D8D8F7
330
A2409E46B754B2F
100
AcDbEntity
  8
LABEL
100
AcDbLine
 10
10.59274532538762
 20
6.600284347278076
 30
0.0
 11
10.47374532538761
 21
6.600284347278076
 31
0.0
  0
CIRCLE
  5
F6DFB5ED78D8D8F8
330
A2409E46B754B2F
100
AcDbEntity
  8
LABEL
100
AcDbCircle
 10
10.53374532538762
 20
6.388284347278091
 30
0.0
 40
0.0610000000000106
  0
LINE
  5
F6DFB5ED78D8D8F9
330
A2409E46B754B2F
100
AcDbEntity
  8
LABEL
100
AcDbLine
 10
10.59274532538762
 20
5.976284347278074
 30
0.0
 11
10.47374532538761
 21
5.976284347278074
 31
0.0
  0
LINE
  5
F6DFB5ED78D8D8FA
330
A2409E46B754B2F
100
AcDbEntity
  8
LABEL
100
AcDbLine
 10
10.59274532538762
 20
6.000284347278075
 30
0.0
 11
10.47374532538761
 21
6.000284347278075
 31
0.0
  0
LINE
  5
F6DFB5ED78D8D8FB
330
A2409E46B754B2F
100
AcDbEntity
  8
LABEL
100
AcDbLine
 10
10.59274532538762
 20
6.176284347278077
 30
0.0
 11
10.47374532538761
 21
6.176284347278077
 31
0.0
  0
LINE
  5
F6DFB5ED78D8D8FC
330
A2409E46B754B2F
100
AcDbEntity
  8
LABEL
100
AcDbLine
 10
10.59274532538762
 20
6.200284347278078
 30
0.0
 11
10.47374532538761
 21
6.200284347278078
 31
0.0
  0
CIRCLE
  5
F6DFB5ED78D8D8FD
330
A2409E46B754B2F
100
AcDbEntity
  8
LABEL
100
AcDbCircle
 10
10.53374532538762
 20
5.988284347278085
 30
0.0
 40
0.0610000000000106
  0
LINE
  5
F6DFB5ED78D8D8FE
330
A2409E46B754B2F
100
AcDbEntity
  8
LABEL
100
AcDbLine
 10
10.59274532538762
 20
5.576284347278075
 30
0.0
 11
10.47374532538761
 21
5.576284347278075
 31
0.0
  0
LINE
  5
F6DFB5ED78D8D8FF
330
A2409E46B754B2F
100
AcDbEntity
  8
LABEL
100
AcDbLine
 10
10.59274532538762
 20
5.600284347278076
 30
0.0
 11
10.47374532538761
 21
5.600284347278076
 31
0.0
  0
CIRCLE
  5
F6DFB5ED78D8D900
330
A2409E46B754B2F
100
AcDbEntity
  8
LABEL
100
AcDbCircle
 10
10.53374532538762
 20
5.788284347278089
 30
0.0
 40
0.0610000000000106
  0
LINE
  5
F6DFB5ED78D8D901
330
A2409E46B754B2F
100
AcDbEntity
  8
LABEL
100
AcDbLine
 10
10.59274532538762
 20
5.776284347278078
 30
0.0
 11
10.47374532538761
 21
5.776284347278078
 31
0.0
  0
LINE
  5
F6DFB5ED78D8D902
330
A2409E46B754B2F
100
AcDbEntity
  8
LABEL
100
AcDbLine
 10
10.59274532538762
 20
5.800284347278079
 30
0.0
 11
10.47374532538761
 21
5.800284347278079
 31
0.0
  0
CIRCLE
  5
F6DFB5ED78D8D903
330
A2409E46B754B2F
100
AcDbEntity
  8
LABEL
100
AcDbCircle
 10
10.53374532538762
 20
5.588284347278086
 30
0.0
 40
0.0610000000000106
  0
CIRCLE
  5
F6DFB5ED78D8D904
330
A2409E46B754B2F
100
AcDbEntity
  8
LABEL
100
AcDbCircle
 10
10.53374532538762
 20
4.788284347278088
 30
0.0
 40
0.0610000000000106
  0
LINE
  5
F6DFB5ED78D8D905
330
A2409E46B754B2F
100
AcDbEntity
  8
LABEL
100
AcDbLine
 10
10.59274532538762
 20
5.176284347278077
 30
0.0
 11
10.47374532538761
 21
5.176284347278077
 31
0.0
  0
LINE
  5
F6DFB5ED78D8D906
330
A2409E46B754B2F
100
AcDbEntity
  8
LABEL
100
AcDbLine
 10
10.59274532538762
 20
5.200284347278078
 30
0.0
 11
10.47374532538761
 21
5.200284347278078
 31
0.0
  0
CIRCLE
  5
F6DFB5ED78D8D907
330
A2409E46B754B2F
100
AcDbEntity
  8
LABEL
100
AcDbCircle
 10
10.53374532538762
 20
5.388284347278091
 30
0.0
 40
0.0610000000000106
  0
LINE
  5
F6DFB5ED78D8D908
330
A2409E46B754B2F
100
AcDbEntity
  8
LABEL
100
AcDbLine
 10
10.59274532538762
 20
5.37628434727808
 30
0.0
 11
10.47374532538761
 21
5.37628434727808
 31
0.0
  0
LINE
  5
F6DFB5ED78D8D909
330
A2409E46B754B2F
100
AcDbEntity
  8
LABEL
100
AcDbLine
 10
10.59274532538762
 20
5.400284347278081
 30
0.0
 11
10.47374532538761
 21
5.400284347278081
 31
0.0
  0
CIRCLE
  5
F6DFB5ED78D8D90A
330
A2409E46B754B2F
100
AcDbEntity
  8
LABEL
100
AcDbCircle
 10
10.53374532538762
 20
5.188284347278087
 30
0.0
 40
0.0610000000000106
  0
LINE
  5
F6DFB5ED78D8D90B
330
A2409E46B754B2F
100
AcDbEntity
  8
LABEL
100
AcDbLine
 10
10.59274532538762
 20
5.000284347278082
 30
0.0
 11
10.47374532538761
 21
5.000284347278082
 31
0.0
  0
LINE
  5
F6DFB5ED78D8D90C
330
A2409E46B754B2F
100
AcDbEntity
  8
LABEL
100
AcDbLine
 10
10.59274532538762
 20
4.976284347278081
 30
0.0
 11
10.47374532538761
 21
4.976284347278081
 31
0.0
  0
CIRCLE
  5
F6DFB5ED78D8D90D
330
A2409E46B754B2F
100
AcDbEntity
  8
LABEL
100
AcDbCircle
 10
10.53374532538762
 20
4.988284347278091
 30
0.0
 40
0.0610000000000106
  0
LINE
  5
F6DFB5ED78D8D90E
330
A2409E46B754B2F
100
AcDbEntity
  8
LABEL
100
AcDbLine
 10
10.59274532538762
 20
4.800284347278079
 30
0.0
 11
10.47374532538761
 21
4.800284347278079
 31
0.0
  0
LINE
  5
F6DFB5ED78D8D90F
330
A2409E46B754B2F
100
AcDbEntity
  8
LABEL
100
AcDbLine
 10
10.59274532538762
 20
4.776284347278078
 30
0.0
 11
10.47374532538761
 21
4.776284347278078
 31
0.0
  0
CIRCLE
  5
F6DFB5ED78D8D910
330
A2409E46B754B2F
100
AcDbEntity
  8
LABEL
100
AcDbCircle
 10
10.53374532538762
 20
4.38828434727809
 30
0.0
 40
0.0610000000000106
  0
LINE
  5
F6DFB5ED78D8D911
330
A2409E46B754B2F
100
AcDbEntity
  8
LABEL
100
AcDbLine
 10
10.59274532538762
 20
4.600284347278083
 30
0.0
 11
10.47374532538761
 21
4.600284347278083
 31
0.0
  0
LINE
  5
F6DFB5ED78D8D912
330
A2409E46B754B2F
100
AcDbEntity
  8
LABEL
100
AcDbLine
 10
10.59274532538762
 20
4.576284347278082
 30
0.0
 11
10.47374532538761
 21
4.576284347278082
 31
0.0
  0
CIRCLE
  5
F6DFB5ED78D8D913
330
A2409E46B754B2F
100
AcDbEntity
  8
LABEL
100
AcDbCircle
 10
10.53374532538762
 20
4.588284347278093
 30
0.0
 40
0.0610000000000106
  0
LINE
  5
F6DFB5ED78D8D914
330
A2409E46B754B2F
100
AcDbEntity
  8
LABEL
100
AcDbLine
 10
10.59274532538762
 20
4.400284347278081
 30
0.0
 11
10.47374532538761
 21
4.400284347278081
 31
0.0
  0
LINE
  5
F6DFB5ED78D8D915
330
A2409E46B754B2F
100
AcDbEntity
  8
LABEL
100
AcDbLine
 10
10.59274532538762
 20
4.37628434727808
 30
0.0
 11
10.47374532538761
 21
4.37628434727808
 31
0.0
  0
LINE
  5
F6DFB5ED78D8D916
330
A2409E46B754B2F
100
AcDbEntity
  8
LABEL
100
AcDbLine
 10
10.68374532538762
 20
4.240284347278077
 30
0.0
 11
10.38374532538762
 21
4.240284347278077
 31
0.0
  0
LINE
  5
F6DFB5ED78D8D975
330
A2409E46B754B2F
100
AcDbEntity
  8
LABEL
100
AcDbLine
 10
12.90674532538763
 20
3.81828434727809
 30
0.0
 11
12.40874532538762
 21
3.81828434727809
 31
0.0
  0
LINE
  5
F6DFB5ED78D8D976
330
A2409E46B754B2F
100
AcDbEntity
  8
LABEL
100
AcDbLine
 10
12.40874532538762
 20
4.118284347278091
 30
0.0
 11
12.90674532538763
 21
4.118284347278091
 31
0.0
  0
LINE
  5
F6DFB5ED78D8D977
330
A2409E46B754B2F
100
AcDbEntity
  8
LABEL
100
AcDbLine
 10
12.90674532538763
 20
3.843284347278093
 30
0.0
 11
12.40874532538762
 21
3.843284347278093
 31
0.0
  0
CIRCLE
  5
F6DFB5ED78D8D97A
330
A2409E46B754B2F
100
AcDbEntity
  8
LABEL
100
AcDbCircle
 10
12.55874532538764
 20
3.968284347278093
 30
0.0
 40
0.0610000000000106
  0
LINE
  5
F6DFB5ED78D8D97B
330
A2409E46B754B2F
100
AcDbEntity
  8
LABEL
100
AcDbLine
 10
12.40874532538762
 20
3.81828434727809
 30
0.0
 11
12.40874532538762
 21
4.118284347278091
 31
0.0
  0
LINE
  5
F6DFB5ED78D8D984
330
A2409E46B754B2F
100
AcDbEntity
  8
LABEL
100
AcDbLine
 10
12.40874532538762
 20
4.118284347278091
 30
0.0
 11
12.40874532538762
 21
4.118284347278091
 31
0.0
  0
LINE
  5
F6DFB5ED78D8D985
330
A2409E46B754B2F
100
AcDbEntity
  8
LABEL
100
AcDbLine
 10
12.74674532538764
 20
4.027284347278088
 30
0.0
 11
12.74674532538764
 21
3.908284347278089
 31
0.0
  0
LINE
  5
F6DFB5ED78D8D986
330
A2409E46B754B2F
100
AcDbEntity
  8
LABEL
100
AcDbLine
 10
12.77074532538764
 20
4.027284347278088
 30
0.0
 11
12.77074532538764
 21
3.908284347278089
 31
0.0
  0
CIRCLE
  5
F6DFB5ED78D8D987
330
A2409E46B754B2F
100
AcDbEntity
  8
LABEL
100
AcDbCircle
 10
12.75874532538763
 20
3.968284347278093
 30
0.0
 40
0.0610000000000106
  0
LINE
  5
F6DFB5ED78D8D988
330
A2409E46B754B2F
100
AcDbEntity
  8
LABEL
100
AcDbLine
 10
12.54674532538764
 20
4.027284347278088
 30
0.0
 11
12.54674532538764
 21
3.908284347278089
 31
0.0
  0
LINE
  5
F6DFB5ED78D8D989
330
A2409E46B754B2F
100
AcDbEntity
  8
LABEL
100
AcDbLine
 10
12.57074532538764
 20
4.027284347278088
 30
0.0
 11
12.57074532538764
 21
3.908284347278089
 31
0.0
  0
LINE
  5
F6DFB5ED78D8D9C0
330
A2409E46B754B2F
100
AcDbEntity
  8
LABEL
100
AcDbLine
 10
12.90674532538763
 20
4.118284347278091
 30
0.0
 11
12.90674532538763
 21
3.81828434727809
 31
0.0
  0
LINE
  5
F6DFB5ED78D8D9CA
330
A2409E46B754B2F
100
AcDbEntity
  8
LABEL
100
AcDbLine
 10
14.66674532538763
 20
4.123284347278089
 30
0.0
 11
14.66674532538763
 21
3.823284347278089
 31
0.0
  0
LINE
  5
F6DFB5ED78D8D9CB
330
A2409E46B754B2F
100
AcDbEntity
  8
LABEL
100
AcDbLine
 10
14.33074532538764
 20
4.032284347278087
 30
0.0
 11
14.33074532538764
 21
3.913284347278087
 31
0.0
  0
LINE
  5
F6DFB5ED78D8D9CC
330
A2409E46B754B2F
100
AcDbEntity
  8
LABEL
100
AcDbLine
 10
14.30674532538764
 20
4.032284347278087
 30
0.0
 11
14.30674532538764
 21
3.913284347278087
 31
0.0
  0
CIRCLE
  5
F6DFB5ED78D8D9CD
330
A2409E46B754B2F
100
AcDbEntity
  8
LABEL
100
AcDbCircle
 10
14.51874532538762
 20
3.973284347278091
 30
0.0
 40
0.0610000000000106
  0
LINE
  5
F6DFB5ED78D8D9CE
330
A2409E46B754B2F
100
AcDbEntity
  8
LABEL
100
AcDbLine
 10
14.53074532538764
 20
4.032284347278087
 30
0.0
 11
14.53074532538764
 21
3.913284347278087
 31
0.0
  0
LINE
  5
F6DFB5ED78D8D9CF
330
A2409E46B754B2F
100
AcDbEntity
  8
LABEL
100
AcDbLine
 10
14.50674532538764
 20
4.032284347278087
 30
0.0
 11
14.50674532538764
 21
3.913284347278087
 31
0.0
  0
LINE
  5
F6DFB5ED78D8D9D0
330
A2409E46B754B2F
100
AcDbEntity
  8
LABEL
100
AcDbLine
 10
14.16874532538762
 20
3.823284347278089
 30
0.0
 11
14.16874532538762
 21
4.123284347278089
 31
0.0
  0
CIRCLE
  5
F6DFB5ED78D8D9D1
330
A2409E46B754B2F
100
AcDbEntity
  8
LABEL
100
AcDbCircle
 10
14.31874532538763
 20
3.973284347278091
 30
0.0
 40
0.0610000000000106
  0
LINE
  5
F6DFB5ED78D8D9D2
330
A2409E46B754B2F
100
AcDbEntity
  8
LABEL
100
AcDbLine
 10
14.66674532538763
 20
3.848284347278091
 30
0.0
 11
14.16874532538762
 21
3.848284347278091
 31
0.0
  0
LINE
  5
F6DFB5ED78D8D9D3
330
A2409E46B754B2F
100
AcDbEntity
  8
LABEL
100
AcDbLine
 10
14.66674532538763
 20
3.823284347278089
 30
0.0
 11
14.16874532538762
 21
3.823284347278089
 31
0.0
  0
LINE
  5
F6DFB5ED78D8D9D4
330
A2409E46B754B2F
100
AcDbEntity
  8
LABEL
100
AcDbLine
 10
14.16874532538762
 20
4.123284347278089
 30
0.0
 11
14.66674532538763
 21
4.123284347278089
 31
0.0
  0
LINE
  5
F6DFB5ED78D8D9D5
330
A2409E46B754B2F
100
AcDbEntity
  8
LABEL
100
AcDbLine
 10
14.16874532538762
 20
4.123284347278089
 30
0.0
 11
14.16874532538762
 21
4.123284347278089
 31
0.0
  0
ENDSEC
  0
SECTION
  2
OBJECTS
  0
DICTIONARY
  5
A2409E46B754B1D
330
0
100
AcDbDictionary
281
     1
  3
ACAD_GROUP
350
A2409E46B754B1E
  3
ACAD_LAYOUT
350
A2409E46B754B2A
  3
ACAD_MLINESTYLE
350
A2409E46B754B27
  3
ACAD_PLOTSETTINGS
350
A2409E46B754B29
  3
ACAD_PLOTSTYLENAME
350
A2409E46B754B1F
  3
DWGPROPS
350
F6DFB5ED78D8D80B
  0
DICTIONARY
  5
A2409E46B754B1E
102
{ACAD_REACTORS
330
A2409E46B754B1D
102
}
330
A2409E46B754B1D
100
AcDbDictionary
281
     1
  0
DICTIONARY
  5
A2409E46B754B2A
102
{ACAD_REACTORS
330
A2409E46B754B1D
102
}
330
A2409E46B754B1D
100
AcDbDictionary
281
     1
  3
Layout1
350
A2409E46B754B2E
  3
Model
350
A2409E46B754B32
  0
DICTIONARY
  5
A2409E46B754B27
102
{ACAD_REACTORS
330
A2409E46B754B1D
102
}
330
A2409E46B754B1D
100
AcDbDictionary
281
     1
  3
Standard
350
A2409E46B754B28
  0
DICTIONARY
  5
A2409E46B754B29
102
{ACAD_REACTORS
330
A2409E46B754B1D
102
}
330
A2409E46B754B1D
100
AcDbDictionary
281
     1
  0
ACDBDICTIONARYWDFLT
  5
A2409E46B754B1F
102
{ACAD_REACTORS
330
A2409E46B754B1D
102
}
330
A2409E46B754B1D
100
AcDbDictionary
281
     1
  3
Normal
350
A2409E46B754B20
100
AcDbDictionaryWithDefault
340
A2409E46B754B20
  0
XRECORD
  5
F6DFB5ED78D8D80B
102
{ACAD_REACTORS
330
A2409E46B754B1D
102
}
330
A2409E46B754B1D
100
AcDbXrecord
280
     1
  1
DWGPROPS COOKIE
  2

  3

  4

  6

  7

  8
tphillipsmain
  9

300
=
301
=
302
=
303
=
304
=
305
=
306
=
307
=
308
=
309
=
 40
1.022437384259259
 41
2453208.899792708
 42
2453578.620589884
  1

 90
        0
  0
LAYOUT
  5
A2409E46B754B2E
102
{ACAD_REACTORS
330
A2409E46B754B2A
102
}
330
A2409E46B754B2A
100
AcDbPlotSettings
  1

  2
\\ENGPRINTSERV\QMS 2425 Eng Printer
  4

  6

 40
0.0
 41
0.0
 42
0.0
 43
0.0
 44
0.0
 45
0.0
 46
0.0
 47
0.0
 48
0.0
 49
0.0
140
0.0
141
0.0
142
1.0
143
1.0
 70
   688
 72
     0
 73
     0
 74
     5
  7

 75
    16
147
1.0
148
0.0
149
0.0
100
AcDbLayout
  1
Layout1
 70
     0
 71
     1
 10
0.0
 20
0.0
 11
12.0
 21
9.0
 12
0.0
 22
0.0
 32
0.0
 14
1.000000000000000E+20
 24
1.000000000000000E+20
 34
1.000000000000000E+20
 15
-1.000000000000000E+20
 25
-1.000000000000000E+20
 35
-1.000000000000000E+20
146
0.0
 13
0.0
 23
0.0
 33
0.0
 16
1.0
 26
0.0
 36
0.0
 17
0.0
 27
1.0
 37
0.0
 76
     0
330
A2409E46B754B2B
  0
LAYOUT
  5
A2409E46B754B32
102
{ACAD_REACTORS
330
A2409E46B754B2A
102
}
330
A2409E46B754B2A
100
AcDbPlotSettings
  1

  2
none_device
  4
Letter_(8.50_x_11.00_Inches)
  6

 40
6.349999904632568
 41
6.349999904632568
 42
6.350006103515625
 43
6.350006103515625
 44
215.8999938964843
 45
279.3999938964843
 46
0.0
 47
0.0
 48
0.0
 49
0.0
140
0.0
141
0.0
142
1.0
143
1.0
 70
 11952
 72
     0
 73
     1
 74
     0
  7

 75
     0
147
1.0
148
-303.0832071318991
149
-62.43729091125903
100
AcDbLayout
  1
Model
 70
     1
 71
     0
 10
0.0
 20
0.0
 11
12.0
 21
9.0
 12
0.0
 22
0.0
 32
0.0
 14
0.0
 24
0.0
 34
0.0
 15
0.0
 25
0.0
 35
0.0
146
0.0
 13
0.0
 23
0.0
 33
0.0
 16
1.0
 26
0.0
 36
0.0
 17
0.0
 27
1.0
 37
0.0
 76
     0
330
A2409E46B754B2F
  0
MLINESTYLE
  5
A2409E46B754B28
102
{ACAD_REACTORS
330
A2409E46B754B27
102
}
330
A2409E46B754B27
100
AcDbMlineStyle
  2
STANDARD
 70
     0
  3

 62
   256
 51
90.0
 52
90.0
 71
     2
 49
0.5
 62
   256
  6
BYLAYER
 49
-0.5
 62
   256
  6
BYLAYER
  0
ACDBPLACEHOLDER
  5
A2409E46B754B20
102
{ACAD_REACTORS
330
A2409E46B754B1F
102
}
330
A2409E46B754B1F
  0
ENDSEC
  0
EOF
