  0
SECTION
  2
HEADER
  9
$ACADVER
  1
AC1015
  9
$ACADMAINTVER
 70
    10
  9
$DWGCODEPAGE
  3
ANSI_1252
  9
$INSBASE
 10
0.0
 20
0.0
 30
0.0
  9
$EXTMIN
 10
70.29385697773931
 20
3.657395999629778
 30
0.0
  9
$EXTMAX
 10
77.34563367303595
 20
11.70917269492641
 30
0.0
  9
$LIMMIN
 10
0.0
 20
0.0
  9
$LIMMAX
 10
12.0
 20
9.0
  9
$ORTHOMODE
 70
     1
  9
$REGENMODE
 70
     1
  9
$FILLMODE
 70
     1
  9
$QTEXTMODE
 70
     0
  9
$MIRRTEXT
 70
     1
  9
$LTSCALE
 40
0.1
  9
$ATTMODE
 70
     1
  9
$TEXTSIZE
 40
0.1
  9
$TRACEWID
 40
0.05
  9
$TEXTSTYLE
  7
BRUSHSCRIPT
  9
$CLAYER
  8
COMP
  9
$CELTYPE
  6
ByLayer
  9
$CECOLOR
 62
   256
  9
$CELTSCALE
 40
1.0
  9
$DISPSILH
 70
     0
  9
$DIMSCALE
 40
1.0
  9
$DIMASZ
 40
0.18
  9
$DIMEXO
 40
0.063
  9
$DIMDLI
 40
0.38
  9
$DIMRND
 40
0.0
  9
$DIMDLE
 40
0.0
  9
$DIMEXE
 40
0.18
  9
$DIMTP
 40
0.0
  9
$DIMTM
 40
0.0
  9
$DIMTXT
 40
0.075
  9
$DIMCEN
 40
0.03
  9
$DIMTSZ
 40
0.0
  9
$DIMTOL
 70
     0
  9
$DIMLIM
 70
     0
  9
$DIMTIH
 70
     1
  9
$DIMTOH
 70
     1
  9
$DIMSE1
 70
     0
  9
$DIMSE2
 70
     0
  9
$DIMTAD
 70
     0
  9
$DIMZIN
 70
     6
  9
$DIMBLK
  1

  9
$DIMASO
 70
     1
  9
$DIMSHO
 70
     1
  9
$DIMPOST
  1

  9
$DIMAPOST
  1

  9
$DIMALT
 70
     0
  9
$DIMALTD
 70
     2
  9
$DIMALTF
 40
25.4
  9
$DIMLFAC
 40
1.0
  9
$DIMTOFL
 70
     0
  9
$DIMTVP
 40
0.0
  9
$DIMTIX
 70
     0
  9
$DIMSOXD
 70
     0
  9
$DIMSAH
 70
     0
  9
$DIMBLK1
  1

  9
$DIMBLK2
  1

  9
$DIMSTYLE
  2
Standard
  9
$DIMCLRD
 70
     0
  9
$DIMCLRE
 70
     0
  9
$DIMCLRT
 70
     0
  9
$DIMTFAC
 40
2.399999999999999
  9
$DIMGAP
 40
0.09
  9
$DIMJUST
 70
     0
  9
$DIMSD1
 70
     0
  9
$DIMSD2
 70
     0
  9
$DIMTOLJ
 70
     1
  9
$DIMTZIN
 70
     6
  9
$DIMALTZ
 70
     6
  9
$DIMALTTZ
 70
     6
  9
$DIMUPT
 70
     0
  9
$DIMDEC
 70
     3
  9
$DIMTDEC
 70
     3
  9
$DIMALTU
 70
     2
  9
$DIMALTTD
 70
     2
  9
$DIMTXSTY
  7
STANDARD
  9
$DIMAUNIT
 70
     0
  9
$DIMADEC
 70
     0
  9
$DIMALTRND
 40
0.0
  9
$DIMAZIN
 70
     0
  9
$DIMDSEP
 70
    46
  9
$DIMATFIT
 70
     3
  9
$DIMFRAC
 70
     0
  9
$DIMLDRBLK
  1

  9
$DIMLUNIT
 70
     2
  9
$DIMLWD
 70
    -2
  9
$DIMLWE
 70
    -2
  9
$DIMTMOVE
 70
     2
  9
$LUNITS
 70
     2
  9
$LUPREC
 70
     3
  9
$SKETCHINC
 40
0.1
  9
$FILLETRAD
 40
0.5
  9
$AUNITS
 70
     0
  9
$AUPREC
 70
     0
  9
$MENU
  1
acad
  9
$ELEVATION
 40
0.0
  9
$PELEVATION
 40
0.0
  9
$THICKNESS
 40
0.0
  9
$LIMCHECK
 70
     0
  9
$CHAMFERA
 40
0.5
  9
$CHAMFERB
 40
0.5
  9
$CHAMFERC
 40
0.0
  9
$CHAMFERD
 40
0.0
  9
$SKPOLY
 70
     0
  9
$TDCREATE
 40
2453413.608410417
  9
$TDUCREATE
 40
2453413.941743750
  9
$TDUPDATE
 40
2453692.459106007
  9
$TDUUPDATE
 40
2453692.792439340
  9
$TDINDWG
 40
0.2908342477
  9
$TDUSRTIMER
 40
0.2908342477
  9
$USRTIMER
 70
     1
  9
$ANGBASE
 50
0.0
  9
$ANGDIR
 70
     0
  9
$PDMODE
 70
     0
  9
$PDSIZE
 40
0.0
  9
$PLINEWID
 40
0.02
  9
$SPLFRAME
 70
     0
  9
$SPLINETYPE
 70
     6
  9
$SPLINESEGS
 70
     8
  9
$HANDSEED
  5
F7B6FDAF6BC6E0E2
  9
$SURFTAB1
 70
     6
  9
$SURFTAB2
 70
     6
  9
$SURFTYPE
 70
     6
  9
$SURFU
 70
     6
  9
$SURFV
 70
     6
  9
$UCSBASE
  2

  9
$UCSNAME
  2

  9
$UCSORG
 10
62.39050001455613
 20
8.578000004188769
 30
0.0
  9
$UCSXDIR
 10
1.0
 20
0.0
 30
0.0
  9
$UCSYDIR
 10
0.0
 20
1.0
 30
0.0
  9
$UCSORTHOREF
  2

  9
$UCSORTHOVIEW
 70
     0
  9
$UCSORGTOP
 10
0.0
 20
0.0
 30
0.0
  9
$UCSORGBOTTOM
 10
0.0
 20
0.0
 30
0.0
  9
$UCSORGLEFT
 10
0.0
 20
0.0
 30
0.0
  9
$UCSORGRIGHT
 10
0.0
 20
0.0
 30
0.0
  9
$UCSORGFRONT
 10
0.0
 20
0.0
 30
0.0
  9
$UCSORGBACK
 10
0.0
 20
0.0
 30
0.0
  9
$PUCSBASE
  2

  9
$PUCSNAME
  2

  9
$PUCSORG
 10
0.0
 20
0.0
 30
0.0
  9
$PUCSXDIR
 10
1.0
 20
0.0
 30
0.0
  9
$PUCSYDIR
 10
0.0
 20
1.0
 30
0.0
  9
$PUCSORTHOREF
  2

  9
$PUCSORTHOVIEW
 70
     0
  9
$PUCSORGTOP
 10
0.0
 20
0.0
 30
0.0
  9
$PUCSORGBOTTOM
 10
0.0
 20
0.0
 30
0.0
  9
$PUCSORGLEFT
 10
0.0
 20
0.0
 30
0.0
  9
$PUCSORGRIGHT
 10
0.0
 20
0.0
 30
0.0
  9
$PUCSORGFRONT
 10
0.0
 20
0.0
 30
0.0
  9
$PUCSORGBACK
 10
0.0
 20
0.0
 30
0.0
  9
$USERI1
 70
     0
  9
$USERI2
 70
     0
  9
$USERI3
 70
     0
  9
$USERI4
 70
     0
  9
$USERI5
 70
     0
  9
$USERR1
 40
0.0
  9
$USERR2
 40
0.0
  9
$USERR3
 40
0.0
  9
$USERR4
 40
0.0
  9
$USERR5
 40
0.0
  9
$WORLDVIEW
 70
     1
  9
$SHADEDGE
 70
     3
  9
$SHADEDIF
 70
    70
  9
$TILEMODE
 70
     1
  9
$MAXACTVP
 70
    16
  9
$PINSBASE
 10
0.0
 20
0.0
 30
0.0
  9
$PLIMCHECK
 70
     0
  9
$PEXTMIN
 10
1.060416690946563
 20
0.810416638381838
 30
0.0
  9
$PEXTMAX
 10
9.543750218519075
 20
7.29374974543654
 30
0.0
  9
$PLIMMIN
 10
-0.1979161059762549
 20
-0.1979166691697489
  9
$PLIMMAX
 10
10.80208365372785
 20
8.30208309053436
  9
$UNITMODE
 70
     0
  9
$VISRETAIN
 70
     0
  9
$PLINEGEN
 70
     0
  9
$PSLTSCALE
 70
     0
  9
$TREEDEPTH
 70
  3020
  9
$CMLSTYLE
  2
Standard
  9
$CMLJUST
 70
     0
  9
$CMLSCALE
 40
1.0
  9
$PROXYGRAPHICS
 70
     1
  9
$MEASUREMENT
 70
     0
  9
$CELWEIGHT
370
    -1
  9
$ENDCAPS
280
     0
  9
$JOINSTYLE
280
     0
  9
$LWDISPLAY
290
     0
  9
$INSUNITS
 70
     0
  9
$HYPERLINKBASE
  1

  9
$STYLESHEET
  1

  9
$XEDIT
290
     1
  9
$CEPSNTYPE
380
     0
  9
$PSTYLEMODE
290
     1
  9
$FINGERPRINTGUID
  2
{F27F2BAC-33BB-4033-A956-198AC4EC3361}
  9
$VERSIONGUID
  2
{58EB0FD6-631B-4B55-8953-2D02A2174524}
  9
$EXTNAMES
290
     1
  9
$PSVPSCALE
 40
0.0
  9
$OLESTARTUP
290
     0
  0
ENDSEC
  0
SECTION
  2
CLASSES
  0
CLASS
  1
ACDBDICTIONARYWDFLT
  2
AcDbDictionaryWithDefault
  3
AutoCAD 2000
 90
        0
280
     0
281
     0
  0
CLASS
  1
ACDBPLACEHOLDER
  2
AcDbPlaceHolder
  3
AutoCAD 2000
 90
        0
280
     0
281
     0
  0
CLASS
  1
LAYOUT
  2
AcDbLayout
  3
AutoCAD 2000
 90
        0
280
     0
281
     0
  0
ENDSEC
  0
SECTION
  2
TABLES
  0
TABLE
  2
VPORT
  5
1063C03AE4E6B6DA
330
0
100
AcDbSymbolTable
 70
     2
  0
VPORT
  5
F7B6FDAF6BC6E0E1
330
1063C03AE4E6B6DA
100
AcDbSymbolTableRecord
100
AcDbViewportTableRecord
  2
*Active
 70
     0
 10
0.0
 20
0.0
 11
1.0
 21
1.0
 12
75.57510892906353
 22
7.666889898298504
 13
0.0
 23
0.0
 14
0.001
 24
0.001
 15
0.001
 25
0.001
 16
0.0
 26
0.0
 36
1.0
 17
0.0
 27
0.0
 37
0.0
 40
13.08955151911833
 41
1.767754318618042
 42
50.0
 43
0.0
 44
0.0
 50
0.0
 51
0.0
 71
     0
 72
   100
 73
     1
 74
     1
 75
     1
 76
     1
 77
     0
 78
     0
281
     0
 65
     1
110
62.39050001455613
120
8.578000004188769
130
0.0
111
1.0
121
0.0
131
0.0
112
0.0
122
1.0
132
0.0
 79
     0
146
0.0
  0
ENDTAB
  0
TABLE
  2
LTYPE
  5
1063C03AE4E6B6D7
330
0
100
AcDbSymbolTable
 70
     1
  0
LTYPE
  5
1063C03AE4E6B6E5
330
1063C03AE4E6B6D7
100
AcDbSymbolTableRecord
100
AcDbLinetypeTableRecord
  2
ByBlock
 70
     0
  3

 72
    65
 73
     0
 40
0.0
  0
LTYPE
  5
1063C03AE4E6B6E6
330
1063C03AE4E6B6D7
100
AcDbSymbolTableRecord
100
AcDbLinetypeTableRecord
  2
ByLayer
 70
     0
  3

 72
    65
 73
     0
 40
0.0
  0
LTYPE
  5
1063C03AE4E6B6E7
330
1063C03AE4E6B6D7
100
AcDbSymbolTableRecord
100
AcDbLinetypeTableRecord
  2
CONTINUOUS
 70
     0
  3
Solid line
 72
    65
 73
     0
 40
0.0
  0
ENDTAB
  0
TABLE
  2
LAYER
  5
1063C03AE4E6B6D4
330
0
100
AcDbSymbolTable
 70
     5
  0
LAYER
  5
1063C03AE4E6B6E2
330
1063C03AE4E6B6D4
100
AcDbSymbolTableRecord
100
AcDbLayerTableRecord
  2
0
 70
     0
 62
     7
  6
CONTINUOUS
370
     9
390
1063C03AE4E6B6E1
  0
LAYER
  5
1063C03AE4E6B7B4
330
1063C03AE4E6B6D4
100
AcDbSymbolTableRecord
100
AcDbLayerTableRecord
  2
CASE
 70
     0
 62
     7
  6
CONTINUOUS
370
     9
390
1063C03AE4E6B6E1
  0
LAYER
  5
1063C03AE4E6B7B6
330
1063C03AE4E6B6D4
100
AcDbSymbolTableRecord
100
AcDbLayerTableRecord
  2
DEFPOINTS
 70
     0
 62
     7
  6
CONTINUOUS
290
     0
370
     9
390
1063C03AE4E6B6E1
  0
LAYER
  5
1063C03AE4E6B7BB
330
1063C03AE4E6B6D4
100
AcDbSymbolTableRecord
100
AcDbLayerTableRecord
  2
LABELDIM
 70
     0
 62
     7
  6
CONTINUOUS
370
     9
390
1063C03AE4E6B6E1
  0
LAYER
  5
1063C03AE4E6B7BC
330
1063C03AE4E6B6D4
100
AcDbSymbolTableRecord
100
AcDbLayerTableRecord
  2
COMP
 70
     0
 62
     7
  6
CONTINUOUS
370
     9
390
1063C03AE4E6B6E1
  0
ENDTAB
  0
TABLE
  2
STYLE
  5
1063C03AE4E6B6D5
330
0
100
AcDbSymbolTable
 70
     3
  0
STYLE
  5
1063C03AE4E6B6E3
330
1063C03AE4E6B6D5
100
AcDbSymbolTableRecord
100
AcDbTextStyleTableRecord
  2
STANDARD
 70
     0
 40
0.0
 41
1.0
 50
0.0
 71
     0
 42
0.1
  3
txt
  4

  0
STYLE
  5
1063C03AE4E6B7AF
330
1063C03AE4E6B6D5
100
AcDbSymbolTableRecord
100
AcDbTextStyleTableRecord
  2
ADESK1
 70
     0
 40
0.0
 41
1.0
 50
0.0
 71
     0
 42
0.25
  3
romans
  4

  0
STYLE
  5
1063C03AE4E6B7B0
330
1063C03AE4E6B6D5
100
AcDbSymbolTableRecord
100
AcDbTextStyleTableRecord
  2
BRUSHSCRIPT
 70
     0
 40
0.1
 41
1.0
 50
0.0
 71
     0
 42
0.1
  3
brushscript.shx
  4

  0
ENDTAB
  0
TABLE
  2
VIEW
  5
1063C03AE4E6B6D8
330
0
100
AcDbSymbolTable
 70
     0
  0
ENDTAB
  0
TABLE
  2
UCS
  5
1063C03AE4E6B6D9
330
0
100
AcDbSymbolTable
 70
     0
  0
ENDTAB
  0
TABLE
  2
APPID
  5
1063C03AE4E6B6DB
330
0
100
AcDbSymbolTable
 70
     1
  0
APPID
  5
1063C03AE4E6B6E4
330
1063C03AE4E6B6DB
100
AcDbSymbolTableRecord
100
AcDbRegAppTableRecord
  2
ACAD
 70
     0
  0
ENDTAB
  0
TABLE
  2
DIMSTYLE
  5
1063C03AE4E6B6DC
330
0
100
AcDbSymbolTable
 70
     1
100
AcDbDimStyleTable
 71
     1
340
F7B6FDAF6BC6C6BF
  0
DIMSTYLE
105
F7B6FDAF6BC6C6BF
330
1063C03AE4E6B6DC
100
AcDbSymbolTableRecord
100
AcDbDimStyleTableRecord
  2
Standard
 70
     0
340
1063C03AE4E6B6E3
  0
ENDTAB
  0
TABLE
  2
BLOCK_RECORD
  5
1063C03AE4E6B6D3
330
0
100
AcDbSymbolTable
 70
     7
  0
BLOCK_RECORD
  5
1063C03AE4E6B6F0
330
1063C03AE4E6B6D3
100
AcDbSymbolTableRecord
100
AcDbBlockTableRecord
  2
*Model_Space
340
1063C03AE4E6B6F3
  0
BLOCK_RECORD
  5
1063C03AE4E6B6EC
330
1063C03AE4E6B6D3
100
AcDbSymbolTableRecord
100
AcDbBlockTableRecord
  2
*Paper_Space
340
1063C03AE4E6B6EF
  0
BLOCK_RECORD
  5
1063C03AE4E6B6F4
330
1063C03AE4E6B6D3
100
AcDbSymbolTableRecord
100
AcDbBlockTableRecord
  2
ACAD1C6F
340
0
102
{BLKREFS
331
568
102
}
  0
BLOCK_RECORD
  5
1063C03AE4E6B6F5
330
1063C03AE4E6B6D3
100
AcDbSymbolTableRecord
100
AcDbBlockTableRecord
  2
ACAD006E
340
0
102
{BLKREFS
331
432
102
}
  0
BLOCK_RECORD
  5
1063C03AE4E6B6F6
330
1063C03AE4E6B6D3
100
AcDbSymbolTableRecord
100
AcDbBlockTableRecord
  2
ACAD0312
340
0
102
{BLKREFS
331
587
102
}
  0
BLOCK_RECORD
  5
1063C03AE4E6B6F7
330
1063C03AE4E6B6D3
100
AcDbSymbolTableRecord
100
AcDbBlockTableRecord
  2
ACAD0626
340
0
102
{BLKREFS
331
431
102
}
  0
BLOCK_RECORD
  5
1063C03AE4E6B6FD
330
1063C03AE4E6B6D3
100
AcDbSymbolTableRecord
100
AcDbBlockTableRecord
  2
ACAD3A27
340
0
102
{BLKREFS
331
F7B6FDAF6BC6DBF6
102
}
  0
BLOCK_RECORD
  5
1063C03AE4E6B6FF
330
1063C03AE4E6B6D3
100
AcDbSymbolTableRecord
100
AcDbBlockTableRecord
  2
ACAD3267
340
0
102
{BLKREFS
331
F6DFB5ED78D8D7FB
331
F7B6FDAF6BC6DDB9
102
}
  0
BLOCK_RECORD
  5
F7B6FDAF6BC6DDFF
330
1063C03AE4E6B6D3
100
AcDbSymbolTableRecord
100
AcDbBlockTableRecord
  2
A$C36705F33
340
0
102
{BLKREFS
331
F7B6FDAF6BC6DE12
331
F7B6FDAF6BC6DE1F
102
}
  0
ENDTAB
  0
ENDSEC
  0
SECTION
  2
BLOCKS
  0
BLOCK
  5
1063C03AE4E6B7C1
330
1063C03AE4E6B6F0
100
AcDbEntity
  8
0
100
AcDbBlockBegin
  2
*Model_Space
 70
     0
 10
0.0
 20
0.0
 30
0.0
  3
*Model_Space
  1

  0
ENDBLK
  5
1063C03AE4E6B7C2
330
1063C03AE4E6B6F0
100
AcDbEntity
  8
0
100
AcDbBlockEnd
  0
BLOCK
  5
1063C03AE4E6B7BF
330
1063C03AE4E6B6EC
100
AcDbEntity
 67
     1
  8
0
100
AcDbBlockBegin
  2
*Paper_Space
 70
     0
 10
0.0
 20
0.0
 30
0.0
  3
*Paper_Space
  1

  0
ENDBLK
  5
1063C03AE4E6B7C0
330
1063C03AE4E6B6EC
100
AcDbEntity
 67
     1
  8
0
100
AcDbBlockEnd
  0
BLOCK
  5
1
330
1063C03AE4E6B6F4
100
AcDbEntity
  8
0
100
AcDbBlockBegin
  2
ACAD1C6F
 70
     0
 10
0.0
 20
0.0
 30
0.0
  3
ACAD1C6F
  1

  0
ARC
  5
2
330
1063C03AE4E6B6F4
100
AcDbEntity
  8
CASE
100
AcDbCircle
 10
0.0
 20
0.0
 30
0.0
 40
0.1180000000000003
100
AcDbArc
 50
90.0
 51
270.0
  0
LINE
  5
3
330
1063C03AE4E6B6F4
100
AcDbEntity
  8
CASE
100
AcDbLine
 10
0.0
 20
0.1180000000000005
 30
0.0
 11
0.2949999999999999
 21
0.1180000000000005
 31
0.0
  0
LINE
  5
4
330
1063C03AE4E6B6F4
100
AcDbEntity
  8
CASE
100
AcDbLine
 10
0.0
 20
-0.1180000000000003
 30
0.0
 11
0.2949999999999999
 21
-0.1180000000000003
 31
0.0
  0
ARC
  5
5
330
1063C03AE4E6B6F4
100
AcDbEntity
  8
CASE
100
AcDbCircle
 10
0.4501085714285705
 20
0.0000000000000013
 30
0.0
 40
0.1948914285714288
100
AcDbArc
 50
217.2623329576324
 51
142.7376670423683
  0
LINE
  5
6
330
1063C03AE4E6B6F4
100
AcDbEntity
  8
CASE
100
AcDbLine
 10
0.0
 20
-0.1180000000000003
 30
0.0
 11
0.0
 21
-0.1180000000000003
 31
0.0
  0
LINE
  5
7
330
1063C03AE4E6B6F4
100
AcDbEntity
  8
CASE
100
AcDbLine
 10
0.0
 20
0.1180000000000005
 30
0.0
 11
0.0
 21
0.1180000000000005
 31
0.0
  0
ENDBLK
  5
8
330
1063C03AE4E6B6F4
100
AcDbEntity
  8
0
100
AcDbBlockEnd
  0
BLOCK
  5
9
330
1063C03AE4E6B6F5
100
AcDbEntity
  8
0
100
AcDbBlockBegin
  2
ACAD006E
 70
     0
 10
0.0
 20
0.0
 30
0.0
  3
ACAD006E
  1

  0
ARC
  5
A
330
1063C03AE4E6B6F5
100
AcDbEntity
  8
CASE
100
AcDbCircle
 10
0.0
 20
0.0
 30
0.0
 40
0.1180000000000003
100
AcDbArc
 50
90.0
 51
270.0
  0
LINE
  5
B
330
1063C03AE4E6B6F5
100
AcDbEntity
  8
CASE
100
AcDbLine
 10
0.0
 20
0.1180000000000005
 30
0.0
 11
0.2949999999999999
 21
0.1180000000000005
 31
0.0
  0
LINE
  5
C
330
1063C03AE4E6B6F5
100
AcDbEntity
  8
CASE
100
AcDbLine
 10
0.0
 20
-0.1180000000000003
 30
0.0
 11
0.2949999999999999
 21
-0.1180000000000003
 31
0.0
  0
ARC
  5
D
330
1063C03AE4E6B6F5
100
AcDbEntity
  8
CASE
100
AcDbCircle
 10
0.4501085714285705
 20
0.0000000000000013
 30
0.0
 40
0.1948914285714288
100
AcDbArc
 50
217.2623329576324
 51
142.7376670423683
  0
LINE
  5
E
330
1063C03AE4E6B6F5
100
AcDbEntity
  8
CASE
100
AcDbLine
 10
0.0
 20
-0.1180000000000003
 30
0.0
 11
0.0
 21
-0.1180000000000003
 31
0.0
  0
LINE
  5
F
330
1063C03AE4E6B6F5
100
AcDbEntity
  8
CASE
100
AcDbLine
 10
0.0
 20
0.1180000000000005
 30
0.0
 11
0.0
 21
0.1180000000000005
 31
0.0
  0
ENDBLK
  5
10
330
1063C03AE4E6B6F5
100
AcDbEntity
  8
0
100
AcDbBlockEnd
  0
BLOCK
  5
11
330
1063C03AE4E6B6F6
100
AcDbEntity
  8
0
100
AcDbBlockBegin
  2
ACAD0312
 70
     0
 10
0.0
 20
0.0
 30
0.0
  3
ACAD0312
  1

  0
ARC
  5
12
330
1063C03AE4E6B6F6
100
AcDbEntity
  8
CASE
100
AcDbCircle
 10
0.0
 20
0.0
 30
0.0
 40
0.1180000000000003
100
AcDbArc
 50
90.0
 51
270.0
  0
LINE
  5
13
330
1063C03AE4E6B6F6
100
AcDbEntity
  8
CASE
100
AcDbLine
 10
0.0
 20
0.1180000000000005
 30
0.0
 11
0.2949999999999999
 21
0.1180000000000005
 31
0.0
  0
LINE
  5
14
330
1063C03AE4E6B6F6
100
AcDbEntity
  8
CASE
100
AcDbLine
 10
0.0
 20
-0.1180000000000003
 30
0.0
 11
0.2949999999999999
 21
-0.1180000000000003
 31
0.0
  0
ARC
  5
15
330
1063C03AE4E6B6F6
100
AcDbEntity
  8
CASE
100
AcDbCircle
 10
0.4501085714285705
 20
0.0000000000000013
 30
0.0
 40
0.1948914285714288
100
AcDbArc
 50
217.2623329576324
 51
142.7376670423683
  0
LINE
  5
16
330
1063C03AE4E6B6F6
100
AcDbEntity
  8
CASE
100
AcDbLine
 10
0.0
 20
-0.1180000000000003
 30
0.0
 11
0.0
 21
-0.1180000000000003
 31
0.0
  0
LINE
  5
17
330
1063C03AE4E6B6F6
100
AcDbEntity
  8
CASE
100
AcDbLine
 10
0.0
 20
0.1180000000000005
 30
0.0
 11
0.0
 21
0.1180000000000005
 31
0.0
  0
ENDBLK
  5
18
330
1063C03AE4E6B6F6
100
AcDbEntity
  8
0
100
AcDbBlockEnd
  0
BLOCK
  5
19
330
1063C03AE4E6B6F7
100
AcDbEntity
  8
0
100
AcDbBlockBegin
  2
ACAD0626
 70
     0
 10
0.0
 20
0.0
 30
0.0
  3
ACAD0626
  1

  0
ARC
  5
1A
330
1063C03AE4E6B6F7
100
AcDbEntity
  8
CASE
100
AcDbCircle
 10
0.0
 20
0.0
 30
0.0
 40
0.1180000000000003
100
AcDbArc
 50
90.0
 51
270.0
  0
LINE
  5
1B
330
1063C03AE4E6B6F7
100
AcDbEntity
  8
CASE
100
AcDbLine
 10
0.0
 20
0.1180000000000005
 30
0.0
 11
0.2949999999999999
 21
0.1180000000000005
 31
0.0
  0
LINE
  5
1C
330
1063C03AE4E6B6F7
100
AcDbEntity
  8
CASE
100
AcDbLine
 10
0.0
 20
-0.1180000000000003
 30
0.0
 11
0.2949999999999999
 21
-0.1180000000000003
 31
0.0
  0
ARC
  5
1D
330
1063C03AE4E6B6F7
100
AcDbEntity
  8
CASE
100
AcDbCircle
 10
0.4501085714285705
 20
0.0000000000000013
 30
0.0
 40
0.1948914285714288
100
AcDbArc
 50
217.2623329576324
 51
142.7376670423683
  0
LINE
  5
1E
330
1063C03AE4E6B6F7
100
AcDbEntity
  8
CASE
100
AcDbLine
 10
0.0
 20
-0.1180000000000003
 30
0.0
 11
0.0
 21
-0.1180000000000003
 31
0.0
  0
LINE
  5
1F
330
1063C03AE4E6B6F7
100
AcDbEntity
  8
CASE
100
AcDbLine
 10
0.0
 20
0.1180000000000005
 30
0.0
 11
0.0
 21
0.1180000000000005
 31
0.0
  0
ENDBLK
  5
20
330
1063C03AE4E6B6F7
100
AcDbEntity
  8
0
100
AcDbBlockEnd
  0
BLOCK
  5
F7B6FDAF6BC6C6BC
330
1063C03AE4E6B6FD
100
AcDbEntity
  8
0
100
AcDbBlockBegin
  2
ACAD3A27
 70
     0
 10
0.0
 20
0.0
 30
0.0
  3
ACAD3A27
  1

  0
LWPOLYLINE
  5
2774B59CE724F8B0
330
1063C03AE4E6B6FD
100
AcDbEntity
  8
COMP
100
AcDbPolyline
 90
        6
 70
     1
 43
0.01
 10
-0.9000000000000056
 20
0.0250000000000004
 10
-0.9000000000000056
 20
0.4000000000000004
 10
0.0
 20
0.4000000000000004
 10
0.0
 20
0.0
 10
-0.9000000000000056
 20
0.0
 10
-0.9000000000000056
 20
0.0250000000000004
  0
LINE
  5
2774B59CE724F8B9
330
1063C03AE4E6B6FD
100
AcDbEntity
  8
COMP
100
AcDbLine
 10
-0.7680000000000078
 20
0.1259999999999968
 30
0.0
 11
-0.7680000000000078
 21
0.2639999999999967
 31
0.0
  0
LINE
  5
2774B59CE724F8B8
330
1063C03AE4E6B6FD
100
AcDbEntity
  8
COMP
100
AcDbLine
 10
-0.8320000000000078
 20
0.2639999999999967
 30
0.0
 11
-0.8320000000000078
 21
0.1259999999999968
 31
0.0
  0
LINE
  5
2774B59CE724F9BC
330
1063C03AE4E6B6FD
100
AcDbEntity
  8
COMP
100
AcDbLine
 10
-0.7830000000000084
 20
0.2319999999999966
 30
0.0
 11
-0.7830000000000084
 21
0.1609999999999969
 31
0.0
  0
LINE
  5
2774B59CE724F993
330
1063C03AE4E6B6FD
100
AcDbEntity
  8
COMP
100
AcDbLine
 10
-0.8160000000000096
 20
0.1609999999999969
 30
0.0
 11
-0.8160000000000096
 21
0.2319999999999966
 31
0.0
  0
LINE
  5
2774B59CE724F992
330
1063C03AE4E6B6FD
100
AcDbEntity
  8
COMP
100
AcDbLine
 10
-0.8160000000000096
 20
0.163999999999997
 30
0.0
 11
-0.7830000000000084
 21
0.163999999999997
 31
0.0
  0
LINE
  5
2774B59CE724F991
330
1063C03AE4E6B6FD
100
AcDbEntity
  8
COMP
100
AcDbLine
 10
-0.8160000000000096
 20
0.1669999999999971
 30
0.0
 11
-0.7830000000000084
 21
0.1669999999999971
 31
0.0
  0
LINE
  5
2774B59CE724F990
330
1063C03AE4E6B6FD
100
AcDbEntity
  8
COMP
100
AcDbLine
 10
-0.8160000000000096
 20
0.1709999999999967
 30
0.0
 11
-0.7830000000000084
 21
0.1709999999999967
 31
0.0
  0
LINE
  5
2774B59CE724F98F
330
1063C03AE4E6B6FD
100
AcDbEntity
  8
COMP
100
AcDbLine
 10
-0.8160000000000096
 20
0.1749999999999963
 30
0.0
 11
-0.7830000000000084
 21
0.1749999999999963
 31
0.0
  0
LINE
  5
2774B59CE724F98E
330
1063C03AE4E6B6FD
100
AcDbEntity
  8
COMP
100
AcDbLine
 10
-0.8160000000000096
 20
0.1789999999999967
 30
0.0
 11
-0.7830000000000084
 21
0.1789999999999967
 31
0.0
  0
LINE
  5
2774B59CE724F98D
330
1063C03AE4E6B6FD
100
AcDbEntity
  8
COMP
100
AcDbLine
 10
-0.8160000000000096
 20
0.1829999999999972
 30
0.0
 11
-0.7830000000000084
 21
0.1829999999999972
 31
0.0
  0
LINE
  5
2774B59CE724F98C
330
1063C03AE4E6B6FD
100
AcDbEntity
  8
COMP
100
AcDbLine
 10
-0.8160000000000096
 20
0.1869999999999967
 30
0.0
 11
-0.7830000000000084
 21
0.1869999999999967
 31
0.0
  0
LINE
  5
2774B59CE724F98B
330
1063C03AE4E6B6FD
100
AcDbEntity
  8
COMP
100
AcDbLine
 10
-0.7830000000000084
 20
0.1609999999999969
 30
0.0
 11
-0.8160000000000096
 21
0.1609999999999969
 31
0.0
  0
LINE
  5
2774B59CE724F98A
330
1063C03AE4E6B6FD
100
AcDbEntity
  8
COMP
100
AcDbLine
 10
-0.8160000000000096
 20
0.2319999999999966
 30
0.0
 11
-0.7830000000000084
 21
0.2319999999999966
 31
0.0
  0
LWPOLYLINE
  5
2774B59CE724F8D2
330
1063C03AE4E6B6FD
100
AcDbEntity
  8
COMP
100
AcDbPolyline
 90
        2
 70
     1
 43
0.005
 10
-0.9000000000000056
 20
0.0024999999999995
 42
1.0
 10
-0.9000000000000056
 20
-0.0024999999999995
 42
1.0
  0
LWPOLYLINE
  5
2774B59CE724F8CE
330
1063C03AE4E6B6FD
100
AcDbEntity
  8
COMP
100
AcDbPolyline
 90
        2
 70
     1
 43
0.005
 10
-0.9000000000000056
 20
0.0274999999999999
 42
1.0
 10
-0.9000000000000056
 20
0.0225000000000009
 42
1.0
  0
LWPOLYLINE
  5
2774B59CE724F8CA
330
1063C03AE4E6B6FD
100
AcDbEntity
  8
COMP
100
AcDbPolyline
 90
        2
 70
     1
 43
0.005
 10
-0.9000000000000056
 20
0.0274999999999999
 42
1.0
 10
-0.9000000000000056
 20
0.0225000000000009
 42
1.0
  0
LINE
  5
2774B59CE724F8C9
330
1063C03AE4E6B6FD
100
AcDbEntity
  8
COMP
100
AcDbLine
 10
-0.8320000000000078
 20
0.1259999999999968
 30
0.0
 11
-0.7680000000000078
 21
0.1259999999999968
 31
0.0
  0
LWPOLYLINE
  5
2774B59CE724F994
330
1063C03AE4E6B6FD
100
AcDbEntity
  8
COMP
100
AcDbPolyline
 90
        2
 70
     1
 43
0.005
 10
-0.9000000000000056
 20
0.4024999999999999
 42
1.0
 10
-0.9000000000000056
 20
0.3975
 42
1.0
  0
LINE
  5
2774B59CE724F989
330
1063C03AE4E6B6FD
100
AcDbEntity
  8
COMP
100
AcDbLine
 10
-0.7680000000000078
 20
0.2639999999999967
 30
0.0
 11
-0.8320000000000078
 21
0.2639999999999967
 31
0.0
  0
LINE
  5
2774B59CE724F8C7
330
1063C03AE4E6B6FD
100
AcDbEntity
  8
COMP
100
AcDbLine
 10
-0.068000000000005
 20
0.1259999999999968
 30
0.0
 11
-0.068000000000005
 21
0.2639999999999967
 31
0.0
  0
LINE
  5
2774B59CE724F8C6
330
1063C03AE4E6B6FD
100
AcDbEntity
  8
COMP
100
AcDbLine
 10
-0.132000000000005
 20
0.2639999999999967
 30
0.0
 11
-0.132000000000005
 21
0.1259999999999968
 31
0.0
  0
LINE
  5
2774B59CE724F8C5
330
1063C03AE4E6B6FD
100
AcDbEntity
  8
COMP
100
AcDbLine
 10
-0.1679999999999993
 20
0.1259999999999968
 30
0.0
 11
-0.1679999999999993
 21
0.2639999999999967
 31
0.0
  0
LINE
  5
2774B59CE724F8C4
330
1063C03AE4E6B6FD
100
AcDbEntity
  8
COMP
100
AcDbLine
 10
-0.2319999999999993
 20
0.2639999999999967
 30
0.0
 11
-0.2319999999999993
 21
0.1259999999999968
 31
0.0
  0
LINE
  5
2774B59CE724F8C3
330
1063C03AE4E6B6FD
100
AcDbEntity
  8
COMP
100
AcDbLine
 10
-0.2680000000000007
 20
0.1259999999999968
 30
0.0
 11
-0.2680000000000007
 21
0.2639999999999967
 31
0.0
  0
LINE
  5
2774B59CE724F8C2
330
1063C03AE4E6B6FD
100
AcDbEntity
  8
COMP
100
AcDbLine
 10
-0.3320000000000007
 20
0.2639999999999967
 30
0.0
 11
-0.3320000000000007
 21
0.1259999999999968
 31
0.0
  0
LINE
  5
2774B59CE724F8C1
330
1063C03AE4E6B6FD
100
AcDbEntity
  8
COMP
100
AcDbLine
 10
-0.3680000000000021
 20
0.1259999999999968
 30
0.0
 11
-0.3680000000000021
 21
0.2639999999999967
 31
0.0
  0
LINE
  5
2774B59CE724F8C0
330
1063C03AE4E6B6FD
100
AcDbEntity
  8
COMP
100
AcDbLine
 10
-0.4320000000000022
 20
0.2639999999999967
 30
0.0
 11
-0.4320000000000022
 21
0.1259999999999968
 31
0.0
  0
LINE
  5
2774B59CE724F8BF
330
1063C03AE4E6B6FD
100
AcDbEntity
  8
COMP
100
AcDbLine
 10
-0.4679999999999965
 20
0.1259999999999968
 30
0.0
 11
-0.4679999999999965
 21
0.2639999999999967
 31
0.0
  0
LINE
  5
2774B59CE724F8BE
330
1063C03AE4E6B6FD
100
AcDbEntity
  8
COMP
100
AcDbLine
 10
-0.5319999999999965
 20
0.2639999999999967
 30
0.0
 11
-0.5319999999999965
 21
0.1259999999999968
 31
0.0
  0
LINE
  5
2774B59CE724F8BD
330
1063C03AE4E6B6FD
100
AcDbEntity
  8
COMP
100
AcDbLine
 10
-0.5679999999999979
 20
0.1259999999999968
 30
0.0
 11
-0.5679999999999979
 21
0.2639999999999967
 31
0.0
  0
LINE
  5
2774B59CE724F8BC
330
1063C03AE4E6B6FD
100
AcDbEntity
  8
COMP
100
AcDbLine
 10
-0.6319999999999979
 20
0.2639999999999967
 30
0.0
 11
-0.6319999999999979
 21
0.1259999999999968
 31
0.0
  0
LINE
  5
2774B59CE724F8BB
330
1063C03AE4E6B6FD
100
AcDbEntity
  8
COMP
100
AcDbLine
 10
-0.6679999999999993
 20
0.1259999999999968
 30
0.0
 11
-0.6679999999999993
 21
0.2639999999999967
 31
0.0
  0
LINE
  5
2774B59CE724F8BA
330
1063C03AE4E6B6FD
100
AcDbEntity
  8
COMP
100
AcDbLine
 10
-0.7319999999999994
 20
0.2639999999999967
 30
0.0
 11
-0.7319999999999994
 21
0.1259999999999968
 31
0.0
  0
LINE
  5
2774B59CE724F9C7
330
1063C03AE4E6B6FD
100
AcDbEntity
  8
COMP
100
AcDbLine
 10
-0.3830000000000027
 20
0.2319999999999966
 30
0.0
 11
-0.3830000000000027
 21
0.1609999999999969
 31
0.0
  0
LINE
  5
2774B59CE724F9C6
330
1063C03AE4E6B6FD
100
AcDbEntity
  8
COMP
100
AcDbLine
 10
-0.416000000000004
 20
0.1609999999999969
 30
0.0
 11
-0.416000000000004
 21
0.2319999999999966
 31
0.0
  0
LINE
  5
2774B59CE724F9C5
330
1063C03AE4E6B6FD
100
AcDbEntity
  8
COMP
100
AcDbLine
 10
-0.416000000000004
 20
0.2319999999999966
 30
0.0
 11
-0.3830000000000027
 21
0.2319999999999966
 31
0.0
  0
LINE
  5
2774B59CE724F9C4
330
1063C03AE4E6B6FD
100
AcDbEntity
  8
COMP
100
AcDbLine
 10
-0.3830000000000027
 20
0.1609999999999969
 30
0.0
 11
-0.416000000000004
 21
0.1609999999999969
 31
0.0
  0
LINE
  5
2774B59CE724F9C3
330
1063C03AE4E6B6FD
100
AcDbEntity
  8
COMP
100
AcDbLine
 10
-0.416000000000004
 20
0.1869999999999967
 30
0.0
 11
-0.3830000000000027
 21
0.1869999999999967
 31
0.0
  0
LINE
  5
2774B59CE724F9C2
330
1063C03AE4E6B6FD
100
AcDbEntity
  8
COMP
100
AcDbLine
 10
-0.416000000000004
 20
0.1829999999999972
 30
0.0
 11
-0.3830000000000027
 21
0.1829999999999972
 31
0.0
  0
LINE
  5
2774B59CE724F9C1
330
1063C03AE4E6B6FD
100
AcDbEntity
  8
COMP
100
AcDbLine
 10
-0.416000000000004
 20
0.1789999999999967
 30
0.0
 11
-0.3830000000000027
 21
0.1789999999999967
 31
0.0
  0
LINE
  5
2774B59CE724F9C0
330
1063C03AE4E6B6FD
100
AcDbEntity
  8
COMP
100
AcDbLine
 10
-0.416000000000004
 20
0.1749999999999963
 30
0.0
 11
-0.3830000000000027
 21
0.1749999999999963
 31
0.0
  0
LINE
  5
2774B59CE724F9BF
330
1063C03AE4E6B6FD
100
AcDbEntity
  8
COMP
100
AcDbLine
 10
-0.416000000000004
 20
0.1709999999999967
 30
0.0
 11
-0.3830000000000027
 21
0.1709999999999967
 31
0.0
  0
LINE
  5
2774B59CE724F9BE
330
1063C03AE4E6B6FD
100
AcDbEntity
  8
COMP
100
AcDbLine
 10
-0.416000000000004
 20
0.1669999999999971
 30
0.0
 11
-0.3830000000000027
 21
0.1669999999999971
 31
0.0
  0
LINE
  5
2774B59CE724F9BD
330
1063C03AE4E6B6FD
100
AcDbEntity
  8
COMP
100
AcDbLine
 10
-0.416000000000004
 20
0.163999999999997
 30
0.0
 11
-0.3830000000000027
 21
0.163999999999997
 31
0.0
  0
LINE
  5
2774B59CE724F9BB
330
1063C03AE4E6B6FD
100
AcDbEntity
  8
COMP
100
AcDbLine
 10
-0.482999999999997
 20
0.2319999999999966
 30
0.0
 11
-0.482999999999997
 21
0.1609999999999969
 31
0.0
  0
LINE
  5
2774B59CE724F9BA
330
1063C03AE4E6B6FD
100
AcDbEntity
  8
COMP
100
AcDbLine
 10
-0.5159999999999983
 20
0.1609999999999969
 30
0.0
 11
-0.5159999999999983
 21
0.2319999999999966
 31
0.0
  0
LINE
  5
2774B59CE724F9B8
330
1063C03AE4E6B6FD
100
AcDbEntity
  8
COMP
100
AcDbLine
 10
-0.5159999999999983
 20
0.2319999999999966
 30
0.0
 11
-0.482999999999997
 21
0.2319999999999966
 31
0.0
  0
LINE
  5
2774B59CE724F9B7
330
1063C03AE4E6B6FD
100
AcDbEntity
  8
COMP
100
AcDbLine
 10
-0.482999999999997
 20
0.1609999999999969
 30
0.0
 11
-0.5159999999999983
 21
0.1609999999999969
 31
0.0
  0
LINE
  5
2774B59CE724F9B6
330
1063C03AE4E6B6FD
100
AcDbEntity
  8
COMP
100
AcDbLine
 10
-0.5159999999999983
 20
0.1869999999999967
 30
0.0
 11
-0.482999999999997
 21
0.1869999999999967
 31
0.0
  0
LINE
  5
2774B59CE724F9B5
330
1063C03AE4E6B6FD
100
AcDbEntity
  8
COMP
100
AcDbLine
 10
-0.5159999999999983
 20
0.1829999999999972
 30
0.0
 11
-0.482999999999997
 21
0.1829999999999972
 31
0.0
  0
LINE
  5
2774B59CE724F9B4
330
1063C03AE4E6B6FD
100
AcDbEntity
  8
COMP
100
AcDbLine
 10
-0.5159999999999983
 20
0.1789999999999967
 30
0.0
 11
-0.482999999999997
 21
0.1789999999999967
 31
0.0
  0
LINE
  5
2774B59CE724F9B3
330
1063C03AE4E6B6FD
100
AcDbEntity
  8
COMP
100
AcDbLine
 10
-0.5159999999999983
 20
0.1749999999999963
 30
0.0
 11
-0.482999999999997
 21
0.1749999999999963
 31
0.0
  0
LINE
  5
2774B59CE724F9B2
330
1063C03AE4E6B6FD
100
AcDbEntity
  8
COMP
100
AcDbLine
 10
-0.5159999999999983
 20
0.1709999999999967
 30
0.0
 11
-0.482999999999997
 21
0.1709999999999967
 31
0.0
  0
LINE
  5
2774B59CE724F9B1
330
1063C03AE4E6B6FD
100
AcDbEntity
  8
COMP
100
AcDbLine
 10
-0.5159999999999983
 20
0.1669999999999971
 30
0.0
 11
-0.482999999999997
 21
0.1669999999999971
 31
0.0
  0
LINE
  5
2774B59CE724F9B0
330
1063C03AE4E6B6FD
100
AcDbEntity
  8
COMP
100
AcDbLine
 10
-0.5159999999999983
 20
0.163999999999997
 30
0.0
 11
-0.482999999999997
 21
0.163999999999997
 31
0.0
  0
LINE
  5
2774B59CE724F9AF
330
1063C03AE4E6B6FD
100
AcDbEntity
  8
COMP
100
AcDbLine
 10
-0.5829999999999984
 20
0.2319999999999966
 30
0.0
 11
-0.5829999999999984
 21
0.1609999999999969
 31
0.0
  0
LINE
  5
2774B59CE724F9AE
330
1063C03AE4E6B6FD
100
AcDbEntity
  8
COMP
100
AcDbLine
 10
-0.6159999999999997
 20
0.1609999999999969
 30
0.0
 11
-0.6159999999999997
 21
0.2319999999999966
 31
0.0
  0
LINE
  5
2774B59CE724F9AC
330
1063C03AE4E6B6FD
100
AcDbEntity
  8
COMP
100
AcDbLine
 10
-0.6159999999999997
 20
0.2319999999999966
 30
0.0
 11
-0.5829999999999984
 21
0.2319999999999966
 31
0.0
  0
LINE
  5
2774B59CE724F9AB
330
1063C03AE4E6B6FD
100
AcDbEntity
  8
COMP
100
AcDbLine
 10
-0.5829999999999984
 20
0.1609999999999969
 30
0.0
 11
-0.6159999999999997
 21
0.1609999999999969
 31
0.0
  0
LINE
  5
2774B59CE724F9AA
330
1063C03AE4E6B6FD
100
AcDbEntity
  8
COMP
100
AcDbLine
 10
-0.6159999999999997
 20
0.1869999999999967
 30
0.0
 11
-0.5829999999999984
 21
0.1869999999999967
 31
0.0
  0
LINE
  5
2774B59CE724F9A9
330
1063C03AE4E6B6FD
100
AcDbEntity
  8
COMP
100
AcDbLine
 10
-0.6159999999999997
 20
0.1829999999999972
 30
0.0
 11
-0.5829999999999984
 21
0.1829999999999972
 31
0.0
  0
LINE
  5
2774B59CE724F9A8
330
1063C03AE4E6B6FD
100
AcDbEntity
  8
COMP
100
AcDbLine
 10
-0.6159999999999997
 20
0.1789999999999967
 30
0.0
 11
-0.5829999999999984
 21
0.1789999999999967
 31
0.0
  0
LINE
  5
2774B59CE724F9A7
330
1063C03AE4E6B6FD
100
AcDbEntity
  8
COMP
100
AcDbLine
 10
-0.6159999999999997
 20
0.1749999999999963
 30
0.0
 11
-0.5829999999999984
 21
0.1749999999999963
 31
0.0
  0
LINE
  5
2774B59CE724F9A6
330
1063C03AE4E6B6FD
100
AcDbEntity
  8
COMP
100
AcDbLine
 10
-0.6159999999999997
 20
0.1709999999999967
 30
0.0
 11
-0.5829999999999984
 21
0.1709999999999967
 31
0.0
  0
LINE
  5
2774B59CE724F9A5
330
1063C03AE4E6B6FD
100
AcDbEntity
  8
COMP
100
AcDbLine
 10
-0.6159999999999997
 20
0.1669999999999971
 30
0.0
 11
-0.5829999999999984
 21
0.1669999999999971
 31
0.0
  0
LINE
  5
2774B59CE724F9A4
330
1063C03AE4E6B6FD
100
AcDbEntity
  8
COMP
100
AcDbLine
 10
-0.6159999999999997
 20
0.163999999999997
 30
0.0
 11
-0.5829999999999984
 21
0.163999999999997
 31
0.0
  0
LINE
  5
2774B59CE724F9A3
330
1063C03AE4E6B6FD
100
AcDbEntity
  8
COMP
100
AcDbLine
 10
-0.6829999999999999
 20
0.2319999999999966
 30
0.0
 11
-0.6829999999999999
 21
0.1609999999999969
 31
0.0
  0
LINE
  5
2774B59CE724F9A2
330
1063C03AE4E6B6FD
100
AcDbEntity
  8
COMP
100
AcDbLine
 10
-0.7160000000000011
 20
0.1609999999999969
 30
0.0
 11
-0.7160000000000011
 21
0.2319999999999966
 31
0.0
  0
LINE
  5
2774B59CE724F9A0
330
1063C03AE4E6B6FD
100
AcDbEntity
  8
COMP
100
AcDbLine
 10
-0.7160000000000011
 20
0.2319999999999966
 30
0.0
 11
-0.6829999999999999
 21
0.2319999999999966
 31
0.0
  0
LINE
  5
2774B59CE724F99F
330
1063C03AE4E6B6FD
100
AcDbEntity
  8
COMP
100
AcDbLine
 10
-0.6829999999999999
 20
0.1609999999999969
 30
0.0
 11
-0.7160000000000011
 21
0.1609999999999969
 31
0.0
  0
LINE
  5
2774B59CE724F99E
330
1063C03AE4E6B6FD
100
AcDbEntity
  8
COMP
100
AcDbLine
 10
-0.7160000000000011
 20
0.1869999999999967
 30
0.0
 11
-0.6829999999999999
 21
0.1869999999999967
 31
0.0
  0
LINE
  5
2774B59CE724F99D
330
1063C03AE4E6B6FD
100
AcDbEntity
  8
COMP
100
AcDbLine
 10
-0.7160000000000011
 20
0.1829999999999972
 30
0.0
 11
-0.6829999999999999
 21
0.1829999999999972
 31
0.0
  0
LINE
  5
2774B59CE724F99C
330
1063C03AE4E6B6FD
100
AcDbEntity
  8
COMP
100
AcDbLine
 10
-0.7160000000000011
 20
0.1789999999999967
 30
0.0
 11
-0.6829999999999999
 21
0.1789999999999967
 31
0.0
  0
LINE
  5
2774B59CE724F99B
330
1063C03AE4E6B6FD
100
AcDbEntity
  8
COMP
100
AcDbLine
 10
-0.7160000000000011
 20
0.1749999999999963
 30
0.0
 11
-0.6829999999999999
 21
0.1749999999999963
 31
0.0
  0
LINE
  5
2774B59CE724F99A
330
1063C03AE4E6B6FD
100
AcDbEntity
  8
COMP
100
AcDbLine
 10
-0.7160000000000011
 20
0.1709999999999967
 30
0.0
 11
-0.6829999999999999
 21
0.1709999999999967
 31
0.0
  0
LINE
  5
2774B59CE724F999
330
1063C03AE4E6B6FD
100
AcDbEntity
  8
COMP
100
AcDbLine
 10
-0.7160000000000011
 20
0.1669999999999971
 30
0.0
 11
-0.6829999999999999
 21
0.1669999999999971
 31
0.0
  0
LINE
  5
2774B59CE724F998
330
1063C03AE4E6B6FD
100
AcDbEntity
  8
COMP
100
AcDbLine
 10
-0.7160000000000011
 20
0.163999999999997
 30
0.0
 11
-0.6829999999999999
 21
0.163999999999997
 31
0.0
  0
LINE
  5
2774B59CE724F8DB
330
1063C03AE4E6B6FD
100
AcDbEntity
  8
COMP
100
AcDbLine
 10
-0.4320000000000022
 20
0.1259999999999968
 30
0.0
 11
-0.3680000000000021
 21
0.1259999999999968
 31
0.0
  0
LINE
  5
2774B59CE724F8D8
330
1063C03AE4E6B6FD
100
AcDbEntity
  8
COMP
100
AcDbLine
 10
-0.5319999999999965
 20
0.1259999999999968
 30
0.0
 11
-0.4679999999999965
 21
0.1259999999999968
 31
0.0
  0
LINE
  5
2774B59CE724F8D7
330
1063C03AE4E6B6FD
100
AcDbEntity
  8
COMP
100
AcDbLine
 10
-0.6319999999999979
 20
0.1259999999999968
 30
0.0
 11
-0.5679999999999979
 21
0.1259999999999968
 31
0.0
  0
LINE
  5
2774B59CE724F8D6
330
1063C03AE4E6B6FD
100
AcDbEntity
  8
COMP
100
AcDbLine
 10
-0.7319999999999994
 20
0.1259999999999968
 30
0.0
 11
-0.6679999999999993
 21
0.1259999999999968
 31
0.0
  0
LINE
  5
2774B59CE724F9E2
330
1063C03AE4E6B6FD
100
AcDbEntity
  8
COMP
100
AcDbLine
 10
-0.0830000000000055
 20
0.2319999999999966
 30
0.0
 11
-0.0830000000000055
 21
0.1609999999999969
 31
0.0
  0
LINE
  5
2774B59CE724F9E0
330
1063C03AE4E6B6FD
100
AcDbEntity
  8
COMP
100
AcDbLine
 10
-0.1160000000000068
 20
0.1609999999999969
 30
0.0
 11
-0.1160000000000068
 21
0.2319999999999966
 31
0.0
  0
LINE
  5
2774B59CE724F9DF
330
1063C03AE4E6B6FD
100
AcDbEntity
  8
COMP
100
AcDbLine
 10
-0.1829999999999998
 20
0.2319999999999966
 30
0.0
 11
-0.1829999999999998
 21
0.1609999999999969
 31
0.0
  0
LINE
  5
2774B59CE724F9DE
330
1063C03AE4E6B6FD
100
AcDbEntity
  8
COMP
100
AcDbLine
 10
-0.2160000000000011
 20
0.1609999999999969
 30
0.0
 11
-0.2160000000000011
 21
0.2319999999999966
 31
0.0
  0
LINE
  5
2774B59CE724F9DC
330
1063C03AE4E6B6FD
100
AcDbEntity
  8
COMP
100
AcDbLine
 10
-0.2160000000000011
 20
0.2319999999999966
 30
0.0
 11
-0.1829999999999998
 21
0.2319999999999966
 31
0.0
  0
LINE
  5
2774B59CE724F9DB
330
1063C03AE4E6B6FD
100
AcDbEntity
  8
COMP
100
AcDbLine
 10
-0.1829999999999998
 20
0.1609999999999969
 30
0.0
 11
-0.2160000000000011
 21
0.1609999999999969
 31
0.0
  0
LINE
  5
2774B59CE724F9DA
330
1063C03AE4E6B6FD
100
AcDbEntity
  8
COMP
100
AcDbLine
 10
-0.2160000000000011
 20
0.1869999999999967
 30
0.0
 11
-0.1829999999999998
 21
0.1869999999999967
 31
0.0
  0
LINE
  5
2774B59CE724F9D9
330
1063C03AE4E6B6FD
100
AcDbEntity
  8
COMP
100
AcDbLine
 10
-0.2160000000000011
 20
0.1829999999999972
 30
0.0
 11
-0.1829999999999998
 21
0.1829999999999972
 31
0.0
  0
LINE
  5
2774B59CE724F9D8
330
1063C03AE4E6B6FD
100
AcDbEntity
  8
COMP
100
AcDbLine
 10
-0.2160000000000011
 20
0.1789999999999967
 30
0.0
 11
-0.1829999999999998
 21
0.1789999999999967
 31
0.0
  0
LINE
  5
2774B59CE724F9D7
330
1063C03AE4E6B6FD
100
AcDbEntity
  8
COMP
100
AcDbLine
 10
-0.2160000000000011
 20
0.1749999999999963
 30
0.0
 11
-0.1829999999999998
 21
0.1749999999999963
 31
0.0
  0
LINE
  5
2774B59CE724F9D6
330
1063C03AE4E6B6FD
100
AcDbEntity
  8
COMP
100
AcDbLine
 10
-0.2160000000000011
 20
0.1709999999999967
 30
0.0
 11
-0.1829999999999998
 21
0.1709999999999967
 31
0.0
  0
LINE
  5
2774B59CE724F9D5
330
1063C03AE4E6B6FD
100
AcDbEntity
  8
COMP
100
AcDbLine
 10
-0.2160000000000011
 20
0.1669999999999971
 30
0.0
 11
-0.1829999999999998
 21
0.1669999999999971
 31
0.0
  0
LINE
  5
2774B59CE724F9D4
330
1063C03AE4E6B6FD
100
AcDbEntity
  8
COMP
100
AcDbLine
 10
-0.2160000000000011
 20
0.163999999999997
 30
0.0
 11
-0.1829999999999998
 21
0.163999999999997
 31
0.0
  0
LINE
  5
2774B59CE724F9D3
330
1063C03AE4E6B6FD
100
AcDbEntity
  8
COMP
100
AcDbLine
 10
-0.2830000000000012
 20
0.2319999999999966
 30
0.0
 11
-0.2830000000000012
 21
0.1609999999999969
 31
0.0
  0
LINE
  5
2774B59CE724F9D2
330
1063C03AE4E6B6FD
100
AcDbEntity
  8
COMP
100
AcDbLine
 10
-0.3160000000000025
 20
0.1609999999999969
 30
0.0
 11
-0.3160000000000025
 21
0.2319999999999966
 31
0.0
  0
LINE
  5
2774B59CE724F9D0
330
1063C03AE4E6B6FD
100
AcDbEntity
  8
COMP
100
AcDbLine
 10
-0.3160000000000025
 20
0.2319999999999966
 30
0.0
 11
-0.2830000000000012
 21
0.2319999999999966
 31
0.0
  0
LINE
  5
2774B59CE724F9CF
330
1063C03AE4E6B6FD
100
AcDbEntity
  8
COMP
100
AcDbLine
 10
-0.2830000000000012
 20
0.1609999999999969
 30
0.0
 11
-0.3160000000000025
 21
0.1609999999999969
 31
0.0
  0
LINE
  5
2774B59CE724F9CE
330
1063C03AE4E6B6FD
100
AcDbEntity
  8
COMP
100
AcDbLine
 10
-0.3160000000000025
 20
0.1869999999999967
 30
0.0
 11
-0.2830000000000012
 21
0.1869999999999967
 31
0.0
  0
LINE
  5
2774B59CE724F9CD
330
1063C03AE4E6B6FD
100
AcDbEntity
  8
COMP
100
AcDbLine
 10
-0.3160000000000025
 20
0.1829999999999972
 30
0.0
 11
-0.2830000000000012
 21
0.1829999999999972
 31
0.0
  0
LINE
  5
2774B59CE724F9CC
330
1063C03AE4E6B6FD
100
AcDbEntity
  8
COMP
100
AcDbLine
 10
-0.3160000000000025
 20
0.1789999999999967
 30
0.0
 11
-0.2830000000000012
 21
0.1789999999999967
 31
0.0
  0
LINE
  5
2774B59CE724F9CB
330
1063C03AE4E6B6FD
100
AcDbEntity
  8
COMP
100
AcDbLine
 10
-0.3160000000000025
 20
0.1749999999999963
 30
0.0
 11
-0.2830000000000012
 21
0.1749999999999963
 31
0.0
  0
LINE
  5
2774B59CE724F9CA
330
1063C03AE4E6B6FD
100
AcDbEntity
  8
COMP
100
AcDbLine
 10
-0.3160000000000025
 20
0.1709999999999967
 30
0.0
 11
-0.2830000000000012
 21
0.1709999999999967
 31
0.0
  0
LINE
  5
2774B59CE724F9C9
330
1063C03AE4E6B6FD
100
AcDbEntity
  8
COMP
100
AcDbLine
 10
-0.3160000000000025
 20
0.1669999999999971
 30
0.0
 11
-0.2830000000000012
 21
0.1669999999999971
 31
0.0
  0
LINE
  5
2774B59CE724F9C8
330
1063C03AE4E6B6FD
100
AcDbEntity
  8
COMP
100
AcDbLine
 10
-0.3160000000000025
 20
0.163999999999997
 30
0.0
 11
-0.2830000000000012
 21
0.163999999999997
 31
0.0
  0
LINE
  5
2774B59CE724F987
330
1063C03AE4E6B6FD
100
AcDbEntity
  8
COMP
100
AcDbLine
 10
-0.1160000000000068
 20
0.2319999999999966
 30
0.0
 11
-0.0830000000000055
 21
0.2319999999999966
 31
0.0
  0
LINE
  5
2774B59CE724F986
330
1063C03AE4E6B6FD
100
AcDbEntity
  8
COMP
100
AcDbLine
 10
-0.0830000000000055
 20
0.1609999999999969
 30
0.0
 11
-0.1160000000000068
 21
0.1609999999999969
 31
0.0
  0
LINE
  5
2774B59CE724F985
330
1063C03AE4E6B6FD
100
AcDbEntity
  8
COMP
100
AcDbLine
 10
-0.1160000000000068
 20
0.1869999999999967
 30
0.0
 11
-0.0830000000000055
 21
0.1869999999999967
 31
0.0
  0
LINE
  5
2774B59CE724F984
330
1063C03AE4E6B6FD
100
AcDbEntity
  8
COMP
100
AcDbLine
 10
-0.1160000000000068
 20
0.1829999999999972
 30
0.0
 11
-0.0830000000000055
 21
0.1829999999999972
 31
0.0
  0
LINE
  5
2774B59CE724F983
330
1063C03AE4E6B6FD
100
AcDbEntity
  8
COMP
100
AcDbLine
 10
-0.1160000000000068
 20
0.1789999999999967
 30
0.0
 11
-0.0830000000000055
 21
0.1789999999999967
 31
0.0
  0
LINE
  5
2774B59CE724F982
330
1063C03AE4E6B6FD
100
AcDbEntity
  8
COMP
100
AcDbLine
 10
-0.1160000000000068
 20
0.1749999999999963
 30
0.0
 11
-0.0830000000000055
 21
0.1749999999999963
 31
0.0
  0
LINE
  5
2774B59CE724F981
330
1063C03AE4E6B6FD
100
AcDbEntity
  8
COMP
100
AcDbLine
 10
-0.1160000000000068
 20
0.1709999999999967
 30
0.0
 11
-0.0830000000000055
 21
0.1709999999999967
 31
0.0
  0
LINE
  5
2774B59CE724F980
330
1063C03AE4E6B6FD
100
AcDbEntity
  8
COMP
100
AcDbLine
 10
-0.1160000000000068
 20
0.1669999999999971
 30
0.0
 11
-0.0830000000000055
 21
0.1669999999999971
 31
0.0
  0
LINE
  5
2774B59CE724F97F
330
1063C03AE4E6B6FD
100
AcDbEntity
  8
COMP
100
AcDbLine
 10
-0.1160000000000068
 20
0.163999999999997
 30
0.0
 11
-0.0830000000000055
 21
0.163999999999997
 31
0.0
  0
LWPOLYLINE
  5
2774B59CE724F8DC
330
1063C03AE4E6B6FD
100
AcDbEntity
  8
COMP
100
AcDbPolyline
 90
        2
 70
     1
 43
0.005
 10
0.0
 20
0.0024999999999995
 42
1.0
 10
0.0
 20
-0.0024999999999995
 42
1.0
  0
LINE
  5
2774B59CE724F8DA
330
1063C03AE4E6B6FD
100
AcDbEntity
  8
COMP
100
AcDbLine
 10
-0.2319999999999993
 20
0.1259999999999968
 30
0.0
 11
-0.1679999999999993
 21
0.1259999999999968
 31
0.0
  0
LINE
  5
2774B59CE724F8D9
330
1063C03AE4E6B6FD
100
AcDbEntity
  8
COMP
100
AcDbLine
 10
-0.3320000000000007
 20
0.1259999999999968
 30
0.0
 11
-0.2680000000000007
 21
0.1259999999999968
 31
0.0
  0
LINE
  5
2774B59CE724F8C8
330
1063C03AE4E6B6FD
100
AcDbEntity
  8
COMP
100
AcDbLine
 10
-0.132000000000005
 20
0.1259999999999968
 30
0.0
 11
-0.068000000000005
 21
0.1259999999999968
 31
0.0
  0
LINE
  5
2774B59CE724F9E1
330
1063C03AE4E6B6FD
100
AcDbEntity
  8
COMP
100
AcDbLine
 10
-0.3680000000000021
 20
0.2639999999999967
 30
0.0
 11
-0.4320000000000022
 21
0.2639999999999967
 31
0.0
  0
LINE
  5
2774B59CE724F9B9
330
1063C03AE4E6B6FD
100
AcDbEntity
  8
COMP
100
AcDbLine
 10
-0.4679999999999965
 20
0.2639999999999967
 30
0.0
 11
-0.5319999999999965
 21
0.2639999999999967
 31
0.0
  0
LINE
  5
2774B59CE724F9AD
330
1063C03AE4E6B6FD
100
AcDbEntity
  8
COMP
100
AcDbLine
 10
-0.5679999999999979
 20
0.2639999999999967
 30
0.0
 11
-0.6319999999999979
 21
0.2639999999999967
 31
0.0
  0
LINE
  5
2774B59CE724F9A1
330
1063C03AE4E6B6FD
100
AcDbEntity
  8
COMP
100
AcDbLine
 10
-0.6679999999999993
 20
0.2639999999999967
 30
0.0
 11
-0.7319999999999994
 21
0.2639999999999967
 31
0.0
  0
LWPOLYLINE
  5
2774B59CE724F9E3
330
1063C03AE4E6B6FD
100
AcDbEntity
  8
COMP
100
AcDbPolyline
 90
        2
 70
     1
 43
0.005
 10
0.0
 20
0.4024999999999999
 42
1.0
 10
0.0
 20
0.3975
 42
1.0
  0
LINE
  5
2774B59CE724F9DD
330
1063C03AE4E6B6FD
100
AcDbEntity
  8
COMP
100
AcDbLine
 10
-0.1679999999999993
 20
0.2639999999999967
 30
0.0
 11
-0.2319999999999993
 21
0.2639999999999967
 31
0.0
  0
LINE
  5
2774B59CE724F9D1
330
1063C03AE4E6B6FD
100
AcDbEntity
  8
COMP
100
AcDbLine
 10
-0.2680000000000007
 20
0.2639999999999967
 30
0.0
 11
-0.3320000000000007
 21
0.2639999999999967
 31
0.0
  0
LINE
  5
2774B59CE724F988
330
1063C03AE4E6B6FD
100
AcDbEntity
  8
COMP
100
AcDbLine
 10
-0.068000000000005
 20
0.2639999999999967
 30
0.0
 11
-0.132000000000005
 21
0.2639999999999967
 31
0.0
  0
ENDBLK
  5
EF6DFB5ED78D8D7A
330
1063C03AE4E6B6FD
100
AcDbEntity
  8
0
100
AcDbBlockEnd
  0
BLOCK
  5
7B6FDAF6BC6C6BFC
330
1063C03AE4E6B6FF
100
AcDbEntity
  8
0
100
AcDbBlockBegin
  2
ACAD3267
 70
     0
 10
0.0
 20
0.0
 30
0.0
  3
ACAD3267
  1

  0
LWPOLYLINE
  5
AB2D92E437CAA113
330
1063C03AE4E6B6FF
100
AcDbEntity
  8
COMP
100
AcDbPolyline
 90
        2
 70
     1
 43
0.036
 10
0.0
 20
0.0179999999999989
 42
1.0
 10
0.0
 20
-0.0180000000000007
 42
1.0
  0
LWPOLYLINE
  5
AB2D92E437CAA11B
330
1063C03AE4E6B6FF
100
AcDbEntity
  8
COMP
100
AcDbPolyline
 90
        2
 70
     1
 43
0.036
 10
-0.1090000000000018
 20
0.0179999999999989
 42
1.0
 10
-0.1090000000000018
 20
-0.0180000000000007
 42
1.0
  0
LWPOLYLINE
  5
AB2D92E437CAA117
330
1063C03AE4E6B6FF
100
AcDbEntity
  8
COMP
100
AcDbPolyline
 90
        2
 70
     1
 43
0.036
 10
-0.2180000000000035
 20
0.0179999999999989
 42
1.0
 10
-0.2180000000000035
 20
-0.0180000000000007
 42
1.0
  0
LWPOLYLINE
  5
AB2D92E437CAA10F
330
1063C03AE4E6B6FF
100
AcDbEntity
  8
COMP
100
AcDbPolyline
 90
        2
 70
     1
 43
0.085
 10
0.2739999999999938
 20
-0.0170000000000013
 42
1.0
 10
0.2739999999999938
 20
-0.1010000000000009
 42
1.0
  0
LINE
  5
AB2D92E437CAA0F3
330
1063C03AE4E6B6FF
100
AcDbEntity
  8
COMP
100
AcDbLine
 10
0.090999999999994
 20
0.0759999999999987
 30
0.0
 11
0.0349999999999966
 21
-0.1920000000000002
 31
0.0
  0
SOLID
  5
AB2D92E437CAA0EE
330
1063C03AE4E6B6FF
100
AcDbEntity
  8
COMP
100
AcDbTrace
 10
-0.4720000000000013
 20
0.0359999999999996
 30
0.0
 11
-0.4720000000000013
 21
-0.0360000000000014
 31
0.0
 12
-0.4000000000000057
 22
0.0359999999999996
 32
0.0
 13
-0.4000000000000057
 23
-0.0360000000000014
 33
0.0
  0
LWPOLYLINE
  5
AB2D92E437CAA0EA
330
1063C03AE4E6B6FF
100
AcDbEntity
  8
COMP
100
AcDbPolyline
 90
        2
 70
     1
 43
0.085
 10
-0.7100000000000009
 20
-0.0170000000000013
 42
1.0
 10
-0.7100000000000009
 20
-0.1010000000000009
 42
1.0
  0
LINE
  5
AB2D92E437CAA0D5
330
1063C03AE4E6B6FF
100
AcDbEntity
  8
COMP
100
AcDbLine
 10
-0.5270000000000011
 20
0.0759999999999987
 30
0.0
 11
-0.4710000000000037
 21
-0.1920000000000002
 31
0.0
  0
LWPOLYLINE
  5
AB2D92E437CAA0CF
330
1063C03AE4E6B6FF
100
AcDbEntity
  8
COMP
100
AcDbPolyline
 90
        2
 70
     1
 43
0.036
 10
-0.3270000000000053
 20
0.0179999999999989
 42
1.0
 10
-0.3270000000000053
 20
-0.0180000000000007
 42
1.0
  0
LWPOLYLINE
  5
AB2D92E437CAA0C8
330
1063C03AE4E6B6FF
100
AcDbEntity
  8
COMP
100
AcDbPolyline
 90
        5
 70
     1
 43
0.01
 10
0.3889999999999958
 20
0.1909999999999989
 10
0.3889999999999958
 20
-0.3030000000000008
 10
-0.8250000000000028
 20
-0.3030000000000008
 10
-0.8250000000000028
 20
0.1909999999999989
 10
0.3889999999999958
 20
0.1909999999999989
  0
LWPOLYLINE
  5
AB2D92E437CAA0E6
330
1063C03AE4E6B6FF
100
AcDbEntity
  8
COMP
100
AcDbPolyline
 90
        2
 70
     1
 43
0.005
 10
-0.8250000000000028
 20
-0.3005000000000013
 42
1.0
 10
-0.8250000000000028
 20
-0.3055000000000003
 42
1.0
  0
LINE
  5
AB2D92E437CAA0D3
330
1063C03AE4E6B6FF
100
AcDbEntity
  8
COMP
100
AcDbLine
 10
-0.4710000000000037
 20
-0.1920000000000002
 30
0.0
 11
0.0349999999999966
 21
-0.1920000000000002
 31
0.0
  0
LWPOLYLINE
  5
AB2D92E437CAA0C4
330
1063C03AE4E6B6FF
100
AcDbEntity
  8
COMP
100
AcDbPolyline
 90
        2
 70
     1
 43
0.036
 10
-0.382000000000005
 20
-0.0940000000000012
 42
1.0
 10
-0.382000000000005
 20
-0.1300000000000008
 42
1.0
  0
LWPOLYLINE
  5
AB2D92E437CAA127
330
1063C03AE4E6B6FF
100
AcDbEntity
  8
COMP
100
AcDbPolyline
 90
        2
 70
     1
 43
0.036
 10
-0.0549999999999997
 20
-0.0940000000000012
 42
1.0
 10
-0.0549999999999997
 20
-0.1300000000000008
 42
1.0
  0
LWPOLYLINE
  5
AB2D92E437CAA123
330
1063C03AE4E6B6FF
100
AcDbEntity
  8
COMP
100
AcDbPolyline
 90
        2
 70
     1
 43
0.036
 10
-0.2730000000000032
 20
-0.0940000000000012
 42
1.0
 10
-0.2730000000000032
 20
-0.1300000000000008
 42
1.0
  0
LWPOLYLINE
  5
AB2D92E437CAA11F
330
1063C03AE4E6B6FF
100
AcDbEntity
  8
COMP
100
AcDbPolyline
 90
        2
 70
     1
 43
0.036
 10
-0.1640000000000015
 20
-0.0940000000000012
 42
1.0
 10
-0.1640000000000015
 20
-0.1300000000000008
 42
1.0
  0
LWPOLYLINE
  5
AB2D92E437CAA10A
330
1063C03AE4E6B6FF
100
AcDbEntity
  8
COMP
100
AcDbPolyline
 90
        2
 70
     1
 43
0.005
 10
0.3889999999999958
 20
-0.3005000000000013
 42
1.0
 10
0.3889999999999958
 20
-0.3055000000000003
 42
1.0
  0
LINE
  5
AB2D92E437CAA0D4
330
1063C03AE4E6B6FF
100
AcDbEntity
  8
COMP
100
AcDbLine
 10
-0.5270000000000011
 20
0.0759999999999987
 30
0.0
 11
0.090999999999994
 21
0.0759999999999987
 31
0.0
  0
LWPOLYLINE
  5
AB2D92E437CAA0EF
330
1063C03AE4E6B6FF
100
AcDbEntity
  8
COMP
100
AcDbPolyline
 90
        2
 70
     1
 43
0.005
 10
-0.8250000000000028
 20
0.1935000000000002
 42
1.0
 10
-0.8250000000000028
 20
0.1884999999999994
 42
1.0
  0
LWPOLYLINE
  5
AB2D92E437CAA147
330
1063C03AE4E6B6FF
100
AcDbEntity
  8
COMP
100
AcDbPolyline
 90
        2
 70
     1
 43
0.005
 10
0.3889999999999958
 20
0.1935000000000002
 42
1.0
 10
0.3889999999999958
 20
0.1884999999999994
 42
1.0
  0
LWPOLYLINE
  5
AB2D92E437CAA143
330
1063C03AE4E6B6FF
100
AcDbEntity
  8
COMP
100
AcDbPolyline
 90
        2
 70
     1
 43
0.005
 10
0.3889999999999958
 20
0.1935000000000002
 42
1.0
 10
0.3889999999999958
 20
0.1884999999999994
 42
1.0
  0
ENDBLK
  5
F6DFB5ED78D8D7FA
330
1063C03AE4E6B6FF
100
AcDbEntity
  8
0
100
AcDbBlockEnd
  0
BLOCK
  5
F7B6FDAF6BC6DE10
330
F7B6FDAF6BC6DDFF
100
AcDbEntity
  8
0
100
AcDbBlockBegin
  2
A$C36705F33
 70
     0
 10
0.0
 20
0.0
 30
0.0
  3
A$C36705F33
  1

  0
LWPOLYLINE
  5
F7B6FDAF6BC6DE00
330
F7B6FDAF6BC6DDFF
100
AcDbEntity
  8
COMP
100
AcDbPolyline
 90
        6
 70
     1
 43
0.001
 10
-61.8100000310297
 20
-7.867499991848688
 10
-61.7500000310297
 20
-7.867499991848688
 10
-61.7500000310297
 20
-8.577499991848689
 10
-62.3900000310297
 20
-8.577499991848689
 10
-62.3900000310297
 20
-7.867499991848688
 10
-61.8100000310297
 20
-7.867499991848688
  0
LINE
  5
F7B6FDAF6BC6DE01
330
F7B6FDAF6BC6DDFF
100
AcDbEntity
  8
COMP
100
AcDbLine
 10
-62.1500000310297
 20
-7.863099991848688
 30
0.0
 11
-62.1500000310297
 21
-8.000099991848689
 31
0.0
  0
LINE
  5
F7B6FDAF6BC6DE02
330
F7B6FDAF6BC6DDFF
100
AcDbEntity
  8
COMP
100
AcDbLine
 10
-61.9900000310297
 20
-8.000099991848689
 30
0.0
 11
-61.9900000310297
 21
-7.863099991848688
 31
0.0
  0
LINE
  5
F7B6FDAF6BC6DE03
330
F7B6FDAF6BC6DDFF
100
AcDbEntity
  8
COMP
100
AcDbLine
 10
-62.33000003102969
 20
-8.038099991848689
 30
0.0
 11
-62.33000003102969
 21
-8.381099991848689
 31
0.0
  0
LINE
  5
F7B6FDAF6BC6DE04
330
F7B6FDAF6BC6DDFF
100
AcDbEntity
  8
COMP
100
AcDbLine
 10
-62.19000003102969
 20
-8.038099991848689
 30
0.0
 11
-62.33000003102969
 21
-8.038099991848689
 31
0.0
  0
LINE
  5
F7B6FDAF6BC6DE05
330
F7B6FDAF6BC6DDFF
100
AcDbEntity
  8
COMP
100
AcDbLine
 10
-62.19000003102969
 20
-8.000099991848689
 30
0.0
 11
-62.19000003102969
 21
-8.038099991848689
 31
0.0
  0
LINE
  5
F7B6FDAF6BC6DE06
330
F7B6FDAF6BC6DDFF
100
AcDbEntity
  8
COMP
100
AcDbLine
 10
-62.1500000310297
 20
-8.000099991848689
 30
0.0
 11
-62.19000003102969
 21
-8.000099991848689
 31
0.0
  0
LINE
  5
F7B6FDAF6BC6DE07
330
F7B6FDAF6BC6DDFF
100
AcDbEntity
  8
COMP
100
AcDbLine
 10
-61.9500000310297
 20
-8.000099991848689
 30
0.0
 11
-61.9900000310297
 21
-8.000099991848689
 31
0.0
  0
LINE
  5
F7B6FDAF6BC6DE08
330
F7B6FDAF6BC6DDFF
100
AcDbEntity
  8
COMP
100
AcDbLine
 10
-61.9500000310297
 20
-8.038099991848689
 30
0.0
 11
-61.9500000310297
 21
-8.000099991848689
 31
0.0
  0
LINE
  5
F7B6FDAF6BC6DE09
330
F7B6FDAF6BC6DDFF
100
AcDbEntity
  8
COMP
100
AcDbLine
 10
-61.8100000310297
 20
-8.038099991848689
 30
0.0
 11
-61.9500000310297
 21
-8.038099991848689
 31
0.0
  0
LINE
  5
F7B6FDAF6BC6DE0A
330
F7B6FDAF6BC6DDFF
100
AcDbEntity
  8
COMP
100
AcDbLine
 10
-61.8100000310297
 20
-8.381099991848689
 30
0.0
 11
-61.8100000310297
 21
-8.038099991848689
 31
0.0
  0
LINE
  5
F7B6FDAF6BC6DE0B
330
F7B6FDAF6BC6DDFF
100
AcDbEntity
  8
COMP
100
AcDbLine
 10
-61.9180000310297
 20
-8.381099991848689
 30
0.0
 11
-61.8100000310297
 21
-8.381099991848689
 31
0.0
  0
LINE
  5
F7B6FDAF6BC6DE0C
330
F7B6FDAF6BC6DDFF
100
AcDbEntity
  8
COMP
100
AcDbLine
 10
-61.9180000310297
 20
-8.507099991848688
 30
0.0
 11
-61.9180000310297
 21
-8.381099991848689
 31
0.0
  0
LINE
  5
F7B6FDAF6BC6DE0D
330
F7B6FDAF6BC6DDFF
100
AcDbEntity
  8
COMP
100
AcDbLine
 10
-62.2220000310297
 20
-8.507099991848688
 30
0.0
 11
-61.9180000310297
 21
-8.507099991848688
 31
0.0
  0
LINE
  5
F7B6FDAF6BC6DE0E
330
F7B6FDAF6BC6DDFF
100
AcDbEntity
  8
COMP
100
AcDbLine
 10
-62.2220000310297
 20
-8.381099991848689
 30
0.0
 11
-62.2220000310297
 21
-8.507099991848688
 31
0.0
  0
LINE
  5
F7B6FDAF6BC6DE0F
330
F7B6FDAF6BC6DDFF
100
AcDbEntity
  8
COMP
100
AcDbLine
 10
-62.33000003102969
 20
-8.381099991848689
 30
0.0
 11
-62.2220000310297
 21
-8.381099991848689
 31
0.0
  0
ENDBLK
  5
F7B6FDAF6BC6DE11
330
F7B6FDAF6BC6DDFF
100
AcDbEntity
  8
0
100
AcDbBlockEnd
  0
ENDSEC
  0
SECTION
  2
ENTITIES
  0
LINE
  5
42F
330
1063C03AE4E6B6F0
100
AcDbEntity
  8
CASE
100
AcDbLine
 10
77.31974532538763
 20
3.8082843472781
 30
0.0
 11
77.31974532538763
 21
11.55828434727809
 31
0.0
  0
LINE
  5
430
330
1063C03AE4E6B6F0
100
AcDbEntity
  8
CASE
100
AcDbLine
 10
70.31974532538763
 20
3.8082843472781
 30
0.0
 11
70.31974532538763
 21
11.55828434727809
 31
0.0
  0
INSERT
  5
431
330
1063C03AE4E6B6F0
100
AcDbEntity
  8
CASE
100
AcDbBlockReference
  2
ACAD0626
 10
70.56974532538763
 20
4.558392918706665
 30
0.0
 50
270.0
  0
INSERT
  5
432
330
1063C03AE4E6B6F0
100
AcDbEntity
  8
CASE
100
AcDbBlockReference
  2
ACAD006E
 10
77.06974532538763
 20
4.558392918706665
 30
0.0
 50
270.0
  0
LINE
  5
433
330
1063C03AE4E6B6F0
100
AcDbEntity
  8
CASE
100
AcDbLine
 10
76.81974532538763
 20
3.683284347278096
 30
0.0
 11
76.81974532538763
 21
11.68328434727809
 31
0.0
  0
LINE
  5
434
330
1063C03AE4E6B6F0
100
AcDbEntity
  8
CASE
100
AcDbLine
 10
70.81974532538763
 20
3.683284347278096
 30
0.0
 11
70.81974532538763
 21
11.68328434727809
 31
0.0
  0
LINE
  5
465
330
1063C03AE4E6B6F0
100
AcDbEntity
  8
CASE
100
AcDbLine
 10
77.19474532538763
 20
3.683284347278096
 30
0.0
 11
70.44474532538763
 21
3.683284347278096
 31
0.0
  0
ARC
  5
4AC
330
1063C03AE4E6B6F0
100
AcDbEntity
  8
CASE
100
AcDbCircle
 10
70.44474532538763
 20
3.808284347278098
 30
0.0
 40
0.1250000000000015
100
AcDbArc
 50
179.999999999999
 51
269.999999999999
  0
ARC
  5
54E
330
1063C03AE4E6B6F0
100
AcDbEntity
  8
CASE
100
AcDbCircle
 10
77.19474532538763
 20
3.808284347278098
 30
0.0
 40
0.1250000000000018
100
AcDbArc
 50
270.0000000000008
 51
0.0000000000008142
  0
LINE
  5
556
330
1063C03AE4E6B6F0
100
AcDbEntity
  8
CASE
100
AcDbLine
 10
77.19474532538763
 20
11.68328434727809
 30
0.0
 11
70.44474532538763
 21
11.68328434727809
 31
0.0
  0
INSERT
  5
568
330
1063C03AE4E6B6F0
100
AcDbEntity
  8
CASE
100
AcDbBlockReference
  2
ACAD1C6F
 10
70.56974532538763
 20
11.30828434727809
 30
0.0
 50
270.0
  0
ARC
  5
57C
330
1063C03AE4E6B6F0
100
AcDbEntity
  8
CASE
100
AcDbCircle
 10
70.44474532538763
 20
11.55828434727809
 30
0.0
 40
0.1249999999999982
100
AcDbArc
 50
89.9999999999992
 51
179.9999999999991
  0
INSERT
  5
587
330
1063C03AE4E6B6F0
100
AcDbEntity
  8
CASE
100
AcDbBlockReference
  2
ACAD0312
 10
77.06974532538763
 20
11.30828434727809
 30
0.0
 50
270.0
  0
ARC
  5
592
330
1063C03AE4E6B6F0
100
AcDbEntity
  8
CASE
100
AcDbCircle
 10
77.19474532538763
 20
11.55828434727809
 30
0.0
 40
0.1249999999999982
100
AcDbArc
 50
0.0000000000007888
 51
90.00000000000078
  0
LINE
  5
8C701EB
330
1063C03AE4E6B6F0
100
AcDbEntity
  8
LABELDIM
100
AcDbLine
 10
74.79474532538763
 20
11.65828434727809
 30
0.0
 11
76.24474532538764
 21
11.65828434727809
 31
0.0
  0
LINE
  5
8C701EF
330
1063C03AE4E6B6F0
100
AcDbEntity
  8
LABELDIM
100
AcDbLine
 10
71.39474532538763
 20
4.240784347278095
 30
0.0
 11
76.24474532538764
 21
4.240784347278095
 31
0.0
  0
CIRCLE
  5
8C701F3
330
1063C03AE4E6B6F0
100
AcDbEntity
  8
LABELDIM
100
AcDbCircle
 10
71.51174532538762
 20
6.414784347278092
 30
0.0
 40
0.0390000000000015
  0
LINE
  5
8C701F4
330
1063C03AE4E6B6F0
100
AcDbEntity
  8
LABELDIM
100
AcDbLine
 10
71.56774532538761
 20
6.358784347278091
 30
0.0
 11
71.53974532538761
 21
6.386784347278092
 31
0.0
  0
LINE
  5
8C701F5
330
1063C03AE4E6B6F0
100
AcDbEntity
  8
LABELDIM
100
AcDbLine
 10
71.56774532538761
 20
6.470784347278091
 30
0.0
 11
71.53974532538761
 21
6.442784347278092
 31
0.0
  0
LWPOLYLINE
  5
8C701F6
330
1063C03AE4E6B6F0
100
AcDbEntity
  8
LABELDIM
100
AcDbPolyline
 90
        2
 70
     1
 43
0.05
 10
71.48674532538762
 20
6.14578434727809
 42
1.0
 10
71.53674532538762
 20
6.14578434727809
 42
1.0
  0
LINE
  5
8C701FA
330
1063C03AE4E6B6F0
100
AcDbEntity
  8
LABELDIM
100
AcDbLine
 10
71.45574532538761
 20
6.358784347278091
 30
0.0
 11
71.48374532538761
 21
6.386784347278092
 31
0.0
  0
LINE
  5
8C701FB
330
1063C03AE4E6B6F0
100
AcDbEntity
  8
LABELDIM
100
AcDbLine
 10
71.45574532538761
 20
6.470784347278091
 30
0.0
 11
71.48374532538761
 21
6.442784347278092
 31
0.0
  0
TEXT
  5
8C701FD
330
1063C03AE4E6B6F0
100
AcDbEntity
  8
LABELDIM
100
AcDbText
 10
71.86795961110189
 20
6.377284347278092
 30
0.0
 40
0.075
  1
Status
  7
ADESK1
 72
     4
 11
72.0447453253876
 21
6.414784347278092
 31
0.0
100
AcDbText
  0
CIRCLE
  5
8C701FE
330
1063C03AE4E6B6F0
100
AcDbEntity
  8
LABELDIM
100
AcDbCircle
 10
71.69174532538761
 20
6.414784347278092
 30
0.0
 40
0.0390000000000015
  0
LINE
  5
8C701FF
330
1063C03AE4E6B6F0
100
AcDbEntity
  8
LABELDIM
100
AcDbLine
 10
71.74074532538762
 20
6.414784347278092
 30
0.0
 11
71.81774532538762
 21
6.414784347278092
 31
0.0
  0
LINE
  5
8C70200
330
1063C03AE4E6B6F0
100
AcDbEntity
  8
LABELDIM
100
AcDbLine
 10
71.74774532538761
 20
6.358784347278091
 30
0.0
 11
71.71974532538762
 21
6.386784347278092
 31
0.0
  0
LINE
  5
8C70201
330
1063C03AE4E6B6F0
100
AcDbEntity
  8
LABELDIM
100
AcDbLine
 10
71.63574532538762
 20
6.358784347278091
 30
0.0
 11
71.66374532538762
 21
6.386784347278092
 31
0.0
  0
LINE
  5
8C70202
330
1063C03AE4E6B6F0
100
AcDbEntity
  8
LABELDIM
100
AcDbLine
 10
71.74774532538761
 20
6.470784347278091
 30
0.0
 11
71.71974532538762
 21
6.442784347278092
 31
0.0
  0
LINE
  5
8C70203
330
1063C03AE4E6B6F0
100
AcDbEntity
  8
LABELDIM
100
AcDbLine
 10
71.63574532538762
 20
6.470784347278091
 30
0.0
 11
71.66374532538762
 21
6.442784347278092
 31
0.0
  0
TEXT
  5
8C70204
330
1063C03AE4E6B6F0
100
AcDbEntity
  8
LABELDIM
100
AcDbText
 10
71.61460246824475
 20
6.10828434727809
 30
0.0
 40
0.075
  1
Reset
  7
ADESK1
 72
     4
 11
71.77174532538761
 21
6.14578434727809
 31
0.0
100
AcDbText
  0
TEXT
  5
8C70205
330
1063C03AE4E6B6F0
100
AcDbEntity
  8
LABELDIM
100
AcDbText
 10
75.05153103967334
 20
4.434284347278095
 30
0.0
 40
0.075
  1
Network
  7
ADESK1
 72
     4
 11
75.27474532538763
 21
4.471784347278095
 31
0.0
100
AcDbText
  0
TEXT
  5
8C70206
330
1063C03AE4E6B6F0
100
AcDbEntity
  8
LABELDIM
100
AcDbText
 10
75.06224532538762
 20
4.300284347278095
 30
0.0
 40
0.075
  1
Address
  7
ADESK1
 72
     4
 11
75.27474532538763
 21
4.337784347278095
 31
0.0
100
AcDbText
  0
LWPOLYLINE
  5
8C70207
330
1063C03AE4E6B6F0
100
AcDbEntity
  8
LABELDIM
100
AcDbPolyline
 90
        3
 70
     0
 43
0.02
 10
71.39474532538763
 20
10.3217843472781
 10
72.01974532538763
 20
10.3217843472781
 10
72.01974532538763
 20
9.611284347278097
  0
LWPOLYLINE
  5
8C7020C
330
1063C03AE4E6B6F0
100
AcDbEntity
  8
LABELDIM
100
AcDbPolyline
 90
        3
 70
     0
 43
0.02
 10
72.01974532538763
 20
8.610284347278096
 10
72.01974532538763
 20
7.917784347278094
 10
71.39474532538763
 20
7.917784347278094
  0
LWPOLYLINE
  5
8C70211
330
1063C03AE4E6B6F0
100
AcDbEntity
  8
LABELDIM
100
AcDbPolyline
 90
        3
 70
     0
 43
0.02
 10
72.01974532538763
 20
7.917784347278094
 10
72.01974532538763
 20
7.917784347278094
 10
72.01974532538763
 20
7.675284347278096
  0
LWPOLYLINE
  5
8C70216
330
1063C03AE4E6B6F0
100
AcDbEntity
  8
LABELDIM
100
AcDbPolyline
 90
        3
 70
     0
 43
0.02
 10
72.01974532538763
 20
6.957284347278096
 10
72.01974532538763
 20
6.749784347278093
 10
71.39474532538763
 20
6.749784347278093
  0
LWPOLYLINE
  5
8C7021C
330
1063C03AE4E6B6F0
100
AcDbEntity
  8
LABELDIM
100
AcDbPolyline
 90
        3
 70
     0
 43
0.02
 10
72.01974532538763
 20
5.316784347278095
 10
72.01974532538763
 20
5.974784347278093
 10
71.39474532538763
 20
5.974784347278093
  0
LWPOLYLINE
  5
8C70221
330
1063C03AE4E6B6F0
100
AcDbEntity
  8
LABELDIM
100
AcDbPolyline
 90
        3
 70
     0
 43
0.02
 10
72.01974532538763
 20
4.915784347278094
 10
72.01974532538763
 20
4.251784347278092
 10
71.39474532538763
 20
4.251784347278092
  0
TEXT
  5
8C70227
330
1063C03AE4E6B6F0
100
AcDbEntity
  8
LABELDIM
100
AcDbText
 10
71.47824532538763
 20
7.573284347278096
 30
0.0
 40
0.075
  1
C
  7
ADESK1
 72
     4
 11
71.51574532538763
 21
7.610784347278095
 31
0.0
100
AcDbText
  0
TEXT
  5
8C70228
330
1063C03AE4E6B6F0
100
AcDbEntity
  8
LABELDIM
100
AcDbText
 10
71.47824532538763
 20
6.77328434727809
 30
0.0
 40
0.075
  1
C
  7
ADESK1
 72
     4
 11
71.51574532538763
 21
6.810784347278089
 31
0.0
100
AcDbText
  0
TEXT
  5
8C70229
330
1063C03AE4E6B6F0
100
AcDbEntity
  8
LABELDIM
100
AcDbText
 10
71.48003103967333
 20
6.973284347278089
 30
0.0
 40
0.075
  1
3
  7
ADESK1
 72
     4
 11
71.51574532538763
 21
7.010784347278089
 31
0.0
100
AcDbText
  0
TEXT
  5
8C7022A
330
1063C03AE4E6B6F0
100
AcDbEntity
  8
LABELDIM
100
AcDbText
 10
71.47824532538763
 20
8.973284347278092
 30
0.0
 40
0.075
  1
4
  7
ADESK1
 72
     4
 11
71.51574532538763
 21
9.010784347278091
 31
0.0
100
AcDbText
  0
TEXT
  5
8C7022B
330
1063C03AE4E6B6F0
100
AcDbEntity
  8
LABELDIM
100
AcDbText
 10
71.48538818253048
 20
7.773284347278095
 30
0.0
 40
0.075
  1
1
  7
ADESK1
 72
     4
 11
71.51574532538763
 21
7.810784347278095
 31
0.0
100
AcDbText
  0
TEXT
  5
8C7022C
330
1063C03AE4E6B6F0
100
AcDbEntity
  8
LABELDIM
100
AcDbText
 10
71.47824532538763
 20
8.773284347278092
 30
0.0
 40
0.075
  1
C
  7
ADESK1
 72
     4
 11
71.51574532538763
 21
8.810784347278092
 31
0.0
100
AcDbText
  0
TEXT
  5
8C7022D
330
1063C03AE4E6B6F0
100
AcDbEntity
  8
LABELDIM
100
AcDbText
 10
71.48003103967333
 20
9.773284347278092
 30
0.0
 40
0.075
  1
2
  7
ADESK1
 72
     4
 11
71.51574532538763
 21
9.810784347278092
 31
0.0
100
AcDbText
  0
TEXT
  5
8C7022E
330
1063C03AE4E6B6F0
100
AcDbEntity
  8
LABELDIM
100
AcDbText
 10
71.47824532538763
 20
9.573284347278093
 30
0.0
 40
0.075
  1
C
  7
ADESK1
 72
     4
 11
71.51574532538763
 21
9.610784347278093
 31
0.0
100
AcDbText
  0
TEXT
  5
8C7022F
330
1063C03AE4E6B6F0
100
AcDbEntity
  8
LABELDIM
100
AcDbText
 10
71.47824532538763
 20
9.173284347278093
 30
0.0
 40
0.075
  1
C
  7
ADESK1
 72
     4
 11
71.51574532538763
 21
9.210784347278092
 31
0.0
100
AcDbText
  0
TEXT
  5
8C70230
330
1063C03AE4E6B6F0
100
AcDbEntity
  8
LABELDIM
100
AcDbText
 10
71.48003103967333
 20
9.373284347278092
 30
0.0
 40
0.075
  1
3
  7
ADESK1
 72
     4
 11
71.51574532538763
 21
9.410784347278092
 31
0.0
100
AcDbText
  0
TEXT
  5
8C70231
330
1063C03AE4E6B6F0
100
AcDbEntity
  8
LABELDIM
100
AcDbText
 10
71.48538818253048
 20
10.17328434727809
 30
0.0
 40
0.075
  1
1
  7
ADESK1
 72
     4
 11
71.51574532538763
 21
10.21078434727809
 31
0.0
100
AcDbText
  0
TEXT
  5
8C70232
330
1063C03AE4E6B6F0
100
AcDbEntity
  8
LABELDIM
100
AcDbText
 10
71.47824532538763
 20
9.973284347278093
 30
0.0
 40
0.075
  1
C
  7
ADESK1
 72
     4
 11
71.51574532538763
 21
10.01078434727809
 31
0.0
100
AcDbText
  0
TEXT
  5
8C70234
330
1063C03AE4E6B6F0
100
AcDbEntity
  8
LABELDIM
100
AcDbText
 10
71.98974532538763
 20
9.567927204420952
 30
0.0
 40
0.075
  1
Universal Inputs
 50
270.0
  7
ADESK1
 72
     4
 11
72.01474532538764
 21
9.110784347278094
 31
0.0
100
AcDbText
  0
TEXT
  5
8C7023E
330
1063C03AE4E6B6F0
100
AcDbEntity
  8
LABELDIM
100
AcDbText
 10
72.86736437300668
 20
6.961617680611429
 30
0.0
 40
0.08
  1
Open Programmable Controller
  7
ADESK1
 72
     4
 11
73.81974532538762
 21
6.988284347278096
 31
0.0
100
AcDbText
  0
TEXT
  5
8C7023F
330
1063C03AE4E6B6F0
100
AcDbEntity
  8
LABELDIM
100
AcDbText
 10
72.9710551936996
 20
7.335656775244089
 30
0.0
 40
0.478
  1
EtherLogic
 50
30.0
  7
BRUSHSCRIPT
 72
     4
 11
73.81974532538762
 21
7.949284347278096
 31
0.0
100
AcDbText
  0
TEXT
  5
8C70240
330
1063C03AE4E6B6F0
100
AcDbEntity
  8
LABELDIM
100
AcDbText
 10
71.98974532538763
 20
7.623284347278093
 30
0.0
 40
0.075
  1
Analog Out
 50
270.0
  7
ADESK1
 72
     4
 11
72.01474532538764
 21
7.310784347278093
 31
0.0
100
AcDbText
  0
LINE
  5
8C70241
330
1063C03AE4E6B6F0
100
AcDbEntity
  8
LABELDIM
100
AcDbLine
 10
71.74978588035852
 20
7.610784347278095
 30
0.0
 11
71.74978588035852
 21
7.767517304001638
 31
0.0
  0
LINE
  5
8C70245
330
1063C03AE4E6B6F0
100
AcDbEntity
  8
LABELDIM
100
AcDbLine
 10
71.78474532538761
 20
7.010784347278089
 30
0.0
 11
71.86974532538762
 21
7.010784347278089
 31
0.0
  0
LINE
  5
8C70246
330
1063C03AE4E6B6F0
100
AcDbEntity
  8
LABELDIM
100
AcDbLine
 10
71.68474532538763
 20
7.010784347278089
 30
0.0
 11
71.78474532538761
 21
7.075784347278088
 31
0.0
  0
LINE
  5
8C70247
330
1063C03AE4E6B6F0
100
AcDbEntity
  8
LABELDIM
100
AcDbLine
 10
71.62574532538762
 20
7.010784347278089
 30
0.0
 11
71.68474532538763
 21
7.010784347278089
 31
0.0
  0
TEXT
  5
8C70248
330
1063C03AE4E6B6F0
100
AcDbEntity
  8
LABELDIM
100
AcDbText
 10
71.62490182195918
 20
7.03472479056081
 30
0.0
 40
0.06
  1
+
  7
ADESK1
 72
     4
 11
71.66204467910204
 21
7.060439076275096
 31
0.0
100
AcDbText
  0
LINE
  5
8C70249
330
1063C03AE4E6B6F0
100
AcDbEntity
  8
LABELDIM
100
AcDbLine
 10
71.62574532538762
 20
7.610784347278095
 30
0.0
 11
71.74978588035852
 21
7.610784347278095
 31
0.0
  0
LINE
  5
8C7024A
330
1063C03AE4E6B6F0
100
AcDbEntity
  8
LABELDIM
100
AcDbLine
 10
71.62574532538762
 20
6.810784347278089
 30
0.0
 11
71.74978588035852
 21
6.810784347278089
 31
0.0
  0
LINE
  5
8C7024B
330
1063C03AE4E6B6F0
100
AcDbEntity
  8
LABELDIM
100
AcDbLine
 10
71.74978588035852
 20
6.810784347278089
 30
0.0
 11
71.74978588035852
 21
6.967517304001632
 31
0.0
  0
LINE
  5
8C7024C
330
1063C03AE4E6B6F0
100
AcDbEntity
  8
LABELDIM
100
AcDbLine
 10
71.78474532538761
 20
7.075784347278088
 30
0.0
 11
71.78474532538761
 21
6.945784347278089
 31
0.0
  0
LINE
  5
8C7024D
330
1063C03AE4E6B6F0
100
AcDbEntity
  8
LABELDIM
100
AcDbLine
 10
71.68474532538763
 20
7.010784347278089
 30
0.0
 11
71.78474532538761
 21
6.945784347278089
 31
0.0
  0
LINE
  5
8C70256
330
1063C03AE4E6B6F0
100
AcDbEntity
  8
LABELDIM
100
AcDbLine
 10
71.82099532538763
 20
8.900784347278092
 30
0.0
 11
71.87349532538762
 21
8.900784347278092
 31
0.0
  0
LINE
  5
8C70257
330
1063C03AE4E6B6F0
100
AcDbEntity
  8
LABELDIM
100
AcDbLine
 10
71.82099532538763
 20
8.930784347278093
 30
0.0
 11
71.87349532538762
 21
8.930784347278093
 31
0.0
  0
LINE
  5
8C70258
330
1063C03AE4E6B6F0
100
AcDbEntity
  8
LABELDIM
100
AcDbLine
 10
71.65924532538763
 20
9.010784347278091
 30
0.0
 11
71.61424532538763
 21
9.010784347278091
 31
0.0
  0
LINE
  5
8C70259
330
1063C03AE4E6B6F0
100
AcDbEntity
  8
LABELDIM
100
AcDbLine
 10
71.65924532538763
 20
8.810784347278092
 30
0.0
 11
71.61424532538763
 21
8.810784347278092
 31
0.0
  0
LINE
  5
8C7025A
330
1063C03AE4E6B6F0
100
AcDbEntity
  8
LABELDIM
100
AcDbLine
 10
71.62524532538762
 20
8.962784347278086
 30
0.0
 11
71.67524532538762
 21
8.947284347278086
 31
0.0
  0
LINE
  5
8C7025B
330
1063C03AE4E6B6F0
100
AcDbEntity
  8
LABELDIM
100
AcDbLine
 10
71.67524532538762
 20
8.947284347278086
 30
0.0
 11
71.62524532538762
 21
8.931784347278087
 31
0.0
  0
LINE
  5
8C7025C
330
1063C03AE4E6B6F0
100
AcDbEntity
  8
LABELDIM
100
AcDbLine
 10
71.62524532538762
 20
8.931784347278087
 30
0.0
 11
71.67524532538762
 21
8.916284347278088
 31
0.0
  0
LINE
  5
8C7025D
330
1063C03AE4E6B6F0
100
AcDbEntity
  8
LABELDIM
100
AcDbLine
 10
71.62524532538762
 20
8.869784347278089
 30
0.0
 11
71.65924532538763
 21
8.85878434727809
 31
0.0
  0
LINE
  5
8C7025E
330
1063C03AE4E6B6F0
100
AcDbEntity
  8
LABELDIM
100
AcDbLine
 10
71.67524532538762
 20
8.916284347278088
 30
0.0
 11
71.62524532538762
 21
8.900784347278088
 31
0.0
  0
LINE
  5
8C7025F
330
1063C03AE4E6B6F0
100
AcDbEntity
  8
LABELDIM
100
AcDbLine
 10
71.62524532538762
 20
8.900784347278088
 30
0.0
 11
71.67524532538762
 21
8.885284347278089
 31
0.0
  0
LINE
  5
8C70260
330
1063C03AE4E6B6F0
100
AcDbEntity
  8
LABELDIM
100
AcDbLine
 10
71.67524532538762
 20
8.885284347278089
 30
0.0
 11
71.62524532538762
 21
8.869784347278089
 31
0.0
  0
LINE
  5
8C70261
330
1063C03AE4E6B6F0
100
AcDbEntity
  8
LABELDIM
100
AcDbLine
 10
71.65924532538763
 20
8.810784347278092
 30
0.0
 11
71.65924532538763
 21
8.85878434727809
 31
0.0
  0
LINE
  5
8C70262
330
1063C03AE4E6B6F0
100
AcDbEntity
  8
LABELDIM
100
AcDbLine
 10
71.65924532538763
 20
9.010784347278091
 30
0.0
 11
71.65924532538763
 21
8.973784347278092
 31
0.0
  0
LINE
  5
8C70263
330
1063C03AE4E6B6F0
100
AcDbEntity
  8
LABELDIM
100
AcDbLine
 10
71.65924532538763
 20
8.973784347278092
 30
0.0
 11
71.62524532538762
 21
8.962784347278086
 31
0.0
  0
LINE
  5
8C70264
330
1063C03AE4E6B6F0
100
AcDbEntity
  8
LABELDIM
100
AcDbLine
 10
71.75424532538762
 20
8.810784347278092
 30
0.0
 11
71.70924532538762
 21
8.810784347278092
 31
0.0
  0
LINE
  5
8C70265
330
1063C03AE4E6B6F0
100
AcDbEntity
  8
LABELDIM
100
AcDbLine
 10
71.75424532538762
 20
9.010784347278091
 30
0.0
 11
71.70924532538762
 21
9.010784347278091
 31
0.0
  0
LINE
  5
8C70266
330
1063C03AE4E6B6F0
100
AcDbEntity
  8
LABELDIM
100
AcDbLine
 10
71.75424532538762
 20
9.010784347278091
 30
0.0
 11
71.75424532538762
 21
8.947784347278092
 31
0.0
  0
LINE
  5
8C70267
330
1063C03AE4E6B6F0
100
AcDbEntity
  8
LABELDIM
100
AcDbLine
 10
71.75424532538762
 20
8.810784347278092
 30
0.0
 11
71.75424532538762
 21
8.884784347278094
 31
0.0
  0
LINE
  5
8C70268
330
1063C03AE4E6B6F0
100
AcDbEntity
  8
LABELDIM
100
AcDbLine
 10
71.72799532538762
 20
8.884784347278094
 30
0.0
 11
71.78049532538763
 21
8.884784347278094
 31
0.0
  0
LINE
  5
8C70269
330
1063C03AE4E6B6F0
100
AcDbEntity
  8
LABELDIM
100
AcDbLine
 10
71.72799532538762
 20
8.947784347278092
 30
0.0
 11
71.78049532538763
 21
8.947784347278092
 31
0.0
  0
LINE
  5
8C7026A
330
1063C03AE4E6B6F0
100
AcDbEntity
  8
LABELDIM
100
AcDbLine
 10
71.78049532538763
 20
8.947784347278092
 30
0.0
 11
71.78049532538763
 21
8.884784347278094
 31
0.0
  0
LINE
  5
8C7026B
330
1063C03AE4E6B6F0
100
AcDbEntity
  8
LABELDIM
100
AcDbLine
 10
71.72799532538762
 20
8.947784347278092
 30
0.0
 11
71.72799532538762
 21
8.884784347278094
 31
0.0
  0
TEXT
  5
8C7026C
330
1063C03AE4E6B6F0
100
AcDbEntity
  8
LABELDIM
100
AcDbText
 10
71.76076913491143
 20
8.966070061563806
 30
0.0
 40
0.025
  1
+
  7
ADESK1
 72
     4
 11
71.77624532538762
 21
8.976784347278092
 31
0.0
100
AcDbText
  0
LINE
  5
8C7026D
330
1063C03AE4E6B6F0
100
AcDbEntity
  8
LABELDIM
100
AcDbLine
 10
71.84724532538762
 20
8.810784347278092
 30
0.0
 11
71.80224532538763
 21
8.810784347278092
 31
0.0
  0
LINE
  5
8C7026E
330
1063C03AE4E6B6F0
100
AcDbEntity
  8
LABELDIM
100
AcDbLine
 10
71.84724532538762
 20
9.010784347278091
 30
0.0
 11
71.80224532538763
 21
9.010784347278091
 31
0.0
  0
LINE
  5
8C7026F
330
1063C03AE4E6B6F0
100
AcDbEntity
  8
LABELDIM
100
AcDbLine
 10
71.84724532538762
 20
8.810784347278092
 30
0.0
 11
71.84724532538762
 21
8.900784347278092
 31
0.0
  0
LINE
  5
8C70270
330
1063C03AE4E6B6F0
100
AcDbEntity
  8
LABELDIM
100
AcDbLine
 10
71.84724532538762
 20
9.010784347278091
 30
0.0
 11
71.84724532538762
 21
8.930784347278093
 31
0.0
  0
LINE
  5
8C70271
330
1063C03AE4E6B6F0
100
AcDbEntity
  8
LABELDIM
100
AcDbLine
 10
71.62574532538762
 20
7.810784347278095
 30
0.0
 11
71.68474532538763
 21
7.810784347278095
 31
0.0
  0
LINE
  5
8C70272
330
1063C03AE4E6B6F0
100
AcDbEntity
  8
LABELDIM
100
AcDbLine
 10
71.78474532538761
 20
7.875784347278096
 30
0.0
 11
71.78474532538761
 21
7.745784347278093
 31
0.0
  0
LINE
  5
8C70273
330
1063C03AE4E6B6F0
100
AcDbEntity
  8
LABELDIM
100
AcDbLine
 10
71.68474532538763
 20
7.810784347278095
 30
0.0
 11
71.78474532538761
 21
7.875784347278096
 31
0.0
  0
LINE
  5
8C70274
330
1063C03AE4E6B6F0
100
AcDbEntity
  8
LABELDIM
100
AcDbLine
 10
71.68474532538763
 20
7.810784347278095
 30
0.0
 11
71.78474532538761
 21
7.745784347278093
 31
0.0
  0
LINE
  5
8C70275
330
1063C03AE4E6B6F0
100
AcDbEntity
  8
LABELDIM
100
AcDbLine
 10
71.78474532538761
 20
7.810784347278095
 30
0.0
 11
71.86974532538762
 21
7.810784347278095
 31
0.0
  0
TEXT
  5
8C70276
330
1063C03AE4E6B6F0
100
AcDbEntity
  8
LABELDIM
100
AcDbText
 10
71.62490182195918
 20
7.834724790560816
 30
0.0
 40
0.06
  1
+
  7
ADESK1
 72
     4
 11
71.66204467910204
 21
7.860439076275102
 31
0.0
100
AcDbText
  0
LINE
  5
8C70278
330
1063C03AE4E6B6F0
100
AcDbEntity
  8
LABELDIM
100
AcDbLine
 10
71.84724532538762
 20
9.810784347278092
 30
0.0
 11
71.80224532538763
 21
9.810784347278092
 31
0.0
  0
TEXT
  5
8C70279
330
1063C03AE4E6B6F0
100
AcDbEntity
  8
LABELDIM
100
AcDbText
 10
71.76076913491143
 20
9.766070061563807
 30
0.0
 40
0.025
  1
+
  7
ADESK1
 72
     4
 11
71.77624532538762
 21
9.776784347278093
 31
0.0
100
AcDbText
  0
LINE
  5
8C7027A
330
1063C03AE4E6B6F0
100
AcDbEntity
  8
LABELDIM
100
AcDbLine
 10
71.72799532538762
 20
9.747784347278093
 30
0.0
 11
71.78049532538763
 21
9.747784347278093
 31
0.0
  0
LINE
  5
8C7027B
330
1063C03AE4E6B6F0
100
AcDbEntity
  8
LABELDIM
100
AcDbLine
 10
71.75424532538762
 20
9.810784347278092
 30
0.0
 11
71.75424532538762
 21
9.747784347278093
 31
0.0
  0
LINE
  5
8C7027C
330
1063C03AE4E6B6F0
100
AcDbEntity
  8
LABELDIM
100
AcDbLine
 10
71.75424532538762
 20
9.810784347278092
 30
0.0
 11
71.70924532538762
 21
9.810784347278092
 31
0.0
  0
LINE
  5
8C7027D
330
1063C03AE4E6B6F0
100
AcDbEntity
  8
LABELDIM
100
AcDbLine
 10
71.65924532538763
 20
9.773784347278091
 30
0.0
 11
71.62524532538762
 21
9.762784347278087
 31
0.0
  0
LINE
  5
8C7027E
330
1063C03AE4E6B6F0
100
AcDbEntity
  8
LABELDIM
100
AcDbLine
 10
71.65924532538763
 20
9.810784347278092
 30
0.0
 11
71.65924532538763
 21
9.773784347278091
 31
0.0
  0
LINE
  5
8C7027F
330
1063C03AE4E6B6F0
100
AcDbEntity
  8
LABELDIM
100
AcDbLine
 10
71.62524532538762
 20
9.762784347278087
 30
0.0
 11
71.67524532538762
 21
9.747284347278087
 31
0.0
  0
LINE
  5
8C70280
330
1063C03AE4E6B6F0
100
AcDbEntity
  8
LABELDIM
100
AcDbLine
 10
71.65924532538763
 20
9.810784347278092
 30
0.0
 11
71.61424532538763
 21
9.810784347278092
 31
0.0
  0
LINE
  5
8C70281
330
1063C03AE4E6B6F0
100
AcDbEntity
  8
LABELDIM
100
AcDbLine
 10
71.82099532538763
 20
9.730784347278092
 30
0.0
 11
71.87349532538762
 21
9.730784347278092
 31
0.0
  0
LINE
  5
8C70282
330
1063C03AE4E6B6F0
100
AcDbEntity
  8
LABELDIM
100
AcDbLine
 10
71.82099532538763
 20
9.700784347278093
 30
0.0
 11
71.87349532538762
 21
9.700784347278093
 31
0.0
  0
LINE
  5
8C70283
330
1063C03AE4E6B6F0
100
AcDbEntity
  8
LABELDIM
100
AcDbLine
 10
71.84724532538762
 20
9.610784347278093
 30
0.0
 11
71.84724532538762
 21
9.700784347278093
 31
0.0
  0
LINE
  5
8C70284
330
1063C03AE4E6B6F0
100
AcDbEntity
  8
LABELDIM
100
AcDbLine
 10
71.84724532538762
 20
9.610784347278093
 30
0.0
 11
71.80224532538763
 21
9.610784347278093
 31
0.0
  0
LINE
  5
8C70285
330
1063C03AE4E6B6F0
100
AcDbEntity
  8
LABELDIM
100
AcDbLine
 10
71.72799532538762
 20
9.684784347278093
 30
0.0
 11
71.78049532538763
 21
9.684784347278093
 31
0.0
  0
LINE
  5
8C70286
330
1063C03AE4E6B6F0
100
AcDbEntity
  8
LABELDIM
100
AcDbLine
 10
71.75424532538762
 20
9.610784347278093
 30
0.0
 11
71.75424532538762
 21
9.684784347278093
 31
0.0
  0
LINE
  5
8C70287
330
1063C03AE4E6B6F0
100
AcDbEntity
  8
LABELDIM
100
AcDbLine
 10
71.75424532538762
 20
9.610784347278093
 30
0.0
 11
71.70924532538762
 21
9.610784347278093
 31
0.0
  0
LINE
  5
8C70288
330
1063C03AE4E6B6F0
100
AcDbEntity
  8
LABELDIM
100
AcDbLine
 10
71.65924532538763
 20
9.610784347278093
 30
0.0
 11
71.65924532538763
 21
9.658784347278091
 31
0.0
  0
LINE
  5
8C70289
330
1063C03AE4E6B6F0
100
AcDbEntity
  8
LABELDIM
100
AcDbLine
 10
71.67524532538762
 20
9.68528434727809
 30
0.0
 11
71.62524532538762
 21
9.66978434727809
 31
0.0
  0
LINE
  5
8C7028A
330
1063C03AE4E6B6F0
100
AcDbEntity
  8
LABELDIM
100
AcDbLine
 10
71.62524532538762
 20
9.700784347278089
 30
0.0
 11
71.67524532538762
 21
9.68528434727809
 31
0.0
  0
LINE
  5
8C7028B
330
1063C03AE4E6B6F0
100
AcDbEntity
  8
LABELDIM
100
AcDbLine
 10
71.67524532538762
 20
9.716284347278088
 30
0.0
 11
71.62524532538762
 21
9.700784347278089
 31
0.0
  0
LINE
  5
8C7028C
330
1063C03AE4E6B6F0
100
AcDbEntity
  8
LABELDIM
100
AcDbLine
 10
71.62524532538762
 20
9.66978434727809
 30
0.0
 11
71.65924532538763
 21
9.658784347278091
 31
0.0
  0
LINE
  5
8C7028D
330
1063C03AE4E6B6F0
100
AcDbEntity
  8
LABELDIM
100
AcDbLine
 10
71.62524532538762
 20
9.731784347278088
 30
0.0
 11
71.67524532538762
 21
9.716284347278088
 31
0.0
  0
LINE
  5
8C7028E
330
1063C03AE4E6B6F0
100
AcDbEntity
  8
LABELDIM
100
AcDbLine
 10
71.65924532538763
 20
9.610784347278093
 30
0.0
 11
71.61424532538763
 21
9.610784347278093
 31
0.0
  0
LINE
  5
8C7028F
330
1063C03AE4E6B6F0
100
AcDbEntity
  8
LABELDIM
100
AcDbLine
 10
71.82099532538763
 20
9.330784347278093
 30
0.0
 11
71.87349532538762
 21
9.330784347278093
 31
0.0
  0
LINE
  5
8C70290
330
1063C03AE4E6B6F0
100
AcDbEntity
  8
LABELDIM
100
AcDbLine
 10
71.82099532538763
 20
9.300784347278092
 30
0.0
 11
71.87349532538762
 21
9.300784347278092
 31
0.0
  0
LINE
  5
8C70291
330
1063C03AE4E6B6F0
100
AcDbEntity
  8
LABELDIM
100
AcDbLine
 10
71.84724532538762
 20
9.410784347278092
 30
0.0
 11
71.84724532538762
 21
9.330784347278093
 31
0.0
  0
LINE
  5
8C70292
330
1063C03AE4E6B6F0
100
AcDbEntity
  8
LABELDIM
100
AcDbLine
 10
71.84724532538762
 20
9.210784347278092
 30
0.0
 11
71.84724532538762
 21
9.300784347278092
 31
0.0
  0
LINE
  5
8C70293
330
1063C03AE4E6B6F0
100
AcDbEntity
  8
LABELDIM
100
AcDbLine
 10
71.84724532538762
 20
9.410784347278092
 30
0.0
 11
71.80224532538763
 21
9.410784347278092
 31
0.0
  0
LINE
  5
8C70294
330
1063C03AE4E6B6F0
100
AcDbEntity
  8
LABELDIM
100
AcDbLine
 10
71.84724532538762
 20
9.210784347278092
 30
0.0
 11
71.80224532538763
 21
9.210784347278092
 31
0.0
  0
TEXT
  5
8C70295
330
1063C03AE4E6B6F0
100
AcDbEntity
  8
LABELDIM
100
AcDbText
 10
71.76076913491143
 20
9.366070061563807
 30
0.0
 40
0.025
  1
+
  7
ADESK1
 72
     4
 11
71.77624532538762
 21
9.376784347278093
 31
0.0
100
AcDbText
  0
LINE
  5
8C70296
330
1063C03AE4E6B6F0
100
AcDbEntity
  8
LABELDIM
100
AcDbLine
 10
71.72799532538762
 20
9.347784347278093
 30
0.0
 11
71.72799532538762
 21
9.284784347278094
 31
0.0
  0
LINE
  5
8C70297
330
1063C03AE4E6B6F0
100
AcDbEntity
  8
LABELDIM
100
AcDbLine
 10
71.78049532538763
 20
9.347784347278093
 30
0.0
 11
71.78049532538763
 21
9.284784347278094
 31
0.0
  0
LINE
  5
8C70298
330
1063C03AE4E6B6F0
100
AcDbEntity
  8
LABELDIM
100
AcDbLine
 10
71.72799532538762
 20
9.347784347278093
 30
0.0
 11
71.78049532538763
 21
9.347784347278093
 31
0.0
  0
LINE
  5
8C70299
330
1063C03AE4E6B6F0
100
AcDbEntity
  8
LABELDIM
100
AcDbLine
 10
71.72799532538762
 20
9.284784347278094
 30
0.0
 11
71.78049532538763
 21
9.284784347278094
 31
0.0
  0
LINE
  5
8C7029A
330
1063C03AE4E6B6F0
100
AcDbEntity
  8
LABELDIM
100
AcDbLine
 10
71.75424532538762
 20
9.210784347278092
 30
0.0
 11
71.75424532538762
 21
9.284784347278094
 31
0.0
  0
LINE
  5
8C7029B
330
1063C03AE4E6B6F0
100
AcDbEntity
  8
LABELDIM
100
AcDbLine
 10
71.75424532538762
 20
9.410784347278092
 30
0.0
 11
71.75424532538762
 21
9.347784347278093
 31
0.0
  0
LINE
  5
8C7029C
330
1063C03AE4E6B6F0
100
AcDbEntity
  8
LABELDIM
100
AcDbLine
 10
71.75424532538762
 20
9.410784347278092
 30
0.0
 11
71.70924532538762
 21
9.410784347278092
 31
0.0
  0
LINE
  5
8C7029D
330
1063C03AE4E6B6F0
100
AcDbEntity
  8
LABELDIM
100
AcDbLine
 10
71.75424532538762
 20
9.210784347278092
 30
0.0
 11
71.70924532538762
 21
9.210784347278092
 31
0.0
  0
LINE
  5
8C7029E
330
1063C03AE4E6B6F0
100
AcDbEntity
  8
LABELDIM
100
AcDbLine
 10
71.65924532538763
 20
9.373784347278093
 30
0.0
 11
71.62524532538762
 21
9.362784347278086
 31
0.0
  0
LINE
  5
8C7029F
330
1063C03AE4E6B6F0
100
AcDbEntity
  8
LABELDIM
100
AcDbLine
 10
71.65924532538763
 20
9.410784347278092
 30
0.0
 11
71.65924532538763
 21
9.373784347278093
 31
0.0
  0
LINE
  5
8C702A0
330
1063C03AE4E6B6F0
100
AcDbEntity
  8
LABELDIM
100
AcDbLine
 10
71.65924532538763
 20
9.210784347278092
 30
0.0
 11
71.65924532538763
 21
9.258784347278091
 31
0.0
  0
LINE
  5
8C702A1
330
1063C03AE4E6B6F0
100
AcDbEntity
  8
LABELDIM
100
AcDbLine
 10
71.67524532538762
 20
9.285284347278089
 30
0.0
 11
71.62524532538762
 21
9.26978434727809
 31
0.0
  0
LINE
  5
8C702A2
330
1063C03AE4E6B6F0
100
AcDbEntity
  8
LABELDIM
100
AcDbLine
 10
71.62524532538762
 20
9.300784347278089
 30
0.0
 11
71.67524532538762
 21
9.285284347278089
 31
0.0
  0
LINE
  5
8C702A3
330
1063C03AE4E6B6F0
100
AcDbEntity
  8
LABELDIM
100
AcDbLine
 10
71.67524532538762
 20
9.316284347278088
 30
0.0
 11
71.62524532538762
 21
9.300784347278089
 31
0.0
  0
LINE
  5
8C702A4
330
1063C03AE4E6B6F0
100
AcDbEntity
  8
LABELDIM
100
AcDbLine
 10
71.62524532538762
 20
9.26978434727809
 30
0.0
 11
71.65924532538763
 21
9.258784347278091
 31
0.0
  0
LINE
  5
8C702A5
330
1063C03AE4E6B6F0
100
AcDbEntity
  8
LABELDIM
100
AcDbLine
 10
71.62524532538762
 20
9.331784347278087
 30
0.0
 11
71.67524532538762
 21
9.316284347278088
 31
0.0
  0
LINE
  5
8C702A6
330
1063C03AE4E6B6F0
100
AcDbEntity
  8
LABELDIM
100
AcDbLine
 10
71.67524532538762
 20
9.347284347278087
 30
0.0
 11
71.62524532538762
 21
9.331784347278087
 31
0.0
  0
LINE
  5
8C702A7
330
1063C03AE4E6B6F0
100
AcDbEntity
  8
LABELDIM
100
AcDbLine
 10
71.62524532538762
 20
9.362784347278086
 30
0.0
 11
71.67524532538762
 21
9.347284347278087
 31
0.0
  0
LINE
  5
8C702A8
330
1063C03AE4E6B6F0
100
AcDbEntity
  8
LABELDIM
100
AcDbLine
 10
71.65924532538763
 20
9.210784347278092
 30
0.0
 11
71.61424532538763
 21
9.210784347278092
 31
0.0
  0
LINE
  5
8C702A9
330
1063C03AE4E6B6F0
100
AcDbEntity
  8
LABELDIM
100
AcDbLine
 10
71.65924532538763
 20
9.410784347278092
 30
0.0
 11
71.61424532538763
 21
9.410784347278092
 31
0.0
  0
LINE
  5
8C702AA
330
1063C03AE4E6B6F0
100
AcDbEntity
  8
LABELDIM
100
AcDbLine
 10
71.84724532538762
 20
9.810784347278092
 30
0.0
 11
71.84724532538762
 21
9.730784347278092
 31
0.0
  0
LINE
  5
8C702AB
330
1063C03AE4E6B6F0
100
AcDbEntity
  8
LABELDIM
100
AcDbLine
 10
71.72799532538762
 20
9.747784347278093
 30
0.0
 11
71.72799532538762
 21
9.684784347278093
 31
0.0
  0
LINE
  5
8C702AC
330
1063C03AE4E6B6F0
100
AcDbEntity
  8
LABELDIM
100
AcDbLine
 10
71.78049532538763
 20
9.747784347278093
 30
0.0
 11
71.78049532538763
 21
9.684784347278093
 31
0.0
  0
LINE
  5
8C702AD
330
1063C03AE4E6B6F0
100
AcDbEntity
  8
LABELDIM
100
AcDbLine
 10
71.67524532538762
 20
9.747284347278087
 30
0.0
 11
71.62524532538762
 21
9.731784347278088
 31
0.0
  0
TEXT
  5
8C702B4
330
1063C03AE4E6B6F0
100
AcDbEntity
  8
LABELDIM
100
AcDbText
 10
73.79274532538762
 20
9.655784347278096
 30
0.0
 40
0.075
  1
RX
  7
ADESK1
 72
     4
 11
73.86774532538763
 21
9.693284347278096
 31
0.0
100
AcDbText
  0
LINE
  5
8C702B5
330
1063C03AE4E6B6F0
100
AcDbEntity
  8
LABELDIM
100
AcDbLine
 10
73.61574532538762
 20
9.637284347278093
 30
0.0
 11
73.64374532538763
 21
9.665284347278092
 31
0.0
  0
LINE
  5
8C702B6
330
1063C03AE4E6B6F0
100
AcDbEntity
  8
LABELDIM
100
AcDbLine
 10
73.61574532538762
 20
9.749284347278091
 30
0.0
 11
73.64374532538763
 21
9.721284347278093
 31
0.0
  0
LINE
  5
8C702B7
330
1063C03AE4E6B6F0
100
AcDbEntity
  8
LABELDIM
100
AcDbLine
 10
73.72774532538762
 20
9.749284347278091
 30
0.0
 11
73.69974532538762
 21
9.721284347278093
 31
0.0
  0
CIRCLE
  5
8C702B8
330
1063C03AE4E6B6F0
100
AcDbEntity
  8
LABELDIM
100
AcDbCircle
 10
73.67174532538763
 20
9.693284347278092
 30
0.0
 40
0.0390000000000015
  0
LINE
  5
8C702B9
330
1063C03AE4E6B6F0
100
AcDbEntity
  8
LABELDIM
100
AcDbLine
 10
73.72774532538762
 20
9.637284347278093
 30
0.0
 11
73.69974532538762
 21
9.665284347278092
 31
0.0
  0
TEXT
  5
8C702BA
330
1063C03AE4E6B6F0
100
AcDbEntity
  8
LABELDIM
100
AcDbText
 10
73.80703103967334
 20
9.836784347278094
 30
0.0
 40
0.075
  1
TX
  7
ADESK1
 72
     4
 11
73.86774532538763
 21
9.874284347278093
 31
0.0
100
AcDbText
  0
LINE
  5
8C702BB
330
1063C03AE4E6B6F0
100
AcDbEntity
  8
LABELDIM
100
AcDbLine
 10
73.72774532538763
 20
9.818284347278094
 30
0.0
 11
73.69974532538762
 21
9.846284347278093
 31
0.0
  0
CIRCLE
  5
8C702BC
330
1063C03AE4E6B6F0
100
AcDbEntity
  8
LABELDIM
100
AcDbCircle
 10
73.67174532538763
 20
9.874284347278093
 30
0.0
 40
0.0390000000000015
  0
LINE
  5
8C702BD
330
1063C03AE4E6B6F0
100
AcDbEntity
  8
LABELDIM
100
AcDbLine
 10
73.72774532538763
 20
9.930284347278092
 30
0.0
 11
73.69974532538762
 21
9.902284347278094
 31
0.0
  0
LINE
  5
8C702BE
330
1063C03AE4E6B6F0
100
AcDbEntity
  8
LABELDIM
100
AcDbLine
 10
73.61574532538764
 20
9.930284347278092
 30
0.0
 11
73.64374532538764
 21
9.902284347278094
 31
0.0
  0
LINE
  5
8C702BF
330
1063C03AE4E6B6F0
100
AcDbEntity
  8
LABELDIM
100
AcDbLine
 10
73.61574532538764
 20
9.818284347278094
 30
0.0
 11
73.64374532538764
 21
9.846284347278093
 31
0.0
  0
TEXT
  5
8C702C0
330
1063C03AE4E6B6F0
100
AcDbEntity
  8
LABELDIM
100
AcDbText
 10
74.98253103967333
 20
11.12328434727809
 30
0.0
 40
0.075
  1
Lan
  7
ADESK1
 72
     4
 11
75.08074532538763
 21
11.16078434727809
 31
0.0
100
AcDbText
  0
TEXT
  5
8C702C1
330
1063C03AE4E6B6F0
100
AcDbEntity
  8
LABELDIM
100
AcDbText
 10
74.96824532538763
 20
10.94328434727809
 30
0.0
 40
0.075
  1
Link
  7
ADESK1
 72
     4
 11
75.08074532538763
 21
10.98078434727809
 31
0.0
100
AcDbText
  0
LINE
  5
8C702C5
330
1063C03AE4E6B6F0
100
AcDbEntity
  8
LABELDIM
100
AcDbLine
 10
71.65924532538763
 20
10.21078434727809
 30
0.0
 11
71.61424532538763
 21
10.21078434727809
 31
0.0
  0
LINE
  5
8C702C6
330
1063C03AE4E6B6F0
100
AcDbEntity
  8
LABELDIM
100
AcDbLine
 10
71.62524532538762
 20
10.06978434727809
 30
0.0
 11
71.65924532538763
 21
10.05878434727809
 31
0.0
  0
LINE
  5
8C702C7
330
1063C03AE4E6B6F0
100
AcDbEntity
  8
LABELDIM
100
AcDbLine
 10
71.67524532538762
 20
10.08528434727809
 30
0.0
 11
71.62524532538762
 21
10.06978434727809
 31
0.0
  0
LINE
  5
8C702C8
330
1063C03AE4E6B6F0
100
AcDbEntity
  8
LABELDIM
100
AcDbLine
 10
71.62524532538762
 20
10.10078434727809
 30
0.0
 11
71.67524532538762
 21
10.08528434727809
 31
0.0
  0
LINE
  5
8C702C9
330
1063C03AE4E6B6F0
100
AcDbEntity
  8
LABELDIM
100
AcDbLine
 10
71.67524532538762
 20
10.11628434727809
 30
0.0
 11
71.62524532538762
 21
10.10078434727809
 31
0.0
  0
LINE
  5
8C702CA
330
1063C03AE4E6B6F0
100
AcDbEntity
  8
LABELDIM
100
AcDbLine
 10
71.62524532538762
 20
10.13178434727808
 30
0.0
 11
71.67524532538762
 21
10.11628434727809
 31
0.0
  0
LINE
  5
8C702CB
330
1063C03AE4E6B6F0
100
AcDbEntity
  8
LABELDIM
100
AcDbLine
 10
71.67524532538762
 20
10.14728434727808
 30
0.0
 11
71.62524532538762
 21
10.13178434727808
 31
0.0
  0
LINE
  5
8C702CC
330
1063C03AE4E6B6F0
100
AcDbEntity
  8
LABELDIM
100
AcDbLine
 10
71.62524532538762
 20
10.16278434727808
 30
0.0
 11
71.67524532538762
 21
10.14728434727808
 31
0.0
  0
LINE
  5
8C702CD
330
1063C03AE4E6B6F0
100
AcDbEntity
  8
LABELDIM
100
AcDbLine
 10
71.65924532538763
 20
10.17378434727809
 30
0.0
 11
71.62524532538762
 21
10.16278434727808
 31
0.0
  0
LINE
  5
8C702CE
330
1063C03AE4E6B6F0
100
AcDbEntity
  8
LABELDIM
100
AcDbLine
 10
71.65924532538763
 20
10.21078434727809
 30
0.0
 11
71.65924532538763
 21
10.17378434727809
 31
0.0
  0
LINE
  5
8C702CF
330
1063C03AE4E6B6F0
100
AcDbEntity
  8
LABELDIM
100
AcDbLine
 10
71.75424532538762
 20
10.21078434727809
 30
0.0
 11
71.70924532538762
 21
10.21078434727809
 31
0.0
  0
LINE
  5
8C702D0
330
1063C03AE4E6B6F0
100
AcDbEntity
  8
LABELDIM
100
AcDbLine
 10
71.75424532538762
 20
10.21078434727809
 30
0.0
 11
71.75424532538762
 21
10.14778434727809
 31
0.0
  0
LINE
  5
8C702D1
330
1063C03AE4E6B6F0
100
AcDbEntity
  8
LABELDIM
100
AcDbLine
 10
71.72799532538762
 20
10.08478434727809
 30
0.0
 11
71.78049532538763
 21
10.08478434727809
 31
0.0
  0
LINE
  5
8C702D2
330
1063C03AE4E6B6F0
100
AcDbEntity
  8
LABELDIM
100
AcDbLine
 10
71.72799532538762
 20
10.14778434727809
 30
0.0
 11
71.78049532538763
 21
10.14778434727809
 31
0.0
  0
LINE
  5
8C702D3
330
1063C03AE4E6B6F0
100
AcDbEntity
  8
LABELDIM
100
AcDbLine
 10
71.78049532538763
 20
10.14778434727809
 30
0.0
 11
71.78049532538763
 21
10.08478434727809
 31
0.0
  0
LINE
  5
8C702D4
330
1063C03AE4E6B6F0
100
AcDbEntity
  8
LABELDIM
100
AcDbLine
 10
71.72799532538762
 20
10.14778434727809
 30
0.0
 11
71.72799532538762
 21
10.08478434727809
 31
0.0
  0
TEXT
  5
8C702D5
330
1063C03AE4E6B6F0
100
AcDbEntity
  8
LABELDIM
100
AcDbText
 10
71.76076913491143
 20
10.1660700615638
 30
0.0
 40
0.025
  1
+
  7
ADESK1
 72
     4
 11
71.77624532538762
 21
10.17678434727809
 31
0.0
100
AcDbText
  0
LINE
  5
8C702D6
330
1063C03AE4E6B6F0
100
AcDbEntity
  8
LABELDIM
100
AcDbLine
 10
71.82099532538763
 20
10.10078434727809
 30
0.0
 11
71.87349532538762
 21
10.10078434727809
 31
0.0
  0
LINE
  5
8C702D7
330
1063C03AE4E6B6F0
100
AcDbEntity
  8
LABELDIM
100
AcDbLine
 10
71.82099532538763
 20
10.13078434727809
 30
0.0
 11
71.87349532538762
 21
10.13078434727809
 31
0.0
  0
LINE
  5
8C702D8
330
1063C03AE4E6B6F0
100
AcDbEntity
  8
LABELDIM
100
AcDbLine
 10
71.84724532538762
 20
10.21078434727809
 30
0.0
 11
71.84724532538762
 21
10.13078434727809
 31
0.0
  0
LINE
  5
8C702D9
330
1063C03AE4E6B6F0
100
AcDbEntity
  8
LABELDIM
100
AcDbLine
 10
71.84724532538762
 20
10.21078434727809
 30
0.0
 11
71.80224532538763
 21
10.21078434727809
 31
0.0
  0
LINE
  5
8C702DA
330
1063C03AE4E6B6F0
100
AcDbEntity
  8
LABELDIM
100
AcDbLine
 10
71.65924532538763
 20
10.01078434727809
 30
0.0
 11
71.61424532538763
 21
10.01078434727809
 31
0.0
  0
LINE
  5
8C702DB
330
1063C03AE4E6B6F0
100
AcDbEntity
  8
LABELDIM
100
AcDbLine
 10
71.75424532538762
 20
10.01078434727809
 30
0.0
 11
71.70924532538762
 21
10.01078434727809
 31
0.0
  0
LINE
  5
8C702DC
330
1063C03AE4E6B6F0
100
AcDbEntity
  8
LABELDIM
100
AcDbLine
 10
71.84724532538762
 20
10.01078434727809
 30
0.0
 11
71.80224532538763
 21
10.01078434727809
 31
0.0
  0
LINE
  5
8C702DD
330
1063C03AE4E6B6F0
100
AcDbEntity
  8
LABELDIM
100
AcDbLine
 10
71.65924532538763
 20
10.01078434727809
 30
0.0
 11
71.65924532538763
 21
10.05878434727809
 31
0.0
  0
LINE
  5
8C702DE
330
1063C03AE4E6B6F0
100
AcDbEntity
  8
LABELDIM
100
AcDbLine
 10
71.75424532538762
 20
10.01078434727809
 30
0.0
 11
71.75424532538762
 21
10.08478434727809
 31
0.0
  0
LINE
  5
8C702DF
330
1063C03AE4E6B6F0
100
AcDbEntity
  8
LABELDIM
100
AcDbLine
 10
71.84724532538762
 20
10.01078434727809
 30
0.0
 11
71.84724532538762
 21
10.10078434727809
 31
0.0
  0
LINE
  5
8C702E1
330
1063C03AE4E6B6F0
100
AcDbEntity
  8
LABELDIM
100
AcDbLine
 10
74.94074532538762
 20
11.10578434727809
 30
0.0
 11
74.91274532538762
 21
11.13378434727809
 31
0.0
  0
CIRCLE
  5
8C702E2
330
1063C03AE4E6B6F0
100
AcDbEntity
  8
LABELDIM
100
AcDbCircle
 10
74.88474532538763
 20
11.16178434727809
 30
0.0
 40
0.0390000000000015
  0
LINE
  5
8C702E3
330
1063C03AE4E6B6F0
100
AcDbEntity
  8
LABELDIM
100
AcDbLine
 10
74.94074532538762
 20
11.21778434727809
 30
0.0
 11
74.91274532538762
 21
11.18978434727809
 31
0.0
  0
LINE
  5
8C702E4
330
1063C03AE4E6B6F0
100
AcDbEntity
  8
LABELDIM
100
AcDbLine
 10
74.82874532538763
 20
11.10578434727809
 30
0.0
 11
74.85674532538762
 21
11.13378434727809
 31
0.0
  0
LINE
  5
8C702E5
330
1063C03AE4E6B6F0
100
AcDbEntity
  8
LABELDIM
100
AcDbLine
 10
74.82874532538763
 20
11.21778434727809
 30
0.0
 11
74.85674532538762
 21
11.18978434727809
 31
0.0
  0
LINE
  5
8C702E6
330
1063C03AE4E6B6F0
100
AcDbEntity
  8
LABELDIM
100
AcDbLine
 10
74.94074532538762
 20
11.03678434727809
 30
0.0
 11
74.91274532538762
 21
11.00878434727809
 31
0.0
  0
LINE
  5
8C702E7
330
1063C03AE4E6B6F0
100
AcDbEntity
  8
LABELDIM
100
AcDbLine
 10
74.82874532538763
 20
11.03678434727809
 30
0.0
 11
74.85674532538762
 21
11.00878434727809
 31
0.0
  0
LINE
  5
8C702E8
330
1063C03AE4E6B6F0
100
AcDbEntity
  8
LABELDIM
100
AcDbLine
 10
74.94074532538762
 20
10.92478434727809
 30
0.0
 11
74.91274532538762
 21
10.95278434727809
 31
0.0
  0
LINE
  5
8C702E9
330
1063C03AE4E6B6F0
100
AcDbEntity
  8
LABELDIM
100
AcDbLine
 10
74.82874532538763
 20
10.92478434727809
 30
0.0
 11
74.85674532538762
 21
10.95278434727809
 31
0.0
  0
CIRCLE
  5
8C702EA
330
1063C03AE4E6B6F0
100
AcDbEntity
  8
LABELDIM
100
AcDbCircle
 10
74.88474532538763
 20
10.98078434727809
 30
0.0
 40
0.0390000000000015
  0
TEXT
  5
8C702EC
330
1063C03AE4E6B6F0
100
AcDbEntity
  8
LABELDIM
100
AcDbText
 10
73.64010246824476
 20
10.06271291870667
 30
0.0
 40
0.075
  1
+
 50
270.0
  7
ADESK1
 72
     4
 11
73.67224532538762
 21
10.0162843472781
 31
0.0
100
AcDbText
  0
TEXT
  5
8C702ED
330
1063C03AE4E6B6F0
100
AcDbEntity
  8
LABELDIM
100
AcDbText
 10
73.5431738968162
 20
9.513784347278097
 30
0.0
 40
0.075
  1
RS-485
  7
ADESK1
 72
     4
 11
73.77174532538763
 21
9.551284347278096
 31
0.0
100
AcDbText
  0
TEXT
  5
8C702EE
330
1063C03AE4E6B6F0
100
AcDbEntity
  8
LABELDIM
100
AcDbText
 10
74.83003103967334
 20
11.29328434727809
 30
0.0
 40
0.075
  1
Ethernet
  7
ADESK1
 72
     4
 11
75.06574532538762
 21
11.33078434727809
 31
0.0
100
AcDbText
  0
TEXT
  5
8C702F0
330
1063C03AE4E6B6F0
100
AcDbEntity
  8
LABELDIM
100
AcDbText
 10
73.83560246824477
 20
10.06271291870667
 30
0.0
 40
0.075
  1
-
 50
270.0
  7
ADESK1
 72
     4
 11
73.86774532538763
 21
10.0162843472781
 31
0.0
100
AcDbText
  0
LINE
  5
8C702F4
330
1063C03AE4E6B6F0
100
AcDbEntity
  8
LABELDIM
100
AcDbLine
 10
76.24474532538764
 20
4.240784347278095
 30
0.0
 11
76.24474532538764
 21
11.65828434727809
 31
0.0
  0
LINE
  5
8C7035E
330
1063C03AE4E6B6F0
100
AcDbEntity
  8
LABELDIM
100
AcDbLine
 10
74.79474532538763
 20
11.65828434727809
 30
0.0
 11
74.79474532538763
 21
10.08828434727809
 31
0.0
  0
LINE
  5
8C7035F
330
1063C03AE4E6B6F0
100
AcDbEntity
  8
LABELDIM
100
AcDbLine
 10
74.79474532538763
 20
10.08828434727809
 30
0.0
 11
72.12974532538763
 21
10.08828434727809
 31
0.0
  0
TEXT
  5
8C70363
330
1063C03AE4E6B6F0
100
AcDbEntity
  8
LABELDIM
100
AcDbText
 10
73.26524989523597
 20
7.080588655673116
 30
0.0
 40
0.478
  1
Integra
 50
30.0
  7
BRUSHSCRIPT
 72
     4
 11
73.82074532538763
 21
7.523284347278096
 31
0.0
100
AcDbText
  0
LWPOLYLINE
  5
8C70376
330
1063C03AE4E6B6F0
100
AcDbEntity
  8
LABELDIM
100
AcDbPolyline
 90
        3
 70
     0
 43
0.02
 10
75.33874532538762
 20
10.87178434727808
 10
75.33874532538762
 20
10.87178434727808
 10
74.79474532538763
 20
10.87178434727808
  0
INSERT
  5
F6DFB5ED78D8D7FB
330
1063C03AE4E6B6F0
100
AcDbEntity
  8
LABELDIM
100
AcDbBlockReference
  2
ACAD3267
 10
73.26824532538762
 20
10.72278434727809
 30
0.0
 50
270.0
  0
LINE
  5
2447E4C42DAD6DC1
330
1063C03AE4E6B6F0
100
AcDbEntity
  8
LABELDIM
100
AcDbLine
 10
72.12974532538763
 20
10.08828434727809
 30
0.0
 11
72.12974532538763
 21
11.65828434727809
 31
0.0
  0
LINE
  5
2447E4C42DAD6DC2
330
1063C03AE4E6B6F0
100
AcDbEntity
  8
LABELDIM
100
AcDbLine
 10
72.12974532538763
 20
11.65828434727809
 30
0.0
 11
70.84474532538763
 21
11.65828434727809
 31
0.0
  0
LINE
  5
2447E4C42DAD6DC3
330
1063C03AE4E6B6F0
100
AcDbEntity
  8
LABELDIM
100
AcDbLine
 10
70.84474532538763
 20
11.65828434727809
 30
0.0
 11
70.84474532538763
 21
11.14328434727809
 31
0.0
  0
LINE
  5
2447E4C42DAD6DC4
330
1063C03AE4E6B6F0
100
AcDbEntity
  8
LABELDIM
100
AcDbLine
 10
70.84474532538763
 20
11.14328434727809
 30
0.0
 11
71.86774532538763
 21
11.14328434727809
 31
0.0
  0
LINE
  5
2447E4C42DAD6DC5
330
1063C03AE4E6B6F0
100
AcDbEntity
  8
LABELDIM
100
AcDbLine
 10
71.86774532538763
 20
11.14328434727809
 30
0.0
 11
71.86774532538763
 21
10.33328434727809
 31
0.0
  0
LINE
  5
2447E4C42DAD6DC6
330
1063C03AE4E6B6F0
100
AcDbEntity
  8
LABELDIM
100
AcDbLine
 10
71.86774532538763
 20
10.33328434727809
 30
0.0
 11
71.39474532538763
 21
10.33328434727809
 31
0.0
  0
LINE
  5
2447E4C42DAD6DC7
330
1063C03AE4E6B6F0
100
AcDbEntity
  8
LABELDIM
100
AcDbLine
 10
71.39474532538763
 20
10.33328434727809
 30
0.0
 11
71.39474532538763
 21
4.240784347278095
 31
0.0
  0
LWPOLYLINE
  5
1822331CE027DFF7
330
1063C03AE4E6B6F0
100
AcDbEntity
  8
LABELDIM
100
AcDbPolyline
 90
        3
 70
     0
 43
0.02
 10
75.61974532538762
 20
6.956784347278092
 10
75.61974532538762
 20
8.028784347278095
 10
76.24474532538762
 20
8.028784347278095
  0
LINE
  5
1822331CE027DFFC
330
1063C03AE4E6B6F0
100
AcDbEntity
  8
LABELDIM
100
AcDbLine
 10
75.93424532538762
 20
5.075784347278087
 30
0.0
 11
75.93424532538762
 21
7.875784347278088
 31
0.0
  0
LWPOLYLINE
  5
1822331CE027DFFD
330
1063C03AE4E6B6F0
100
AcDbEntity
  8
LABELDIM
100
AcDbPolyline
 90
        3
 70
     0
 43
0.02
 10
76.24474532538762
 20
4.322784347278094
 10
75.61974532538762
 20
4.322784347278094
 10
75.61974532538762
 20
5.385784347278091
  0
LINE
  5
1822331CE027E002
330
1063C03AE4E6B6F0
100
AcDbEntity
  8
LABELDIM
100
AcDbLine
 10
75.93424532538762
 20
4.875784347278088
 30
0.0
 11
75.93424532538762
 21
4.475784347278089
 31
0.0
  0
TEXT
  5
1822331CE027E003
330
1063C03AE4E6B6F0
100
AcDbEntity
  8
LABELDIM
100
AcDbText
 10
75.77053103967334
 20
4.438284347278093
 30
0.0
 40
0.075
  1
7
  7
ADESK1
 72
     4
 11
75.80624532538763
 21
4.475784347278093
 31
0.0
100
AcDbText
  0
CIRCLE
  5
1822331CE027E004
330
1063C03AE4E6B6F0
100
AcDbEntity
  8
LABELDIM
100
AcDbCircle
 10
76.10724532538762
 20
4.475784347278089
 30
0.0
 40
0.0499999999999972
  0
LINE
  5
1822331CE027E005
330
1063C03AE4E6B6F0
100
AcDbEntity
  8
LABELDIM
100
AcDbLine
 10
76.05724532538762
 20
4.475784347278089
 30
0.0
 11
75.93424532538762
 21
4.475784347278089
 31
0.0
  0
CIRCLE
  5
1822331CE027E006
330
1063C03AE4E6B6F0
100
AcDbEntity
  8
LABELDIM
100
AcDbCircle
 10
76.10724532538762
 20
6.075784347278084
 30
0.0
 40
0.0499999999999972
  0
TEXT
  5
1822331CE027E007
330
1063C03AE4E6B6F0
100
AcDbEntity
  8
LABELDIM
100
AcDbText
 10
75.72767389681621
 20
6.038284347278091
 30
0.0
 40
0.075
  1
14
  7
ADESK1
 72
     4
 11
75.80624532538763
 21
6.075784347278091
 31
0.0
100
AcDbText
  0
TEXT
  5
1822331CE027E008
330
1063C03AE4E6B6F0
100
AcDbEntity
  8
LABELDIM
100
AcDbText
 10
75.65188818253048
 20
5.418641490135229
 30
0.0
 40
0.075
  1
Discrete Inputs 120/240V
 50
90.0
  7
ADESK1
 72
     4
 11
75.61974532538762
 21
6.175784347278085
 31
0.0
100
AcDbText
  0
TEXT
  5
1822331CE027E009
330
1063C03AE4E6B6F0
100
AcDbEntity
  8
LABELDIM
100
AcDbText
 10
75.77053103967334
 20
4.638284347278093
 30
0.0
 40
0.075
  1
8
  7
ADESK1
 72
     4
 11
75.80624532538763
 21
4.675784347278092
 31
0.0
100
AcDbText
  0
TEXT
  5
1822331CE027E00A
330
1063C03AE4E6B6F0
100
AcDbEntity
  8
LABELDIM
100
AcDbText
 10
75.77231675395906
 20
5.038284347278091
 30
0.0
 40
0.075
  1
9
  7
ADESK1
 72
     4
 11
75.80624532538763
 21
5.075784347278091
 31
0.0
100
AcDbText
  0
TEXT
  5
1822331CE027E00B
330
1063C03AE4E6B6F0
100
AcDbEntity
  8
LABELDIM
100
AcDbText
 10
75.76874532538764
 20
4.838284347278092
 30
0.0
 40
0.075
  1
C
  7
ADESK1
 72
     4
 11
75.80624532538763
 21
4.875784347278091
 31
0.0
100
AcDbText
  0
TEXT
  5
1822331CE027E00C
330
1063C03AE4E6B6F0
100
AcDbEntity
  8
LABELDIM
100
AcDbText
 10
75.72945961110192
 20
5.23828434727809
 30
0.0
 40
0.075
  1
10
  7
ADESK1
 72
     4
 11
75.80624532538763
 21
5.27578434727809
 31
0.0
100
AcDbText
  0
TEXT
  5
1822331CE027E00D
330
1063C03AE4E6B6F0
100
AcDbEntity
  8
LABELDIM
100
AcDbText
 10
75.72945961110192
 20
5.638284347278089
 30
0.0
 40
0.075
  1
12
  7
ADESK1
 72
     4
 11
75.80624532538763
 21
5.675784347278089
 31
0.0
100
AcDbText
  0
TEXT
  5
1822331CE027E00E
330
1063C03AE4E6B6F0
100
AcDbEntity
  8
LABELDIM
100
AcDbText
 10
75.72945961110192
 20
5.838284347278092
 30
0.0
 40
0.075
  1
13
  7
ADESK1
 72
     4
 11
75.80624532538763
 21
5.875784347278091
 31
0.0
100
AcDbText
  0
TEXT
  5
1822331CE027E00F
330
1063C03AE4E6B6F0
100
AcDbEntity
  8
LABELDIM
100
AcDbText
 10
75.7401738968162
 20
5.43828434727809
 30
0.0
 40
0.075
  1
11
  7
ADESK1
 72
     4
 11
75.80624532538763
 21
5.475784347278089
 31
0.0
100
AcDbText
  0
CIRCLE
  5
1822331CE027E010
330
1063C03AE4E6B6F0
100
AcDbEntity
  8
LABELDIM
100
AcDbCircle
 10
76.10724532538762
 20
5.275784347278086
 30
0.0
 40
0.0499999999999972
  0
CIRCLE
  5
1822331CE027E011
330
1063C03AE4E6B6F0
100
AcDbEntity
  8
LABELDIM
100
AcDbCircle
 10
76.10724532538762
 20
5.075784347278087
 30
0.0
 40
0.0499999999999972
  0
CIRCLE
  5
1822331CE027E012
330
1063C03AE4E6B6F0
100
AcDbEntity
  8
LABELDIM
100
AcDbCircle
 10
76.10724532538762
 20
4.675784347278089
 30
0.0
 40
0.0499999999999972
  0
LINE
  5
1822331CE027E013
330
1063C03AE4E6B6F0
100
AcDbEntity
  8
LABELDIM
100
AcDbLine
 10
76.05724532538762
 20
4.675784347278089
 30
0.0
 11
75.93424532538762
 21
4.675784347278089
 31
0.0
  0
LINE
  5
1822331CE027E014
330
1063C03AE4E6B6F0
100
AcDbEntity
  8
LABELDIM
100
AcDbLine
 10
76.05724532538762
 20
5.075784347278087
 30
0.0
 11
75.93424532538762
 21
5.075784347278087
 31
0.0
  0
LINE
  5
1822331CE027E015
330
1063C03AE4E6B6F0
100
AcDbEntity
  8
LABELDIM
100
AcDbLine
 10
76.05724532538762
 20
5.275784347278086
 30
0.0
 11
75.93424532538762
 21
5.275784347278086
 31
0.0
  0
LINE
  5
1822331CE027E016
330
1063C03AE4E6B6F0
100
AcDbEntity
  8
LABELDIM
100
AcDbLine
 10
76.15824532538763
 20
4.875784347278088
 30
0.0
 11
75.93424532538762
 21
4.875784347278088
 31
0.0
  0
CIRCLE
  5
1822331CE027E017
330
1063C03AE4E6B6F0
100
AcDbEntity
  8
LABELDIM
100
AcDbCircle
 10
76.10724532538762
 20
5.875784347278084
 30
0.0
 40
0.0499999999999972
  0
CIRCLE
  5
1822331CE027E018
330
1063C03AE4E6B6F0
100
AcDbEntity
  8
LABELDIM
100
AcDbCircle
 10
76.10724532538762
 20
5.475784347278086
 30
0.0
 40
0.0499999999999972
  0
CIRCLE
  5
1822331CE027E019
330
1063C03AE4E6B6F0
100
AcDbEntity
  8
LABELDIM
100
AcDbCircle
 10
76.10724532538762
 20
5.675784347278085
 30
0.0
 40
0.0499999999999972
  0
LINE
  5
1822331CE027E01A
330
1063C03AE4E6B6F0
100
AcDbEntity
  8
LABELDIM
100
AcDbLine
 10
76.05724532538762
 20
5.675784347278085
 30
0.0
 11
75.93424532538762
 21
5.675784347278085
 31
0.0
  0
LINE
  5
1822331CE027E01B
330
1063C03AE4E6B6F0
100
AcDbEntity
  8
LABELDIM
100
AcDbLine
 10
76.05724532538762
 20
6.075784347278084
 30
0.0
 11
75.93424532538762
 21
6.075784347278084
 31
0.0
  0
LINE
  5
1822331CE027E01C
330
1063C03AE4E6B6F0
100
AcDbEntity
  8
LABELDIM
100
AcDbLine
 10
76.05724532538762
 20
5.875784347278084
 30
0.0
 11
75.93424532538762
 21
5.875784347278084
 31
0.0
  0
LINE
  5
1822331CE027E01D
330
1063C03AE4E6B6F0
100
AcDbEntity
  8
LABELDIM
100
AcDbLine
 10
76.05724532538762
 20
5.475784347278086
 30
0.0
 11
75.93424532538762
 21
5.475784347278086
 31
0.0
  0
TEXT
  5
1822331CE027E01E
330
1063C03AE4E6B6F0
100
AcDbEntity
  8
LABELDIM
100
AcDbText
 10
75.74553103967335
 20
7.43828434727809
 30
0.0
 40
0.075
  1
21
  7
ADESK1
 72
     4
 11
75.80624532538763
 21
7.475784347278089
 31
0.0
100
AcDbText
  0
TEXT
  5
1822331CE027E01F
330
1063C03AE4E6B6F0
100
AcDbEntity
  8
LABELDIM
100
AcDbText
 10
75.73481675395907
 20
7.23828434727809
 30
0.0
 40
0.075
  1
20
  7
ADESK1
 72
     4
 11
75.80624532538763
 21
7.27578434727809
 31
0.0
100
AcDbText
  0
TEXT
  5
1822331CE027E020
330
1063C03AE4E6B6F0
100
AcDbEntity
  8
LABELDIM
100
AcDbText
 10
75.72945961110192
 20
6.638284347278089
 30
0.0
 40
0.075
  1
17
  7
ADESK1
 72
     4
 11
75.80624532538763
 21
6.675784347278089
 31
0.0
100
AcDbText
  0
TEXT
  5
1822331CE027E021
330
1063C03AE4E6B6F0
100
AcDbEntity
  8
LABELDIM
100
AcDbText
 10
75.72945961110192
 20
6.838284347278092
 30
0.0
 40
0.075
  1
18
  7
ADESK1
 72
     4
 11
75.80624532538763
 21
6.875784347278091
 31
0.0
100
AcDbText
  0
TEXT
  5
1822331CE027E022
330
1063C03AE4E6B6F0
100
AcDbEntity
  8
LABELDIM
100
AcDbText
 10
75.73124532538763
 20
7.038284347278091
 30
0.0
 40
0.075
  1
19
  7
ADESK1
 72
     4
 11
75.80624532538763
 21
7.075784347278091
 31
0.0
100
AcDbText
  0
TEXT
  5
1822331CE027E023
330
1063C03AE4E6B6F0
100
AcDbEntity
  8
LABELDIM
100
AcDbText
 10
75.72945961110192
 20
6.43828434727809
 30
0.0
 40
0.075
  1
16
  7
ADESK1
 72
     4
 11
75.80624532538763
 21
6.475784347278089
 31
0.0
100
AcDbText
  0
TEXT
  5
1822331CE027E024
330
1063C03AE4E6B6F0
100
AcDbEntity
  8
LABELDIM
100
AcDbText
 10
75.72945961110192
 20
6.23828434727809
 30
0.0
 40
0.075
  1
15
  7
ADESK1
 72
     4
 11
75.80624532538763
 21
6.27578434727809
 31
0.0
100
AcDbText
  0
CIRCLE
  5
1822331CE027E025
330
1063C03AE4E6B6F0
100
AcDbEntity
  8
LABELDIM
100
AcDbCircle
 10
76.10724532538762
 20
6.875784347278084
 30
0.0
 40
0.0499999999999972
  0
CIRCLE
  5
1822331CE027E026
330
1063C03AE4E6B6F0
100
AcDbEntity
  8
LABELDIM
100
AcDbCircle
 10
76.10724532538762
 20
6.275784347278086
 30
0.0
 40
0.0499999999999972
  0
CIRCLE
  5
1822331CE027E027
330
1063C03AE4E6B6F0
100
AcDbEntity
  8
LABELDIM
100
AcDbCircle
 10
76.10724532538762
 20
6.475784347278086
 30
0.0
 40
0.0499999999999972
  0
CIRCLE
  5
1822331CE027E028
330
1063C03AE4E6B6F0
100
AcDbEntity
  8
LABELDIM
100
AcDbCircle
 10
76.10724532538762
 20
6.675784347278085
 30
0.0
 40
0.0499999999999972
  0
LINE
  5
1822331CE027E029
330
1063C03AE4E6B6F0
100
AcDbEntity
  8
LABELDIM
100
AcDbLine
 10
76.05724532538762
 20
6.675784347278085
 30
0.0
 11
75.93424532538762
 21
6.675784347278085
 31
0.0
  0
LINE
  5
1822331CE027E02A
330
1063C03AE4E6B6F0
100
AcDbEntity
  8
LABELDIM
100
AcDbLine
 10
76.05724532538762
 20
6.275784347278086
 30
0.0
 11
75.93424532538762
 21
6.275784347278086
 31
0.0
  0
LINE
  5
1822331CE027E02B
330
1063C03AE4E6B6F0
100
AcDbEntity
  8
LABELDIM
100
AcDbLine
 10
76.05724532538762
 20
6.475784347278086
 30
0.0
 11
75.93424532538762
 21
6.475784347278086
 31
0.0
  0
CIRCLE
  5
1822331CE027E02C
330
1063C03AE4E6B6F0
100
AcDbEntity
  8
LABELDIM
100
AcDbCircle
 10
76.10724532538762
 20
7.475784347278086
 30
0.0
 40
0.0499999999999972
  0
CIRCLE
  5
1822331CE027E02D
330
1063C03AE4E6B6F0
100
AcDbEntity
  8
LABELDIM
100
AcDbCircle
 10
76.10724532538762
 20
7.075784347278084
 30
0.0
 40
0.0499999999999972
  0
CIRCLE
  5
1822331CE027E02E
330
1063C03AE4E6B6F0
100
AcDbEntity
  8
LABELDIM
100
AcDbCircle
 10
76.10724532538762
 20
7.275784347278083
 30
0.0
 40
0.0499999999999972
  0
LINE
  5
1822331CE027E02F
330
1063C03AE4E6B6F0
100
AcDbEntity
  8
LABELDIM
100
AcDbLine
 10
76.05724532538762
 20
7.075784347278084
 30
0.0
 11
75.93424532538762
 21
7.075784347278087
 31
0.0
  0
LINE
  5
1822331CE027E030
330
1063C03AE4E6B6F0
100
AcDbEntity
  8
LABELDIM
100
AcDbLine
 10
76.05724532538762
 20
7.475784347278086
 30
0.0
 11
75.93424532538762
 21
7.475784347278086
 31
0.0
  0
LINE
  5
1822331CE027E031
330
1063C03AE4E6B6F0
100
AcDbEntity
  8
LABELDIM
100
AcDbLine
 10
76.05724532538762
 20
7.275784347278083
 30
0.0
 11
75.93424532538762
 21
7.275784347278086
 31
0.0
  0
LINE
  5
1822331CE027E032
330
1063C03AE4E6B6F0
100
AcDbEntity
  8
LABELDIM
100
AcDbLine
 10
76.05724532538762
 20
6.875784347278084
 30
0.0
 11
75.93424532538762
 21
6.875784347278084
 31
0.0
  0
TEXT
  5
1822331CE027E033
330
1063C03AE4E6B6F0
100
AcDbEntity
  8
LABELDIM
100
AcDbText
 10
75.73481675395907
 20
7.638284347278093
 30
0.0
 40
0.075
  1
22
  7
ADESK1
 72
     4
 11
75.80624532538763
 21
7.675784347278092
 31
0.0
100
AcDbText
  0
TEXT
  5
1822331CE027E034
330
1063C03AE4E6B6F0
100
AcDbEntity
  8
LABELDIM
100
AcDbText
 10
75.76874532538764
 20
7.838284347278092
 30
0.0
 40
0.075
  1
C
  7
ADESK1
 72
     4
 11
75.80624532538763
 21
7.875784347278091
 31
0.0
100
AcDbText
  0
CIRCLE
  5
1822331CE027E039
330
1063C03AE4E6B6F0
100
AcDbEntity
  8
LABELDIM
100
AcDbCircle
 10
76.10724532538762
 20
7.675784347278085
 30
0.0
 40
0.0499999999999972
  0
LINE
  5
1822331CE027E03D
330
1063C03AE4E6B6F0
100
AcDbEntity
  8
LABELDIM
100
AcDbLine
 10
76.05724532538762
 20
7.675784347278085
 30
0.0
 11
75.93424532538762
 21
7.675784347278089
 31
0.0
  0
LINE
  5
1822331CE027E043
330
1063C03AE4E6B6F0
100
AcDbEntity
  8
LABELDIM
100
AcDbLine
 10
75.93424532538762
 20
7.875784347278088
 30
0.0
 11
76.15824532538763
 21
7.875784347278088
 31
0.0
  0
CIRCLE
  5
222E9B03855F86A7
330
1063C03AE4E6B6F0
100
AcDbEntity
  8
LABELDIM
100
AcDbCircle
 10
76.10724532538762
 20
8.565784347278089
 30
0.0
 40
0.0499999999999972
  0
LWPOLYLINE
  5
222E9B03855F86A8
330
1063C03AE4E6B6F0
100
AcDbEntity
  8
LABELDIM
100
AcDbPolyline
 90
        3
 70
     0
 43
0.02
 10
76.24474532538762
 20
8.384784347278092
 10
75.61974532538762
 20
8.384784347278092
 10
75.61974532538762
 20
9.264784347278091
  0
TEXT
  5
222E9B03855F86B0
330
1063C03AE4E6B6F0
100
AcDbEntity
  8
LABELDIM
100
AcDbText
 10
75.77174532538764
 20
9.32828434727809
 30
0.0
 40
0.075
  1
C
  7
ADESK1
 72
     4
 11
75.80924532538763
 21
9.36578434727809
 31
0.0
100
AcDbText
  0
TEXT
  5
222E9B03855F86B1
330
1063C03AE4E6B6F0
100
AcDbEntity
  8
LABELDIM
100
AcDbText
 10
75.77353103967334
 20
8.928284347278092
 30
0.0
 40
0.075
  1
3
  7
ADESK1
 72
     4
 11
75.80924532538763
 21
8.965784347278091
 31
0.0
100
AcDbText
  0
TEXT
  5
222E9B03855F86B2
330
1063C03AE4E6B6F0
100
AcDbEntity
  8
LABELDIM
100
AcDbText
 10
75.77174532538764
 20
9.128284347278095
 30
0.0
 40
0.075
  1
4
  7
ADESK1
 72
     4
 11
75.80924532538763
 21
9.165784347278094
 31
0.0
100
AcDbText
  0
TEXT
  5
222E9B03855F86B3
330
1063C03AE4E6B6F0
100
AcDbEntity
  8
LABELDIM
100
AcDbText
 10
75.77353103967334
 20
8.728284347278089
 30
0.0
 40
0.075
  1
2
  7
ADESK1
 72
     4
 11
75.80924532538763
 21
8.765784347278088
 31
0.0
100
AcDbText
  0
LINE
  5
222E9B03855F86B4
330
1063C03AE4E6B6F0
100
AcDbEntity
  8
LABELDIM
100
AcDbLine
 10
75.93424532538762
 20
8.565784347278089
 30
0.0
 11
75.93424532538762
 21
9.36578434727809
 31
0.0
  0
LINE
  5
222E9B03855F86B5
330
1063C03AE4E6B6F0
100
AcDbEntity
  8
LABELDIM
100
AcDbLine
 10
75.98524532538762
 20
8.965784347278091
 30
0.0
 11
75.93424532538762
 21
8.965784347278091
 31
0.0
  0
LINE
  5
222E9B03855F86B6
330
1063C03AE4E6B6F0
100
AcDbEntity
  8
LABELDIM
100
AcDbLine
 10
75.98524532538762
 20
9.00578434727809
 30
0.0
 11
75.98524532538762
 21
8.925784347278092
 31
0.0
  0
LINE
  5
222E9B03855F86B7
330
1063C03AE4E6B6F0
100
AcDbEntity
  8
LABELDIM
100
AcDbLine
 10
76.01324532538763
 20
9.00578434727809
 30
0.0
 11
76.01324532538763
 21
8.925784347278092
 31
0.0
  0
LINE
  5
222E9B03855F86B8
330
1063C03AE4E6B6F0
100
AcDbEntity
  8
LABELDIM
100
AcDbLine
 10
76.01324532538763
 20
8.965784347278091
 30
0.0
 11
76.05724532538762
 21
8.965784347278091
 31
0.0
  0
LINE
  5
222E9B03855F86B9
330
1063C03AE4E6B6F0
100
AcDbEntity
  8
LABELDIM
100
AcDbLine
 10
75.98524532538762
 20
8.805784347278088
 30
0.0
 11
75.98524532538762
 21
8.725784347278089
 31
0.0
  0
LINE
  5
222E9B03855F86BA
330
1063C03AE4E6B6F0
100
AcDbEntity
  8
LABELDIM
100
AcDbLine
 10
76.01324532538763
 20
8.805784347278088
 30
0.0
 11
76.01324532538763
 21
8.725784347278089
 31
0.0
  0
LINE
  5
222E9B03855F86BB
330
1063C03AE4E6B6F0
100
AcDbEntity
  8
LABELDIM
100
AcDbLine
 10
76.01324532538763
 20
8.765784347278088
 30
0.0
 11
76.05724532538762
 21
8.765784347278088
 31
0.0
  0
CIRCLE
  5
222E9B03855F86BC
330
1063C03AE4E6B6F0
100
AcDbEntity
  8
LABELDIM
100
AcDbCircle
 10
76.10724532538762
 20
8.765784347278088
 30
0.0
 40
0.0499999999999972
  0
CIRCLE
  5
222E9B03855F86BD
330
1063C03AE4E6B6F0
100
AcDbEntity
  8
LABELDIM
100
AcDbCircle
 10
76.10724532538762
 20
8.965784347278091
 30
0.0
 40
0.0499999999999972
  0
LINE
  5
222E9B03855F86BE
330
1063C03AE4E6B6F0
100
AcDbEntity
  8
LABELDIM
100
AcDbLine
 10
75.98524532538762
 20
8.765784347278088
 30
0.0
 11
75.93424532538762
 21
8.765784347278088
 31
0.0
  0
LINE
  5
222E9B03855F86BF
330
1063C03AE4E6B6F0
100
AcDbEntity
  8
LABELDIM
100
AcDbLine
 10
75.98524532538762
 20
8.565784347278089
 30
0.0
 11
75.93424532538762
 21
8.565784347278089
 31
0.0
  0
LINE
  5
222E9B03855F86C0
330
1063C03AE4E6B6F0
100
AcDbEntity
  8
LABELDIM
100
AcDbLine
 10
75.98524532538762
 20
8.605784347278088
 30
0.0
 11
75.98524532538762
 21
8.52578434727809
 31
0.0
  0
LINE
  5
222E9B03855F86C1
330
1063C03AE4E6B6F0
100
AcDbEntity
  8
LABELDIM
100
AcDbLine
 10
76.01324532538763
 20
8.605784347278088
 30
0.0
 11
76.01324532538763
 21
8.52578434727809
 31
0.0
  0
LINE
  5
222E9B03855F86C2
330
1063C03AE4E6B6F0
100
AcDbEntity
  8
LABELDIM
100
AcDbLine
 10
76.01324532538763
 20
8.565784347278089
 30
0.0
 11
76.05724532538762
 21
8.565784347278089
 31
0.0
  0
TEXT
  5
222E9B03855F86C3
330
1063C03AE4E6B6F0
100
AcDbEntity
  8
LABELDIM
100
AcDbText
 10
75.77888818253049
 20
8.528284347278093
 30
0.0
 40
0.075
  1
1
  7
ADESK1
 72
     4
 11
75.80924532538763
 21
8.565784347278093
 31
0.0
100
AcDbText
  0
LINE
  5
222E9B03855F86CC
330
1063C03AE4E6B6F0
100
AcDbEntity
  8
LABELDIM
100
AcDbLine
 10
75.98524532538762
 20
9.165784347278091
 30
0.0
 11
75.93424532538762
 21
9.165784347278091
 31
0.0
  0
LINE
  5
222E9B03855F86CD
330
1063C03AE4E6B6F0
100
AcDbEntity
  8
LABELDIM
100
AcDbLine
 10
75.98524532538762
 20
9.20578434727809
 30
0.0
 11
75.98524532538762
 21
9.125784347278091
 31
0.0
  0
LINE
  5
222E9B03855F86CE
330
1063C03AE4E6B6F0
100
AcDbEntity
  8
LABELDIM
100
AcDbLine
 10
76.01324532538763
 20
9.20578434727809
 30
0.0
 11
76.01324532538763
 21
9.125784347278091
 31
0.0
  0
LINE
  5
222E9B03855F86CF
330
1063C03AE4E6B6F0
100
AcDbEntity
  8
LABELDIM
100
AcDbLine
 10
76.01324532538763
 20
9.165784347278091
 30
0.0
 11
76.05724532538762
 21
9.165784347278091
 31
0.0
  0
CIRCLE
  5
222E9B03855F86D2
330
1063C03AE4E6B6F0
100
AcDbEntity
  8
LABELDIM
100
AcDbCircle
 10
76.10724532538762
 20
9.165784347278091
 30
0.0
 40
0.0499999999999972
  0
LINE
  5
222E9B03855F86D3
330
1063C03AE4E6B6F0
100
AcDbEntity
  8
LABELDIM
100
AcDbLine
 10
75.93424532538762
 20
9.36578434727809
 30
0.0
 11
76.15824532538763
 21
9.36578434727809
 31
0.0
  0
LWPOLYLINE
  5
222E9B03855F86D4
330
1063C03AE4E6B6F0
100
AcDbEntity
  8
LABELDIM
100
AcDbPolyline
 90
        3
 70
     0
 43
0.02
 10
76.24474532538762
 20
11.14678434727809
 10
75.61974532538762
 20
11.14678434727809
 10
75.61974532538762
 20
10.26978434727809
  0
TEXT
  5
222E9B03855F86D9
330
1063C03AE4E6B6F0
100
AcDbEntity
  8
LABELDIM
100
AcDbText
 10
75.73781675395905
 20
10.72828434727809
 30
0.0
 40
0.075
  1
8A
  7
ADESK1
 72
     4
 11
75.80924532538762
 21
10.76578434727809
 31
0.0
100
AcDbText
  0
TEXT
  5
222E9B03855F86DA
330
1063C03AE4E6B6F0
100
AcDbEntity
  8
LABELDIM
100
AcDbText
 10
75.73603103967333
 20
10.92828434727809
 30
0.0
 40
0.075
  1
8B
  7
ADESK1
 72
     4
 11
75.80924532538762
 21
10.96578434727808
 31
0.0
100
AcDbText
  0
TEXT
  5
222E9B03855F86DE
330
1063C03AE4E6B6F0
100
AcDbEntity
  8
LABELDIM
100
AcDbText
 10
75.73603103967333
 20
10.52828434727808
 30
0.0
 40
0.075
  1
7B
  7
ADESK1
 72
     4
 11
75.80924532538762
 21
10.56578434727808
 31
0.0
100
AcDbText
  0
TEXT
  5
222E9B03855F86DF
330
1063C03AE4E6B6F0
100
AcDbEntity
  8
LABELDIM
100
AcDbText
 10
75.73781675395905
 20
10.32828434727809
 30
0.0
 40
0.075
  1
7A
  7
ADESK1
 72
     4
 11
75.80924532538762
 21
10.36578434727809
 31
0.0
100
AcDbText
  0
LINE
  5
222E9B03855F86E0
330
1063C03AE4E6B6F0
100
AcDbEntity
  8
LABELDIM
100
AcDbLine
 10
75.93424532538762
 20
10.45178434727809
 30
0.0
 11
75.93424532538762
 21
10.36578434727809
 31
0.0
  0
LINE
  5
222E9B03855F86EC
330
1063C03AE4E6B6F0
100
AcDbEntity
  8
LABELDIM
100
AcDbLine
 10
75.93424532538762
 20
10.36578434727809
 30
0.0
 11
76.15824532538763
 21
10.36578434727809
 31
0.0
  0
LINE
  5
222E9B03855F86ED
330
1063C03AE4E6B6F0
100
AcDbEntity
  8
LABELDIM
100
AcDbLine
 10
75.89424532538763
 20
10.87978434727808
 30
0.0
 11
75.97424532538763
 21
10.87978434727808
 31
0.0
  0
LINE
  5
222E9B03855F86EE
330
1063C03AE4E6B6F0
100
AcDbEntity
  8
LABELDIM
100
AcDbLine
 10
75.89424532538763
 20
10.85178434727809
 30
0.0
 11
75.97424532538763
 21
10.85178434727809
 31
0.0
  0
LINE
  5
222E9B03855F86EF
330
1063C03AE4E6B6F0
100
AcDbEntity
  8
LABELDIM
100
AcDbLine
 10
75.93424532538762
 20
10.87978434727808
 30
0.0
 11
75.93424532538762
 21
10.96578434727808
 31
0.0
  0
LINE
  5
222E9B03855F86F0
330
1063C03AE4E6B6F0
100
AcDbEntity
  8
LABELDIM
100
AcDbLine
 10
75.93424532538762
 20
10.85178434727809
 30
0.0
 11
75.93424532538762
 21
10.76578434727808
 31
0.0
  0
LINE
  5
222E9B03855F86F1
330
1063C03AE4E6B6F0
100
AcDbEntity
  8
LABELDIM
100
AcDbLine
 10
75.93424532538762
 20
10.96578434727808
 30
0.0
 11
76.15824532538763
 21
10.96578434727808
 31
0.0
  0
LINE
  5
222E9B03855F86F2
330
1063C03AE4E6B6F0
100
AcDbEntity
  8
LABELDIM
100
AcDbLine
 10
75.93424532538762
 20
10.76578434727808
 30
0.0
 11
76.15824532538763
 21
10.76578434727808
 31
0.0
  0
LINE
  5
222E9B03855F86F3
330
1063C03AE4E6B6F0
100
AcDbEntity
  8
LABELDIM
100
AcDbLine
 10
75.89424532538763
 20
10.45178434727809
 30
0.0
 11
75.97424532538763
 21
10.45178434727809
 31
0.0
  0
LINE
  5
222E9B03855F86F4
330
1063C03AE4E6B6F0
100
AcDbEntity
  8
LABELDIM
100
AcDbLine
 10
75.89424532538763
 20
10.47978434727809
 30
0.0
 11
75.97424532538763
 21
10.47978434727809
 31
0.0
  0
CIRCLE
  5
222E9B03855F86F5
330
1063C03AE4E6B6F0
100
AcDbEntity
  8
LABELDIM
100
AcDbCircle
 10
76.10724532538762
 20
10.86578434727808
 30
0.0
 40
0.0499999999999972
  0
CIRCLE
  5
222E9B03855F86F6
330
1063C03AE4E6B6F0
100
AcDbEntity
  8
LABELDIM
100
AcDbCircle
 10
76.10724532538762
 20
10.46578434727808
 30
0.0
 40
0.0499999999999972
  0
LINE
  5
222E9B03855F86F7
330
1063C03AE4E6B6F0
100
AcDbEntity
  8
LABELDIM
100
AcDbLine
 10
75.93424532538762
 20
10.47978434727809
 30
0.0
 11
75.93424532538762
 21
10.56578434727808
 31
0.0
  0
LINE
  5
222E9B03855F86F8
330
1063C03AE4E6B6F0
100
AcDbEntity
  8
LABELDIM
100
AcDbLine
 10
75.93424532538762
 20
10.56578434727808
 30
0.0
 11
76.15824532538763
 21
10.56578434727808
 31
0.0
  0
TEXT
  5
222E9B03855F86F9
330
1063C03AE4E6B6F0
100
AcDbEntity
  8
LABELDIM
100
AcDbText
 10
75.64474532538763
 20
9.288998632992377
 30
0.0
 40
0.075
  1
Discrete Outputs
 50
90.0
  7
ADESK1
 72
     4
 11
75.61974532538762
 21
9.765784347278092
 31
0.0
100
AcDbText
  0
TEXT
  5
222E9B03855F871A
330
1063C03AE4E6B6F0
100
AcDbEntity
  8
LABELDIM
100
AcDbText
 10
75.73424532538762
 20
10.12828434727808
 30
0.0
 40
0.075
  1
6B
  7
ADESK1
 72
     4
 11
75.80924532538762
 21
10.16578434727808
 31
0.0
100
AcDbText
  0
TEXT
  5
222E9B03855F871B
330
1063C03AE4E6B6F0
100
AcDbEntity
  8
LABELDIM
100
AcDbText
 10
75.73781675395905
 20
9.52828434727809
 30
0.0
 40
0.075
  1
5A
  7
ADESK1
 72
     4
 11
75.80924532538762
 21
9.565784347278089
 31
0.0
100
AcDbText
  0
CIRCLE
  5
222E9B03855F871C
330
1063C03AE4E6B6F0
100
AcDbEntity
  8
LABELDIM
100
AcDbCircle
 10
76.10724532538762
 20
10.06578434727808
 30
0.0
 40
0.0499999999999972
  0
LINE
  5
222E9B03855F871D
330
1063C03AE4E6B6F0
100
AcDbEntity
  8
LABELDIM
100
AcDbLine
 10
75.93424532538762
 20
10.16578434727808
 30
0.0
 11
76.15824532538763
 21
10.16578434727808
 31
0.0
  0
LINE
  5
222E9B03855F871E
330
1063C03AE4E6B6F0
100
AcDbEntity
  8
LABELDIM
100
AcDbLine
 10
75.93424532538762
 20
10.07978434727808
 30
0.0
 11
75.93424532538762
 21
10.16578434727808
 31
0.0
  0
LINE
  5
222E9B03855F871F
330
1063C03AE4E6B6F0
100
AcDbEntity
  8
LABELDIM
100
AcDbLine
 10
75.89424532538763
 20
10.07978434727808
 30
0.0
 11
75.97424532538763
 21
10.07978434727808
 31
0.0
  0
LINE
  5
222E9B03855F8720
330
1063C03AE4E6B6F0
100
AcDbEntity
  8
LABELDIM
100
AcDbLine
 10
75.89424532538763
 20
10.05178434727808
 30
0.0
 11
75.97424532538763
 21
10.05178434727808
 31
0.0
  0
LINE
  5
222E9B03855F8721
330
1063C03AE4E6B6F0
100
AcDbEntity
  8
LABELDIM
100
AcDbLine
 10
75.93424532538762
 20
10.05178434727808
 30
0.0
 11
75.93424532538762
 21
9.965784347278088
 31
0.0
  0
TEXT
  5
222E9B03855F8722
330
1063C03AE4E6B6F0
100
AcDbEntity
  8
LABELDIM
100
AcDbText
 10
75.73603103967333
 20
9.928284347278092
 30
0.0
 40
0.075
  1
6A
  7
ADESK1
 72
     4
 11
75.80924532538762
 21
9.965784347278091
 31
0.0
100
AcDbText
  0
LINE
  5
222E9B03855F8723
330
1063C03AE4E6B6F0
100
AcDbEntity
  8
LABELDIM
100
AcDbLine
 10
75.93424532538762
 20
9.965784347278088
 30
0.0
 11
76.15824532538763
 21
9.965784347278088
 31
0.0
  0
TEXT
  5
222E9B03855F8724
330
1063C03AE4E6B6F0
100
AcDbEntity
  8
LABELDIM
100
AcDbText
 10
75.73603103967333
 20
9.728284347278085
 30
0.0
 40
0.075
  1
5B
  7
ADESK1
 72
     4
 11
75.80924532538762
 21
9.765784347278085
 31
0.0
100
AcDbText
  0
LINE
  5
222E9B03855F8725
330
1063C03AE4E6B6F0
100
AcDbEntity
  8
LABELDIM
100
AcDbLine
 10
75.93424532538762
 20
9.765784347278085
 30
0.0
 11
76.15824532538763
 21
9.765784347278085
 31
0.0
  0
LINE
  5
222E9B03855F8726
330
1063C03AE4E6B6F0
100
AcDbEntity
  8
LABELDIM
100
AcDbLine
 10
75.93424532538762
 20
9.67978434727809
 30
0.0
 11
75.93424532538762
 21
9.765784347278085
 31
0.0
  0
LINE
  5
222E9B03855F8727
330
1063C03AE4E6B6F0
100
AcDbEntity
  8
LABELDIM
100
AcDbLine
 10
75.89424532538763
 20
9.67978434727809
 30
0.0
 11
75.97424532538763
 21
9.67978434727809
 31
0.0
  0
LINE
  5
222E9B03855F8728
330
1063C03AE4E6B6F0
100
AcDbEntity
  8
LABELDIM
100
AcDbLine
 10
75.89424532538763
 20
9.651784347278091
 30
0.0
 11
75.97424532538763
 21
9.651784347278091
 31
0.0
  0
LINE
  5
222E9B03855F8729
330
1063C03AE4E6B6F0
100
AcDbEntity
  8
LABELDIM
100
AcDbLine
 10
75.93424532538762
 20
9.651784347278091
 30
0.0
 11
75.93424532538762
 21
9.565784347278089
 31
0.0
  0
CIRCLE
  5
222E9B03855F872A
330
1063C03AE4E6B6F0
100
AcDbEntity
  8
LABELDIM
100
AcDbCircle
 10
76.10724532538762
 20
9.665784347278087
 30
0.0
 40
0.0499999999999972
  0
LINE
  5
222E9B03855F872B
330
1063C03AE4E6B6F0
100
AcDbEntity
  8
LABELDIM
100
AcDbLine
 10
75.93424532538762
 20
9.565784347278089
 30
0.0
 11
76.15824532538763
 21
9.565784347278089
 31
0.0
  0
LINE
  5
222E9B03855F8747
330
1063C03AE4E6B6F0
100
AcDbEntity
  8
LABELDIM
100
AcDbLine
 10
71.74978588035852
 20
7.210784347278095
 30
0.0
 11
71.74978588035852
 21
7.367517304001638
 31
0.0
  0
LINE
  5
222E9B03855F8748
330
1063C03AE4E6B6F0
100
AcDbEntity
  8
LABELDIM
100
AcDbLine
 10
71.78474532538761
 20
7.475784347278096
 30
0.0
 11
71.78474532538761
 21
7.345784347278093
 31
0.0
  0
LINE
  5
222E9B03855F8749
330
1063C03AE4E6B6F0
100
AcDbEntity
  8
LABELDIM
100
AcDbLine
 10
71.68474532538763
 20
7.410784347278094
 30
0.0
 11
71.78474532538761
 21
7.345784347278093
 31
0.0
  0
TEXT
  5
222E9B03855F874A
330
1063C03AE4E6B6F0
100
AcDbEntity
  8
LABELDIM
100
AcDbText
 10
71.47824532538763
 20
7.173284347278095
 30
0.0
 40
0.075
  1
C
  7
ADESK1
 72
     4
 11
71.51574532538763
 21
7.210784347278095
 31
0.0
100
AcDbText
  0
LINE
  5
222E9B03855F874B
330
1063C03AE4E6B6F0
100
AcDbEntity
  8
LABELDIM
100
AcDbLine
 10
71.62574532538762
 20
7.210784347278095
 30
0.0
 11
71.74978588035852
 21
7.210784347278095
 31
0.0
  0
TEXT
  5
222E9B03855F874C
330
1063C03AE4E6B6F0
100
AcDbEntity
  8
LABELDIM
100
AcDbText
 10
71.48003103967333
 20
7.373284347278095
 30
0.0
 40
0.075
  1
2
  7
ADESK1
 72
     4
 11
71.51574532538763
 21
7.410784347278094
 31
0.0
100
AcDbText
  0
LINE
  5
222E9B03855F874D
330
1063C03AE4E6B6F0
100
AcDbEntity
  8
LABELDIM
100
AcDbLine
 10
71.62574532538762
 20
7.410784347278094
 30
0.0
 11
71.68474532538763
 21
7.410784347278094
 31
0.0
  0
LINE
  5
222E9B03855F874E
330
1063C03AE4E6B6F0
100
AcDbEntity
  8
LABELDIM
100
AcDbLine
 10
71.68474532538763
 20
7.410784347278094
 30
0.0
 11
71.78474532538761
 21
7.475784347278096
 31
0.0
  0
LINE
  5
222E9B03855F874F
330
1063C03AE4E6B6F0
100
AcDbEntity
  8
LABELDIM
100
AcDbLine
 10
71.78474532538761
 20
7.410784347278094
 30
0.0
 11
71.86974532538762
 21
7.410784347278094
 31
0.0
  0
TEXT
  5
222E9B03855F8750
330
1063C03AE4E6B6F0
100
AcDbEntity
  8
LABELDIM
100
AcDbText
 10
71.62490182195918
 20
7.434724790560816
 30
0.0
 40
0.06
  1
+
  7
ADESK1
 72
     4
 11
71.66204467910204
 21
7.460439076275101
 31
0.0
100
AcDbText
  0
LINE
  5
222E9B03855F8753
330
1063C03AE4E6B6F0
100
AcDbEntity
  8
LABELDIM
100
AcDbLine
 10
71.84724532538762
 20
8.210784347278092
 30
0.0
 11
71.84724532538762
 21
8.130784347278094
 31
0.0
  0
LINE
  5
222E9B03855F8754
330
1063C03AE4E6B6F0
100
AcDbEntity
  8
LABELDIM
100
AcDbLine
 10
71.84724532538762
 20
8.010784347278093
 30
0.0
 11
71.84724532538762
 21
8.100784347278093
 31
0.0
  0
LINE
  5
222E9B03855F8755
330
1063C03AE4E6B6F0
100
AcDbEntity
  8
LABELDIM
100
AcDbLine
 10
71.84724532538762
 20
8.210784347278092
 30
0.0
 11
71.80224532538763
 21
8.210784347278092
 31
0.0
  0
LINE
  5
222E9B03855F8756
330
1063C03AE4E6B6F0
100
AcDbEntity
  8
LABELDIM
100
AcDbLine
 10
71.84724532538762
 20
8.010784347278093
 30
0.0
 11
71.80224532538763
 21
8.010784347278093
 31
0.0
  0
TEXT
  5
222E9B03855F8757
330
1063C03AE4E6B6F0
100
AcDbEntity
  8
LABELDIM
100
AcDbText
 10
71.76076913491143
 20
8.166070061563807
 30
0.0
 40
0.025
  1
+
  7
ADESK1
 72
     4
 11
71.77624532538762
 21
8.176784347278093
 31
0.0
100
AcDbText
  0
LINE
  5
222E9B03855F8758
330
1063C03AE4E6B6F0
100
AcDbEntity
  8
LABELDIM
100
AcDbLine
 10
71.72799532538762
 20
8.147784347278093
 30
0.0
 11
71.72799532538762
 21
8.084784347278095
 31
0.0
  0
LINE
  5
222E9B03855F8759
330
1063C03AE4E6B6F0
100
AcDbEntity
  8
LABELDIM
100
AcDbLine
 10
71.78049532538763
 20
8.147784347278093
 30
0.0
 11
71.78049532538763
 21
8.084784347278095
 31
0.0
  0
LINE
  5
222E9B03855F875A
330
1063C03AE4E6B6F0
100
AcDbEntity
  8
LABELDIM
100
AcDbLine
 10
71.72799532538762
 20
8.147784347278093
 30
0.0
 11
71.78049532538763
 21
8.147784347278093
 31
0.0
  0
LINE
  5
222E9B03855F875B
330
1063C03AE4E6B6F0
100
AcDbEntity
  8
LABELDIM
100
AcDbLine
 10
71.72799532538762
 20
8.084784347278095
 30
0.0
 11
71.78049532538763
 21
8.084784347278095
 31
0.0
  0
LINE
  5
222E9B03855F875C
330
1063C03AE4E6B6F0
100
AcDbEntity
  8
LABELDIM
100
AcDbLine
 10
71.75424532538762
 20
8.010784347278093
 30
0.0
 11
71.75424532538762
 21
8.084784347278095
 31
0.0
  0
LINE
  5
222E9B03855F875D
330
1063C03AE4E6B6F0
100
AcDbEntity
  8
LABELDIM
100
AcDbLine
 10
71.75424532538762
 20
8.210784347278092
 30
0.0
 11
71.75424532538762
 21
8.147784347278093
 31
0.0
  0
LINE
  5
222E9B03855F875E
330
1063C03AE4E6B6F0
100
AcDbEntity
  8
LABELDIM
100
AcDbLine
 10
71.75424532538762
 20
8.210784347278092
 30
0.0
 11
71.70924532538762
 21
8.210784347278092
 31
0.0
  0
LINE
  5
222E9B03855F875F
330
1063C03AE4E6B6F0
100
AcDbEntity
  8
LABELDIM
100
AcDbLine
 10
71.75424532538762
 20
8.010784347278093
 30
0.0
 11
71.70924532538762
 21
8.010784347278093
 31
0.0
  0
LINE
  5
222E9B03855F8760
330
1063C03AE4E6B6F0
100
AcDbEntity
  8
LABELDIM
100
AcDbLine
 10
71.65924532538763
 20
8.173784347278093
 30
0.0
 11
71.62524532538762
 21
8.162784347278087
 31
0.0
  0
LINE
  5
222E9B03855F8761
330
1063C03AE4E6B6F0
100
AcDbEntity
  8
LABELDIM
100
AcDbLine
 10
71.65924532538763
 20
8.210784347278092
 30
0.0
 11
71.65924532538763
 21
8.173784347278093
 31
0.0
  0
LINE
  5
222E9B03855F8762
330
1063C03AE4E6B6F0
100
AcDbEntity
  8
LABELDIM
100
AcDbLine
 10
71.65924532538763
 20
8.010784347278093
 30
0.0
 11
71.65924532538763
 21
8.058784347278091
 31
0.0
  0
LINE
  5
222E9B03855F8763
330
1063C03AE4E6B6F0
100
AcDbEntity
  8
LABELDIM
100
AcDbLine
 10
71.67524532538762
 20
8.08528434727809
 30
0.0
 11
71.62524532538762
 21
8.069784347278091
 31
0.0
  0
LINE
  5
222E9B03855F8764
330
1063C03AE4E6B6F0
100
AcDbEntity
  8
LABELDIM
100
AcDbLine
 10
71.62524532538762
 20
8.100784347278089
 30
0.0
 11
71.67524532538762
 21
8.08528434727809
 31
0.0
  0
LINE
  5
222E9B03855F8765
330
1063C03AE4E6B6F0
100
AcDbEntity
  8
LABELDIM
100
AcDbLine
 10
71.67524532538762
 20
8.116284347278089
 30
0.0
 11
71.62524532538762
 21
8.100784347278089
 31
0.0
  0
LINE
  5
222E9B03855F8766
330
1063C03AE4E6B6F0
100
AcDbEntity
  8
LABELDIM
100
AcDbLine
 10
71.62524532538762
 20
8.069784347278091
 30
0.0
 11
71.65924532538763
 21
8.058784347278091
 31
0.0
  0
LINE
  5
222E9B03855F8767
330
1063C03AE4E6B6F0
100
AcDbEntity
  8
LABELDIM
100
AcDbLine
 10
71.62524532538762
 20
8.131784347278088
 30
0.0
 11
71.67524532538762
 21
8.116284347278089
 31
0.0
  0
LINE
  5
222E9B03855F8768
330
1063C03AE4E6B6F0
100
AcDbEntity
  8
LABELDIM
100
AcDbLine
 10
71.67524532538762
 20
8.147284347278088
 30
0.0
 11
71.62524532538762
 21
8.131784347278088
 31
0.0
  0
LINE
  5
222E9B03855F8769
330
1063C03AE4E6B6F0
100
AcDbEntity
  8
LABELDIM
100
AcDbLine
 10
71.62524532538762
 20
8.162784347278087
 30
0.0
 11
71.67524532538762
 21
8.147284347278088
 31
0.0
  0
LINE
  5
222E9B03855F876A
330
1063C03AE4E6B6F0
100
AcDbEntity
  8
LABELDIM
100
AcDbLine
 10
71.65924532538763
 20
8.010784347278093
 30
0.0
 11
71.61424532538763
 21
8.010784347278093
 31
0.0
  0
LINE
  5
222E9B03855F876B
330
1063C03AE4E6B6F0
100
AcDbEntity
  8
LABELDIM
100
AcDbLine
 10
71.65924532538763
 20
8.210784347278092
 30
0.0
 11
71.61424532538763
 21
8.210784347278092
 31
0.0
  0
LINE
  5
222E9B03855F876C
330
1063C03AE4E6B6F0
100
AcDbEntity
  8
LABELDIM
100
AcDbLine
 10
71.82099532538763
 20
8.130784347278094
 30
0.0
 11
71.87349532538762
 21
8.130784347278094
 31
0.0
  0
LINE
  5
222E9B03855F876D
330
1063C03AE4E6B6F0
100
AcDbEntity
  8
LABELDIM
100
AcDbLine
 10
71.82099532538763
 20
8.100784347278093
 30
0.0
 11
71.87349532538762
 21
8.100784347278093
 31
0.0
  0
TEXT
  5
222E9B03855F876E
330
1063C03AE4E6B6F0
100
AcDbEntity
  8
LABELDIM
100
AcDbText
 10
71.47824532538763
 20
7.973284347278093
 30
0.0
 40
0.075
  1
C
  7
ADESK1
 72
     4
 11
71.51574532538763
 21
8.010784347278093
 31
0.0
100
AcDbText
  0
TEXT
  5
222E9B03855F876F
330
1063C03AE4E6B6F0
100
AcDbEntity
  8
LABELDIM
100
AcDbText
 10
71.47824532538763
 20
8.173284347278093
 30
0.0
 40
0.075
  1
6
  7
ADESK1
 72
     4
 11
71.51574532538763
 21
8.210784347278092
 31
0.0
100
AcDbText
  0
LINE
  5
222E9B03855F8770
330
1063C03AE4E6B6F0
100
AcDbEntity
  8
LABELDIM
100
AcDbLine
 10
71.84724532538762
 20
8.610784347278091
 30
0.0
 11
71.84724532538762
 21
8.530784347278093
 31
0.0
  0
LINE
  5
222E9B03855F8771
330
1063C03AE4E6B6F0
100
AcDbEntity
  8
LABELDIM
100
AcDbLine
 10
71.84724532538762
 20
8.410784347278092
 30
0.0
 11
71.84724532538762
 21
8.500784347278091
 31
0.0
  0
LINE
  5
222E9B03855F8772
330
1063C03AE4E6B6F0
100
AcDbEntity
  8
LABELDIM
100
AcDbLine
 10
71.84724532538762
 20
8.610784347278091
 30
0.0
 11
71.80224532538763
 21
8.610784347278091
 31
0.0
  0
LINE
  5
222E9B03855F8773
330
1063C03AE4E6B6F0
100
AcDbEntity
  8
LABELDIM
100
AcDbLine
 10
71.84724532538762
 20
8.410784347278092
 30
0.0
 11
71.80224532538763
 21
8.410784347278092
 31
0.0
  0
TEXT
  5
222E9B03855F8774
330
1063C03AE4E6B6F0
100
AcDbEntity
  8
LABELDIM
100
AcDbText
 10
71.76076913491143
 20
8.566070061563806
 30
0.0
 40
0.025
  1
+
  7
ADESK1
 72
     4
 11
71.77624532538762
 21
8.576784347278092
 31
0.0
100
AcDbText
  0
LINE
  5
222E9B03855F8775
330
1063C03AE4E6B6F0
100
AcDbEntity
  8
LABELDIM
100
AcDbLine
 10
71.72799532538762
 20
8.547784347278092
 30
0.0
 11
71.72799532538762
 21
8.484784347278093
 31
0.0
  0
LINE
  5
222E9B03855F8776
330
1063C03AE4E6B6F0
100
AcDbEntity
  8
LABELDIM
100
AcDbLine
 10
71.78049532538763
 20
8.547784347278092
 30
0.0
 11
71.78049532538763
 21
8.484784347278093
 31
0.0
  0
LINE
  5
222E9B03855F8777
330
1063C03AE4E6B6F0
100
AcDbEntity
  8
LABELDIM
100
AcDbLine
 10
71.72799532538762
 20
8.547784347278092
 30
0.0
 11
71.78049532538763
 21
8.547784347278092
 31
0.0
  0
LINE
  5
222E9B03855F8778
330
1063C03AE4E6B6F0
100
AcDbEntity
  8
LABELDIM
100
AcDbLine
 10
71.72799532538762
 20
8.484784347278093
 30
0.0
 11
71.78049532538763
 21
8.484784347278093
 31
0.0
  0
LINE
  5
222E9B03855F8779
330
1063C03AE4E6B6F0
100
AcDbEntity
  8
LABELDIM
100
AcDbLine
 10
71.75424532538762
 20
8.410784347278092
 30
0.0
 11
71.75424532538762
 21
8.484784347278093
 31
0.0
  0
LINE
  5
222E9B03855F877A
330
1063C03AE4E6B6F0
100
AcDbEntity
  8
LABELDIM
100
AcDbLine
 10
71.75424532538762
 20
8.610784347278091
 30
0.0
 11
71.75424532538762
 21
8.547784347278092
 31
0.0
  0
LINE
  5
222E9B03855F877B
330
1063C03AE4E6B6F0
100
AcDbEntity
  8
LABELDIM
100
AcDbLine
 10
71.75424532538762
 20
8.610784347278091
 30
0.0
 11
71.70924532538762
 21
8.610784347278091
 31
0.0
  0
LINE
  5
222E9B03855F877C
330
1063C03AE4E6B6F0
100
AcDbEntity
  8
LABELDIM
100
AcDbLine
 10
71.75424532538762
 20
8.410784347278092
 30
0.0
 11
71.70924532538762
 21
8.410784347278092
 31
0.0
  0
LINE
  5
222E9B03855F877D
330
1063C03AE4E6B6F0
100
AcDbEntity
  8
LABELDIM
100
AcDbLine
 10
71.65924532538763
 20
8.573784347278092
 30
0.0
 11
71.62524532538762
 21
8.562784347278086
 31
0.0
  0
LINE
  5
222E9B03855F877E
330
1063C03AE4E6B6F0
100
AcDbEntity
  8
LABELDIM
100
AcDbLine
 10
71.65924532538763
 20
8.610784347278091
 30
0.0
 11
71.65924532538763
 21
8.573784347278092
 31
0.0
  0
LINE
  5
222E9B03855F877F
330
1063C03AE4E6B6F0
100
AcDbEntity
  8
LABELDIM
100
AcDbLine
 10
71.65924532538763
 20
8.410784347278092
 30
0.0
 11
71.65924532538763
 21
8.45878434727809
 31
0.0
  0
LINE
  5
222E9B03855F8780
330
1063C03AE4E6B6F0
100
AcDbEntity
  8
LABELDIM
100
AcDbLine
 10
71.67524532538762
 20
8.485284347278089
 30
0.0
 11
71.62524532538762
 21
8.469784347278089
 31
0.0
  0
LINE
  5
222E9B03855F8781
330
1063C03AE4E6B6F0
100
AcDbEntity
  8
LABELDIM
100
AcDbLine
 10
71.62524532538762
 20
8.500784347278088
 30
0.0
 11
71.67524532538762
 21
8.485284347278089
 31
0.0
  0
LINE
  5
222E9B03855F8782
330
1063C03AE4E6B6F0
100
AcDbEntity
  8
LABELDIM
100
AcDbLine
 10
71.67524532538762
 20
8.516284347278087
 30
0.0
 11
71.62524532538762
 21
8.500784347278088
 31
0.0
  0
LINE
  5
222E9B03855F8783
330
1063C03AE4E6B6F0
100
AcDbEntity
  8
LABELDIM
100
AcDbLine
 10
71.62524532538762
 20
8.469784347278089
 30
0.0
 11
71.65924532538763
 21
8.45878434727809
 31
0.0
  0
LINE
  5
222E9B03855F8784
330
1063C03AE4E6B6F0
100
AcDbEntity
  8
LABELDIM
100
AcDbLine
 10
71.62524532538762
 20
8.531784347278087
 30
0.0
 11
71.67524532538762
 21
8.516284347278087
 31
0.0
  0
LINE
  5
222E9B03855F8785
330
1063C03AE4E6B6F0
100
AcDbEntity
  8
LABELDIM
100
AcDbLine
 10
71.67524532538762
 20
8.547284347278086
 30
0.0
 11
71.62524532538762
 21
8.531784347278087
 31
0.0
  0
LINE
  5
222E9B03855F8786
330
1063C03AE4E6B6F0
100
AcDbEntity
  8
LABELDIM
100
AcDbLine
 10
71.62524532538762
 20
8.562784347278086
 30
0.0
 11
71.67524532538762
 21
8.547284347278086
 31
0.0
  0
LINE
  5
222E9B03855F8787
330
1063C03AE4E6B6F0
100
AcDbEntity
  8
LABELDIM
100
AcDbLine
 10
71.65924532538763
 20
8.410784347278092
 30
0.0
 11
71.61424532538763
 21
8.410784347278092
 31
0.0
  0
LINE
  5
222E9B03855F8788
330
1063C03AE4E6B6F0
100
AcDbEntity
  8
LABELDIM
100
AcDbLine
 10
71.65924532538763
 20
8.610784347278091
 30
0.0
 11
71.61424532538763
 21
8.610784347278091
 31
0.0
  0
LINE
  5
222E9B03855F8789
330
1063C03AE4E6B6F0
100
AcDbEntity
  8
LABELDIM
100
AcDbLine
 10
71.82099532538763
 20
8.530784347278093
 30
0.0
 11
71.87349532538762
 21
8.530784347278093
 31
0.0
  0
LINE
  5
222E9B03855F878A
330
1063C03AE4E6B6F0
100
AcDbEntity
  8
LABELDIM
100
AcDbLine
 10
71.82099532538763
 20
8.500784347278091
 30
0.0
 11
71.87349532538762
 21
8.500784347278091
 31
0.0
  0
TEXT
  5
222E9B03855F878B
330
1063C03AE4E6B6F0
100
AcDbEntity
  8
LABELDIM
100
AcDbText
 10
71.47824532538763
 20
8.373284347278092
 30
0.0
 40
0.075
  1
C
  7
ADESK1
 72
     4
 11
71.51574532538763
 21
8.410784347278092
 31
0.0
100
AcDbText
  0
TEXT
  5
222E9B03855F878C
330
1063C03AE4E6B6F0
100
AcDbEntity
  8
LABELDIM
100
AcDbText
 10
71.48003103967333
 20
8.573284347278091
 30
0.0
 40
0.075
  1
5
  7
ADESK1
 72
     4
 11
71.51574532538763
 21
8.610784347278091
 31
0.0
100
AcDbText
  0
LWPOLYLINE
  5
2C3B02EA2A972DF6
330
1063C03AE4E6B6F0
100
AcDbEntity
  8
LABELDIM
100
AcDbPolyline
 90
        2
 70
     0
 43
0.02
 10
71.35974532538764
 20
11.65828434727809
 10
71.35974532538764
 20
11.14328434727809
  0
TEXT
  5
2C3B02EA2A972DFA
330
1063C03AE4E6B6F0
100
AcDbEntity
  8
LABELDIM
100
AcDbText
 10
71.11724532538764
 20
11.51799863299238
 30
0.0
 40
0.075
  1
20mA
 50
270.0
  7
ADESK1
 72
     4
 11
71.15474532538764
 21
11.35728434727809
 31
0.0
100
AcDbText
  0
SOLID
  5
2C3B02EA2A972DFB
330
1063C03AE4E6B6F0
100
AcDbEntity
  8
LABELDIM
100
AcDbTrace
 10
71.15574532538762
 20
11.60628434727808
 30
0.0
 11
71.15574532538762
 21
11.54628434727808
 31
0.0
 12
71.20474532538763
 22
11.57628434727808
 32
0.0
 13
71.20474532538763
 23
11.57628434727808
 33
0.0
  0
LINE
  5
2C3B02EA2A972DFC
330
1063C03AE4E6B6F0
100
AcDbEntity
  8
LABELDIM
100
AcDbLine
 10
71.15574532538762
 20
11.57628434727808
 30
0.0
 11
71.08574532538764
 21
11.57628434727808
 31
0.0
  0
SOLID
  5
2C3B02EA2A972DFD
330
1063C03AE4E6B6F0
100
AcDbEntity
  8
LABELDIM
100
AcDbTrace
 10
71.57874532538762
 20
11.60628434727808
 30
0.0
 11
71.57874532538762
 21
11.54628434727808
 31
0.0
 12
71.62774532538763
 22
11.57628434727808
 32
0.0
 13
71.62774532538763
 23
11.57628434727808
 33
0.0
  0
LINE
  5
2C3B02EA2A972DFE
330
1063C03AE4E6B6F0
100
AcDbEntity
  8
LABELDIM
100
AcDbLine
 10
71.57874532538762
 20
11.57628434727808
 30
0.0
 11
71.50874532538764
 21
11.57628434727808
 31
0.0
  0
TEXT
  5
2C3B02EA2A972DFF
330
1063C03AE4E6B6F0
100
AcDbEntity
  8
LABELDIM
100
AcDbText
 10
71.53724532538764
 20
11.46014149013522
 30
0.0
 40
0.075
  1
Isrc
 50
270.0
  7
ADESK1
 72
     4
 11
71.57474532538763
 21
11.35835577584951
 31
0.0
100
AcDbText
  0
TEXT
  5
2C3B02EA2A972E00
330
1063C03AE4E6B6F0
100
AcDbEntity
  8
LABELDIM
100
AcDbText
 10
71.72224532538763
 20
11.50192720442095
 30
0.0
 40
0.075
  1
Mode
 50
270.0
  7
ADESK1
 72
     4
 11
71.75974532538763
 21
11.35728434727809
 31
0.0
100
AcDbText
  0
TEXT
  5
36476AD0CFCED464
330
1063C03AE4E6B6F0
100
AcDbEntity
  8
LABELDIM
100
AcDbText
 10
71.72624532538764
 20
5.506641490135235
 30
0.0
 40
0.075
  1
Sensor
 50
270.0
  7
ADESK1
 72
     4
 11
71.76374532538763
 21
5.313784347278092
 31
0.0
100
AcDbText
  0
LWPOLYLINE
  5
36476AD0CFCED469
330
1063C03AE4E6B6F0
100
AcDbEntity
  8
LABELDIM
100
AcDbPolyline
 90
        2
 70
     0
 43
0.02
 10
71.69774532538763
 20
5.112784347278092
 10
71.39474532538763
 20
5.112784347278092
  0
TEXT
  5
36476AD0CFCED46F
330
1063C03AE4E6B6F0
100
AcDbEntity
  8
LABELDIM
100
AcDbText
 10
71.41424532538763
 20
4.744141490135235
 30
0.0
 40
0.075
  1
10-26V
 50
270.0
  7
ADESK1
 72
     4
 11
71.45174532538764
 21
4.513784347278092
 31
0.0
100
AcDbText
  0
TEXT
  5
36476AD0CFCED470
330
1063C03AE4E6B6F0
100
AcDbEntity
  8
LABELDIM
100
AcDbText
 10
71.41960246824478
 20
4.860212918706665
 30
0.0
 40
0.075
  1
-
 50
270.0
  7
ADESK1
 72
     4
 11
71.45174532538764
 21
4.813784347278093
 31
0.0
100
AcDbText
  0
TEXT
  5
36476AD0CFCED471
330
1063C03AE4E6B6F0
100
AcDbEntity
  8
LABELDIM
100
AcDbText
 10
71.42060246824478
 20
5.060212918706664
 30
0.0
 40
0.075
  1
+
 50
270.0
  7
ADESK1
 72
     4
 11
71.45274532538763
 21
5.013784347278092
 31
0.0
100
AcDbText
  0
TEXT
  5
36476AD0CFCED472
330
1063C03AE4E6B6F0
100
AcDbEntity
  8
LABELDIM
100
AcDbText
 10
71.42060246824478
 20
5.26021291870666
 30
0.0
 40
0.075
  1
-
 50
270.0
  7
ADESK1
 72
     4
 11
71.45274532538763
 21
5.213784347278088
 31
0.0
100
AcDbText
  0
TEXT
  5
36476AD0CFCED473
330
1063C03AE4E6B6F0
100
AcDbEntity
  8
LABELDIM
100
AcDbText
 10
71.42060246824478
 20
5.46021291870666
 30
0.0
 40
0.075
  1
+
 50
270.0
  7
ADESK1
 72
     4
 11
71.45274532538763
 21
5.413784347278088
 31
0.0
100
AcDbText
  0
TEXT
  5
36476AD0CFCED474
330
1063C03AE4E6B6F0
100
AcDbEntity
  8
LABELDIM
100
AcDbText
 10
71.51424532538765
 20
5.053212918706664
 30
0.0
 40
0.075
  1
Out
 50
270.0
  7
ADESK1
 72
     4
 11
71.55174532538764
 21
4.956784347278093
 31
0.0
100
AcDbText
  0
TEXT
  5
36476AD0CFCED475
330
1063C03AE4E6B6F0
100
AcDbEntity
  8
LABELDIM
100
AcDbText
 10
71.62224532538764
 20
5.062141490135235
 30
0.0
 40
0.075
  1
Pwr
 50
270.0
  7
ADESK1
 72
     4
 11
71.65974532538763
 21
4.956784347278093
 31
0.0
100
AcDbText
  0
TEXT
  5
36476AD0CFCED476
330
1063C03AE4E6B6F0
100
AcDbEntity
  8
LABELDIM
100
AcDbText
 10
71.72724532538764
 20
5.049641490135235
 30
0.0
 40
0.075
  1
Aux
 50
270.0
  7
ADESK1
 72
     4
 11
71.76474532538763
 21
4.956784347278093
 31
0.0
100
AcDbText
  0
LWPOLYLINE
  5
36476AD0CFCED477
330
1063C03AE4E6B6F0
100
AcDbEntity
  8
LABELDIM
100
AcDbPolyline
 90
        3
 70
     0
 43
0.02
 10
71.58474532538763
 20
4.437784347278093
 10
71.58474532538763
 20
4.413784347278093
 10
71.51974532538763
 20
4.413784347278093
  0
LWPOLYLINE
  5
36476AD0CFCED47C
330
1063C03AE4E6B6F0
100
AcDbEntity
  8
LABELDIM
100
AcDbPolyline
 90
        3
 70
     0
 43
0.02
 10
71.67674532538763
 20
4.447784347278092
 10
71.67674532538763
 20
4.413784347278093
 10
71.61574532538764
 20
4.413784347278093
  0
LWPOLYLINE
  5
36476AD0CFCED481
330
1063C03AE4E6B6F0
100
AcDbEntity
  8
LABELDIM
100
AcDbPolyline
 90
        3
 70
     0
 43
0.02
 10
71.58474532538763
 20
4.589784347278093
 10
71.58474532538763
 20
4.613784347278093
 10
71.51974532538763
 20
4.613784347278093
  0
LWPOLYLINE
  5
36476AD0CFCED486
330
1063C03AE4E6B6F0
100
AcDbEntity
  8
LABELDIM
100
AcDbPolyline
 90
        3
 70
     0
 43
0.02
 10
71.67674532538763
 20
4.786784347278092
 10
71.67674532538763
 20
4.813784347278092
 10
71.52074532538764
 20
4.813784347278092
  0
TEXT
  5
36476AD0CFCED48B
330
1063C03AE4E6B6F0
100
AcDbEntity
  8
LABELDIM
100
AcDbText
 10
71.76224532538764
 20
4.844141490135235
 30
0.0
 40
0.075
  1
10-36V
 50
270.0
  7
ADESK1
 72
     4
 11
71.79974532538763
 21
4.613784347278092
 31
0.0
100
AcDbText
  0
LINE
  5
36476AD0CFCED48F
330
1063C03AE4E6B6F0
100
AcDbEntity
  8
LABELDIM
100
AcDbLine
 10
71.70474532538763
 20
4.671784347278092
 30
0.0
 11
71.64874532538764
 21
4.671784347278092
 31
0.0
  0
LINE
  5
36476AD0CFCED490
330
1063C03AE4E6B6F0
100
AcDbEntity
  8
LABELDIM
100
AcDbLine
 10
71.70474532538763
 20
4.555784347278092
 30
0.0
 11
71.70474532538763
 21
4.671784347278092
 31
0.0
  0
LINE
  5
36476AD0CFCED491
330
1063C03AE4E6B6F0
100
AcDbEntity
  8
LABELDIM
100
AcDbLine
 10
71.64874532538764
 20
4.555784347278092
 30
0.0
 11
71.70474532538763
 21
4.555784347278092
 31
0.0
  0
LINE
  5
36476AD0CFCED492
330
1063C03AE4E6B6F0
100
AcDbEntity
  8
LABELDIM
100
AcDbLine
 10
71.64874532538764
 20
4.671784347278092
 30
0.0
 11
71.64874532538764
 21
4.555784347278092
 31
0.0
  0
TEXT
  5
36476AD0CFCED493
330
1063C03AE4E6B6F0
100
AcDbEntity
  8
LABELDIM
100
AcDbText
 10
71.64460246824477
 20
4.772212918706664
 30
0.0
 40
0.075
  1
-
 50
270.0
  7
ADESK1
 72
     4
 11
71.67674532538763
 21
4.725784347278092
 31
0.0
100
AcDbText
  0
TEXT
  5
36476AD0CFCED494
330
1063C03AE4E6B6F0
100
AcDbEntity
  8
LABELDIM
100
AcDbText
 10
71.64460246824477
 20
4.550212918706664
 30
0.0
 40
0.075
  1
+
 50
270.0
  7
ADESK1
 72
     4
 11
71.67674532538763
 21
4.503784347278092
 31
0.0
100
AcDbText
  0
ARC
  5
36476AD0CFCED497
330
1063C03AE4E6B6F0
100
AcDbEntity
  8
LABELDIM
100
AcDbCircle
 10
71.58474532538763
 20
4.487784347278092
 30
0.0
 40
0.0259999999999998
100
AcDbArc
 50
270.0
 51
90.0
  0
ARC
  5
36476AD0CFCED498
330
1063C03AE4E6B6F0
100
AcDbEntity
  8
LABELDIM
100
AcDbCircle
 10
71.58474532538763
 20
4.539784347278092
 30
0.0
 40
0.0259999999999998
100
AcDbArc
 50
90.0
 51
270.0
  0
TEXT
  5
36476AD0CFCED49C
330
1063C03AE4E6B6F0
100
AcDbEntity
  8
LABELDIM
100
AcDbText
 10
71.51424532538765
 20
5.410212918706664
 30
0.0
 40
0.075
  1
Out
 50
270.0
  7
ADESK1
 72
     4
 11
71.55174532538764
 21
5.313784347278092
 31
0.0
100
AcDbText
  0
TEXT
  5
36476AD0CFCED49D
330
1063C03AE4E6B6F0
100
AcDbEntity
  8
LABELDIM
100
AcDbText
 10
71.62224532538764
 20
5.419141490135235
 30
0.0
 40
0.075
  1
Pwr
 50
270.0
  7
ADESK1
 72
     4
 11
71.65974532538763
 21
5.313784347278092
 31
0.0
100
AcDbText
  0
LWPOLYLINE
  5
36476AD0CFCED4A2
330
1063C03AE4E6B6F0
100
AcDbEntity
  8
LABELDIM
100
AcDbPolyline
 90
        2
 70
     0
 43
0.02
 10
71.69774532538763
 20
5.510784347278092
 10
71.39474532538763
 20
5.510784347278092
  0
TEXT
  5
36476AD0CFCED4A8
330
1063C03AE4E6B6F0
100
AcDbEntity
  8
LABELDIM
100
AcDbText
 10
71.42060246824478
 20
5.660212918706665
 30
0.0
 40
0.075
  1
-
 50
270.0
  7
ADESK1
 72
     4
 11
71.45274532538763
 21
5.613784347278094
 31
0.0
100
AcDbText
  0
TEXT
  5
36476AD0CFCED4A9
330
1063C03AE4E6B6F0
100
AcDbEntity
  8
LABELDIM
100
AcDbText
 10
71.42060246824478
 20
5.860212918706663
 30
0.0
 40
0.075
  1
+
 50
270.0
  7
ADESK1
 72
     4
 11
71.45274532538763
 21
5.813784347278091
 31
0.0
100
AcDbText
  0
TEXT
  5
36476AD0CFCED4AA
330
1063C03AE4E6B6F0
100
AcDbEntity
  8
LABELDIM
100
AcDbText
 10
71.62224532538764
 20
5.761998632992374
 30
0.0
 40
0.075
  1
In
 50
270.0
  7
ADESK1
 72
     4
 11
71.65974532538763
 21
5.713784347278088
 31
0.0
100
AcDbText
  0
TEXT
  5
36476AD0CFCED4AB
330
1063C03AE4E6B6F0
100
AcDbEntity
  8
LABELDIM
100
AcDbText
 10
71.73974532538763
 20
5.943570061563799
 30
0.0
 40
0.075
  1
Battery
 50
270.0
  7
ADESK1
 72
     4
 11
71.76474532538763
 21
5.741784347278085
 31
0.0
100
AcDbText
  0
TEXT
  5
36476AD0CFCED4AC
330
1063C03AE4E6B6F0
100
AcDbEntity
  8
LABELDIM
100
AcDbText
 10
71.98024532538763
 20
5.283212918706666
 30
0.0
 40
0.075
  1
Power
 50
270.0
  7
ADESK1
 72
     4
 11
72.01774532538762
 21
5.111784347278095
 31
0.0
100
AcDbText
  0
TEXT
  5
4053D2B775067B27
330
1063C03AE4E6B6F0
100
AcDbEntity
  8
LABELDIM
100
AcDbText
 10
74.45953103967333
 20
4.434784347278094
 30
0.0
 40
0.075
  1
EN
  7
ADESK1
 72
     4
 11
74.53274532538762
 21
4.472284347278094
 31
0.0
100
AcDbText
  0
LINE
  5
4053D2B775067B28
330
1063C03AE4E6B6F0
100
AcDbEntity
  8
LABELDIM
100
AcDbLine
 10
74.47674532538762
 20
4.281284347278095
 30
0.0
 11
74.50474532538762
 21
4.309284347278094
 31
0.0
  0
LINE
  5
4053D2B775067B29
330
1063C03AE4E6B6F0
100
AcDbEntity
  8
LABELDIM
100
AcDbLine
 10
74.47674532538762
 20
4.393284347278093
 30
0.0
 11
74.50474532538762
 21
4.365284347278095
 31
0.0
  0
CIRCLE
  5
4053D2B775067B2A
330
1063C03AE4E6B6F0
100
AcDbEntity
  8
LABELDIM
100
AcDbCircle
 10
74.53274532538762
 20
4.337284347278096
 30
0.0
 40
0.0390000000000015
  0
TEXT
  5
4053D2B775067B2B
330
1063C03AE4E6B6F0
100
AcDbEntity
  8
LABELDIM
100
AcDbText
 10
74.62995961110191
 20
4.434784347278094
 30
0.0
 40
0.075
  1
CTS
  7
ADESK1
 72
     4
 11
74.73174532538762
 21
4.472284347278094
 31
0.0
100
AcDbText
  0
LINE
  5
4053D2B775067B2C
330
1063C03AE4E6B6F0
100
AcDbEntity
  8
LABELDIM
100
AcDbLine
 10
74.58874532538762
 20
4.281284347278095
 30
0.0
 11
74.56074532538761
 21
4.309284347278094
 31
0.0
  0
LINE
  5
4053D2B775067B2D
330
1063C03AE4E6B6F0
100
AcDbEntity
  8
LABELDIM
100
AcDbLine
 10
74.58874532538762
 20
4.393284347278093
 30
0.0
 11
74.56074532538761
 21
4.365284347278095
 31
0.0
  0
LINE
  5
4053D2B775067B2E
330
1063C03AE4E6B6F0
100
AcDbEntity
  8
LABELDIM
100
AcDbLine
 10
74.78774532538762
 20
4.281284347278095
 30
0.0
 11
74.75974532538763
 21
4.309284347278094
 31
0.0
  0
LINE
  5
4053D2B775067B2F
330
1063C03AE4E6B6F0
100
AcDbEntity
  8
LABELDIM
100
AcDbLine
 10
74.67574532538762
 20
4.281284347278095
 30
0.0
 11
74.70374532538762
 21
4.309284347278094
 31
0.0
  0
LINE
  5
4053D2B775067B30
330
1063C03AE4E6B6F0
100
AcDbEntity
  8
LABELDIM
100
AcDbLine
 10
74.67574532538762
 20
4.393284347278093
 30
0.0
 11
74.70374532538762
 21
4.365284347278095
 31
0.0
  0
CIRCLE
  5
4053D2B775067B31
330
1063C03AE4E6B6F0
100
AcDbEntity
  8
LABELDIM
100
AcDbCircle
 10
74.73174532538762
 20
4.337284347278096
 30
0.0
 40
0.0390000000000015
  0
LINE
  5
4053D2B775067B32
330
1063C03AE4E6B6F0
100
AcDbEntity
  8
LABELDIM
100
AcDbLine
 10
74.78774532538762
 20
4.393284347278093
 30
0.0
 11
74.75974532538763
 21
4.365284347278095
 31
0.0
  0
TEXT
  5
4053D2B775067B33
330
1063C03AE4E6B6F0
100
AcDbEntity
  8
LABELDIM
100
AcDbText
 10
74.2587453253876
 20
4.434784347278094
 30
0.0
 40
0.075
  1
CD
  7
ADESK1
 72
     4
 11
74.33374532538761
 21
4.472284347278094
 31
0.0
100
AcDbText
  0
LINE
  5
4053D2B775067B34
330
1063C03AE4E6B6F0
100
AcDbEntity
  8
LABELDIM
100
AcDbLine
 10
74.38974532538761
 20
4.281284347278095
 30
0.0
 11
74.36174532538761
 21
4.309284347278094
 31
0.0
  0
LINE
  5
4053D2B775067B35
330
1063C03AE4E6B6F0
100
AcDbEntity
  8
LABELDIM
100
AcDbLine
 10
74.27774532538761
 20
4.281284347278095
 30
0.0
 11
74.30574532538762
 21
4.309284347278094
 31
0.0
  0
LINE
  5
4053D2B775067B36
330
1063C03AE4E6B6F0
100
AcDbEntity
  8
LABELDIM
100
AcDbLine
 10
74.27774532538761
 20
4.393284347278093
 30
0.0
 11
74.30574532538762
 21
4.365284347278095
 31
0.0
  0
CIRCLE
  5
4053D2B775067B37
330
1063C03AE4E6B6F0
100
AcDbEntity
  8
LABELDIM
100
AcDbCircle
 10
74.33374532538761
 20
4.337284347278096
 30
0.0
 40
0.0390000000000015
  0
LINE
  5
4053D2B775067B38
330
1063C03AE4E6B6F0
100
AcDbEntity
  8
LABELDIM
100
AcDbLine
 10
74.38974532538761
 20
4.393284347278093
 30
0.0
 11
74.36174532538761
 21
4.365284347278095
 31
0.0
  0
TEXT
  5
4053D2B775067B39
330
1063C03AE4E6B6F0
100
AcDbEntity
  8
LABELDIM
100
AcDbText
 10
74.33581675395903
 20
4.974284347278095
 30
0.0
 40
0.075
  1
Modem
  7
ADESK1
 72
     4
 11
74.53224532538761
 21
5.011784347278094
 31
0.0
100
AcDbText
  0
TEXT
  5
4053D2B775067B3A
330
1063C03AE4E6B6F0
100
AcDbEntity
  8
LABELDIM
100
AcDbText
 10
74.32510246824475
 20
5.109284347278095
 30
0.0
 40
0.075
  1
Internal
  7
ADESK1
 72
     4
 11
74.53224532538761
 21
5.146784347278095
 31
0.0
100
AcDbText
  0
LINE
  5
4053D2B775067B3B
330
1063C03AE4E6B6F0
100
AcDbEntity
  8
LABELDIM
100
AcDbLine
 10
74.47674532538762
 20
4.662784347278092
 30
0.0
 11
74.50474532538762
 21
4.634784347278094
 31
0.0
  0
LINE
  5
4053D2B775067B3C
330
1063C03AE4E6B6F0
100
AcDbEntity
  8
LABELDIM
100
AcDbLine
 10
74.47674532538762
 20
4.550784347278094
 30
0.0
 11
74.50474532538762
 21
4.578784347278093
 31
0.0
  0
CIRCLE
  5
4053D2B775067B3D
330
1063C03AE4E6B6F0
100
AcDbEntity
  8
LABELDIM
100
AcDbCircle
 10
74.53274532538762
 20
4.606784347278095
 30
0.0
 40
0.0390000000000015
  0
TEXT
  5
4053D2B775067B3E
330
1063C03AE4E6B6F0
100
AcDbEntity
  8
LABELDIM
100
AcDbText
 10
74.37688818253047
 20
4.839284347278095
 30
0.0
 40
0.075
  1
COM6
  7
ADESK1
 72
     4
 11
74.53224532538761
 21
4.876784347278094
 31
0.0
100
AcDbText
  0
TEXT
  5
4053D2B775067B3F
330
1063C03AE4E6B6F0
100
AcDbEntity
  8
LABELDIM
100
AcDbText
 10
74.45774532538762
 20
4.704284347278095
 30
0.0
 40
0.075
  1
RX
  7
ADESK1
 72
     4
 11
74.53274532538762
 21
4.741784347278095
 31
0.0
100
AcDbText
  0
LINE
  5
4053D2B775067B40
330
1063C03AE4E6B6F0
100
AcDbEntity
  8
LABELDIM
100
AcDbLine
 10
74.58874532538762
 20
4.662784347278092
 30
0.0
 11
74.56074532538761
 21
4.634784347278094
 31
0.0
  0
LINE
  5
4053D2B775067B41
330
1063C03AE4E6B6F0
100
AcDbEntity
  8
LABELDIM
100
AcDbLine
 10
74.58874532538762
 20
4.550784347278094
 30
0.0
 11
74.56074532538761
 21
4.578784347278093
 31
0.0
  0
LINE
  5
4053D2B775067B42
330
1063C03AE4E6B6F0
100
AcDbEntity
  8
LABELDIM
100
AcDbLine
 10
74.27774532538761
 20
4.662784347278092
 30
0.0
 11
74.30574532538762
 21
4.634784347278094
 31
0.0
  0
LINE
  5
4053D2B775067B43
330
1063C03AE4E6B6F0
100
AcDbEntity
  8
LABELDIM
100
AcDbLine
 10
74.38974532538761
 20
4.662784347278092
 30
0.0
 11
74.36174532538761
 21
4.634784347278094
 31
0.0
  0
LINE
  5
4053D2B775067B44
330
1063C03AE4E6B6F0
100
AcDbEntity
  8
LABELDIM
100
AcDbLine
 10
74.38974532538761
 20
4.550784347278094
 30
0.0
 11
74.36174532538761
 21
4.578784347278093
 31
0.0
  0
LINE
  5
4053D2B775067B45
330
1063C03AE4E6B6F0
100
AcDbEntity
  8
LABELDIM
100
AcDbLine
 10
74.27774532538761
 20
4.550784347278094
 30
0.0
 11
74.30574532538762
 21
4.578784347278093
 31
0.0
  0
CIRCLE
  5
4053D2B775067B46
330
1063C03AE4E6B6F0
100
AcDbEntity
  8
LABELDIM
100
AcDbCircle
 10
74.33374532538761
 20
4.606784347278095
 30
0.0
 40
0.0390000000000015
  0
TEXT
  5
4053D2B775067B47
330
1063C03AE4E6B6F0
100
AcDbEntity
  8
LABELDIM
100
AcDbText
 10
74.27303103967332
 20
4.704284347278095
 30
0.0
 40
0.075
  1
TX
  7
ADESK1
 72
     4
 11
74.33374532538761
 21
4.741784347278095
 31
0.0
100
AcDbText
  0
TEXT
  5
80A7A56EEA0D23E4
330
1063C03AE4E6B6F0
100
AcDbEntity
  8
LABELDIM
100
AcDbText
 10
74.82403103967334
 20
10.72778434727809
 30
0.0
 40
0.075
  1
TX
  7
ADESK1
 72
     4
 11
74.88474532538763
 21
10.76528434727809
 31
0.0
100
AcDbText
  0
CIRCLE
  5
80A7A56EEA0D23E5
330
1063C03AE4E6B6F0
100
AcDbEntity
  8
LABELDIM
100
AcDbCircle
 10
74.88474532538763
 20
10.63578434727809
 30
0.0
 40
0.0390000000000015
  0
CIRCLE
  5
80A7A56EEA0D23E6
330
1063C03AE4E6B6F0
100
AcDbEntity
  8
LABELDIM
100
AcDbCircle
 10
74.88474532538763
 20
10.44078434727809
 30
0.0
 40
0.0390000000000015
  0
LINE
  5
80A7A56EEA0D23E7
330
1063C03AE4E6B6F0
100
AcDbEntity
  8
LABELDIM
100
AcDbLine
 10
74.82874532538763
 20
10.38478434727809
 30
0.0
 11
74.85674532538762
 21
10.41278434727809
 31
0.0
  0
LINE
  5
80A7A56EEA0D23E8
330
1063C03AE4E6B6F0
100
AcDbEntity
  8
LABELDIM
100
AcDbLine
 10
74.82874532538763
 20
10.49678434727809
 30
0.0
 11
74.85674532538762
 21
10.46878434727809
 31
0.0
  0
LINE
  5
80A7A56EEA0D23E9
330
1063C03AE4E6B6F0
100
AcDbEntity
  8
LABELDIM
100
AcDbLine
 10
74.82874532538763
 20
10.57978434727809
 30
0.0
 11
74.85674532538762
 21
10.60778434727809
 31
0.0
  0
LINE
  5
80A7A56EEA0D23EA
330
1063C03AE4E6B6F0
100
AcDbEntity
  8
LABELDIM
100
AcDbLine
 10
74.94074532538762
 20
10.38478434727809
 30
0.0
 11
74.91274532538762
 21
10.41278434727809
 31
0.0
  0
LINE
  5
80A7A56EEA0D23EB
330
1063C03AE4E6B6F0
100
AcDbEntity
  8
LABELDIM
100
AcDbLine
 10
74.94074532538762
 20
10.49678434727809
 30
0.0
 11
74.91274532538762
 21
10.46878434727809
 31
0.0
  0
LINE
  5
80A7A56EEA0D23EC
330
1063C03AE4E6B6F0
100
AcDbEntity
  8
LABELDIM
100
AcDbLine
 10
74.94074532538762
 20
10.57978434727809
 30
0.0
 11
74.91274532538762
 21
10.60778434727809
 31
0.0
  0
LINE
  5
80A7A56EEA0D23ED
330
1063C03AE4E6B6F0
100
AcDbEntity
  8
LABELDIM
100
AcDbLine
 10
74.82874532538763
 20
10.69178434727809
 30
0.0
 11
74.85674532538762
 21
10.66378434727809
 31
0.0
  0
LINE
  5
80A7A56EEA0D23EE
330
1063C03AE4E6B6F0
100
AcDbEntity
  8
LABELDIM
100
AcDbLine
 10
74.94074532538762
 20
10.69178434727809
 30
0.0
 11
74.91274532538762
 21
10.66378434727809
 31
0.0
  0
TEXT
  5
80A7A56EEA0D23F1
330
1063C03AE4E6B6F0
100
AcDbEntity
  8
LABELDIM
100
AcDbText
 10
74.82974532538763
 20
10.13378434727809
 30
0.0
 40
0.075
  1
Phone
  7
ADESK1
 72
     4
 11
75.00295961110191
 21
10.17128434727809
 31
0.0
100
AcDbText
  0
TEXT
  5
80A7A56EEA0D23F2
330
1063C03AE4E6B6F0
100
AcDbEntity
  8
LABELDIM
100
AcDbText
 10
74.80974532538763
 20
10.27578434727809
 30
0.0
 40
0.075
  1
CD
  7
ADESK1
 72
     4
 11
74.88474532538763
 21
10.31328434727809
 31
0.0
100
AcDbText
  0
CIRCLE
  5
80A7A56EEA0D23F3
330
1063C03AE4E6B6F0
100
AcDbEntity
  8
LABELDIM
100
AcDbCircle
 10
75.07674532538762
 20
10.44078434727809
 30
0.0
 40
0.0390000000000015
  0
LINE
  5
80A7A56EEA0D23F4
330
1063C03AE4E6B6F0
100
AcDbEntity
  8
LABELDIM
100
AcDbLine
 10
75.02074532538762
 20
10.38478434727809
 30
0.0
 11
75.04874532538761
 21
10.41278434727809
 31
0.0
  0
LINE
  5
80A7A56EEA0D23F5
330
1063C03AE4E6B6F0
100
AcDbEntity
  8
LABELDIM
100
AcDbLine
 10
75.02074532538762
 20
10.49678434727809
 30
0.0
 11
75.04874532538761
 21
10.46878434727809
 31
0.0
  0
LINE
  5
80A7A56EEA0D23F6
330
1063C03AE4E6B6F0
100
AcDbEntity
  8
LABELDIM
100
AcDbLine
 10
75.13274532538762
 20
10.38478434727809
 30
0.0
 11
75.10474532538761
 21
10.41278434727809
 31
0.0
  0
LINE
  5
80A7A56EEA0D23F7
330
1063C03AE4E6B6F0
100
AcDbEntity
  8
LABELDIM
100
AcDbLine
 10
75.13274532538762
 20
10.49678434727809
 30
0.0
 11
75.10474532538761
 21
10.46878434727809
 31
0.0
  0
CIRCLE
  5
80A7A56EEA0D23F8
330
1063C03AE4E6B6F0
100
AcDbEntity
  8
LABELDIM
100
AcDbCircle
 10
75.07674532538762
 20
10.63578434727809
 30
0.0
 40
0.0390000000000015
  0
LINE
  5
80A7A56EEA0D23F9
330
1063C03AE4E6B6F0
100
AcDbEntity
  8
LABELDIM
100
AcDbLine
 10
75.02074532538762
 20
10.57978434727809
 30
0.0
 11
75.04874532538761
 21
10.60778434727809
 31
0.0
  0
LINE
  5
80A7A56EEA0D23FA
330
1063C03AE4E6B6F0
100
AcDbEntity
  8
LABELDIM
100
AcDbLine
 10
75.02074532538762
 20
10.69178434727809
 30
0.0
 11
75.04874532538761
 21
10.66378434727809
 31
0.0
  0
LINE
  5
80A7A56EEA0D23FB
330
1063C03AE4E6B6F0
100
AcDbEntity
  8
LABELDIM
100
AcDbLine
 10
75.13274532538762
 20
10.57978434727809
 30
0.0
 11
75.10474532538761
 21
10.60778434727809
 31
0.0
  0
LINE
  5
80A7A56EEA0D23FC
330
1063C03AE4E6B6F0
100
AcDbEntity
  8
LABELDIM
100
AcDbLine
 10
75.13274532538762
 20
10.69178434727809
 30
0.0
 11
75.10474532538761
 21
10.66378434727809
 31
0.0
  0
TEXT
  5
80A7A56EEA0D23FD
330
1063C03AE4E6B6F0
100
AcDbEntity
  8
LABELDIM
100
AcDbText
 10
75.00174532538763
 20
10.72778434727809
 30
0.0
 40
0.075
  1
RX
  7
ADESK1
 72
     4
 11
75.07674532538763
 21
10.76528434727809
 31
0.0
100
AcDbText
  0
TEXT
  5
80A7A56EEA0D23FE
330
1063C03AE4E6B6F0
100
AcDbEntity
  8
LABELDIM
100
AcDbText
 10
75.02495961110192
 20
10.27578434727809
 30
0.0
 40
0.075
  1
RI
  7
ADESK1
 72
     4
 11
75.07674532538763
 21
10.31328434727809
 31
0.0
100
AcDbText
  0
CIRCLE
  5
8AB40D558F44CA63
330
1063C03AE4E6B6F0
100
AcDbEntity
  8
LABELDIM
100
AcDbCircle
 10
72.42624532538762
 20
10.01028434727809
 30
0.0
 40
0.0390000000000015
  0
CIRCLE
  5
8AB40D558F44CA64
330
1063C03AE4E6B6F0
100
AcDbEntity
  8
LABELDIM
100
AcDbCircle
 10
73.10124532538762
 20
10.0052843472781
 30
0.0
 40
0.0390000000000015
  0
TEXT
  5
8AB40D558F44CA65
330
1063C03AE4E6B6F0
100
AcDbEntity
  8
LABELDIM
100
AcDbText
 10
73.04488818253048
 20
9.7447843472781
 30
0.0
 40
0.075
  1
COM3
  7
ADESK1
 72
     4
 11
73.20024532538763
 21
9.7822843472781
 31
0.0
100
AcDbText
  0
LINE
  5
8AB40D558F44CA66
330
1063C03AE4E6B6F0
100
AcDbEntity
  8
LABELDIM
100
AcDbLine
 10
73.15724532538762
 20
9.949284347278101
 30
0.0
 11
73.12924532538763
 21
9.9772843472781
 31
0.0
  0
LINE
  5
8AB40D558F44CA67
330
1063C03AE4E6B6F0
100
AcDbEntity
  8
LABELDIM
100
AcDbLine
 10
73.15724532538762
 20
10.06128434727809
 30
0.0
 11
73.12924532538763
 21
10.03328434727809
 31
0.0
  0
LINE
  5
8AB40D558F44CA68
330
1063C03AE4E6B6F0
100
AcDbEntity
  8
LABELDIM
100
AcDbLine
 10
73.35724532538762
 20
9.949284347278101
 30
0.0
 11
73.32924532538763
 21
9.9772843472781
 31
0.0
  0
LINE
  5
8AB40D558F44CA69
330
1063C03AE4E6B6F0
100
AcDbEntity
  8
LABELDIM
100
AcDbLine
 10
73.35724532538762
 20
10.06128434727809
 30
0.0
 11
73.32924532538763
 21
10.03328434727809
 31
0.0
  0
TEXT
  5
8AB40D558F44CA6A
330
1063C03AE4E6B6F0
100
AcDbEntity
  8
LABELDIM
100
AcDbText
 10
73.22624532538762
 20
9.8447843472781
 30
0.0
 40
0.075
  1
RX
  7
ADESK1
 72
     4
 11
73.30124532538762
 21
9.882284347278099
 31
0.0
100
AcDbText
  0
LINE
  5
8AB40D558F44CA6B
330
1063C03AE4E6B6F0
100
AcDbEntity
  8
LABELDIM
100
AcDbLine
 10
73.24524532538763
 20
9.949284347278101
 30
0.0
 11
73.27324532538762
 21
9.9772843472781
 31
0.0
  0
LINE
  5
8AB40D558F44CA6C
330
1063C03AE4E6B6F0
100
AcDbEntity
  8
LABELDIM
100
AcDbLine
 10
73.24524532538763
 20
10.06128434727809
 30
0.0
 11
73.27324532538762
 21
10.03328434727809
 31
0.0
  0
CIRCLE
  5
8AB40D558F44CA6D
330
1063C03AE4E6B6F0
100
AcDbEntity
  8
LABELDIM
100
AcDbCircle
 10
73.30124532538762
 20
10.0052843472781
 30
0.0
 40
0.0390000000000015
  0
TEXT
  5
8AB40D558F44CA6E
330
1063C03AE4E6B6F0
100
AcDbEntity
  8
LABELDIM
100
AcDbText
 10
72.38060246824478
 20
9.743784347278106
 30
0.0
 40
0.075
  1
COM1
  7
ADESK1
 72
     4
 11
72.52524532538763
 21
9.781284347278106
 31
0.0
100
AcDbText
  0
LINE
  5
8AB40D558F44CA6F
330
1063C03AE4E6B6F0
100
AcDbEntity
  8
LABELDIM
100
AcDbLine
 10
72.57024532538763
 20
10.06628434727809
 30
0.0
 11
72.59824532538762
 21
10.03828434727809
 31
0.0
  0
CIRCLE
  5
8AB40D558F44CA70
330
1063C03AE4E6B6F0
100
AcDbEntity
  8
LABELDIM
100
AcDbCircle
 10
72.62624532538763
 20
10.01028434727809
 30
0.0
 40
0.0390000000000015
  0
LINE
  5
8AB40D558F44CA71
330
1063C03AE4E6B6F0
100
AcDbEntity
  8
LABELDIM
100
AcDbLine
 10
72.57024532538763
 20
9.9542843472781
 30
0.0
 11
72.59824532538762
 21
9.982284347278099
 31
0.0
  0
LINE
  5
8AB40D558F44CA72
330
1063C03AE4E6B6F0
100
AcDbEntity
  8
LABELDIM
100
AcDbLine
 10
73.04524532538763
 20
9.949284347278101
 30
0.0
 11
73.07324532538763
 21
9.9772843472781
 31
0.0
  0
LINE
  5
8AB40D558F44CA73
330
1063C03AE4E6B6F0
100
AcDbEntity
  8
LABELDIM
100
AcDbLine
 10
73.04524532538763
 20
10.06128434727809
 30
0.0
 11
73.07324532538763
 21
10.03328434727809
 31
0.0
  0
TEXT
  5
8AB40D558F44CA74
330
1063C03AE4E6B6F0
100
AcDbEntity
  8
LABELDIM
100
AcDbText
 10
73.04053103967333
 20
9.849784347278099
 30
0.0
 40
0.075
  1
TX
  7
ADESK1
 72
     4
 11
73.10124532538762
 21
9.887284347278098
 31
0.0
100
AcDbText
  0
LINE
  5
8AB40D558F44CA75
330
1063C03AE4E6B6F0
100
AcDbEntity
  8
LABELDIM
100
AcDbLine
 10
72.68224532538763
 20
9.9542843472781
 30
0.0
 11
72.65424532538763
 21
9.982284347278099
 31
0.0
  0
LINE
  5
8AB40D558F44CA76
330
1063C03AE4E6B6F0
100
AcDbEntity
  8
LABELDIM
100
AcDbLine
 10
72.68224532538763
 20
10.06628434727809
 30
0.0
 11
72.65424532538763
 21
10.03828434727809
 31
0.0
  0
TEXT
  5
8AB40D558F44CA77
330
1063C03AE4E6B6F0
100
AcDbEntity
  8
LABELDIM
100
AcDbText
 10
72.55124532538762
 20
9.849784347278099
 30
0.0
 40
0.075
  1
RX
  7
ADESK1
 72
     4
 11
72.62624532538763
 21
9.887284347278098
 31
0.0
100
AcDbText
  0
LINE
  5
8AB40D558F44CA78
330
1063C03AE4E6B6F0
100
AcDbEntity
  8
LABELDIM
100
AcDbLine
 10
72.37024532538763
 20
10.06628434727809
 30
0.0
 11
72.39824532538762
 21
10.03828434727809
 31
0.0
  0
LINE
  5
8AB40D558F44CA79
330
1063C03AE4E6B6F0
100
AcDbEntity
  8
LABELDIM
100
AcDbLine
 10
72.37024532538763
 20
9.9542843472781
 30
0.0
 11
72.39824532538762
 21
9.982284347278099
 31
0.0
  0
LINE
  5
8AB40D558F44CA7A
330
1063C03AE4E6B6F0
100
AcDbEntity
  8
LABELDIM
100
AcDbLine
 10
72.48224532538762
 20
9.9542843472781
 30
0.0
 11
72.45424532538763
 21
9.982284347278099
 31
0.0
  0
LINE
  5
8AB40D558F44CA7B
330
1063C03AE4E6B6F0
100
AcDbEntity
  8
LABELDIM
100
AcDbLine
 10
72.48224532538762
 20
10.06628434727809
 30
0.0
 11
72.45424532538763
 21
10.03828434727809
 31
0.0
  0
TEXT
  5
8AB40D558F44CA7C
330
1063C03AE4E6B6F0
100
AcDbEntity
  8
LABELDIM
100
AcDbText
 10
72.36553103967334
 20
9.854784347278098
 30
0.0
 40
0.075
  1
TX
  7
ADESK1
 72
     4
 11
72.42624532538762
 21
9.892284347278097
 31
0.0
100
AcDbText
  0
TEXT
  5
9ECCDD22D9B41787
330
1063C03AE4E6B6F0
100
AcDbEntity
  8
LABELDIM
100
AcDbText
 10
73.61460246824477
 20
9.408784347278096
 30
0.0
 40
0.075
  1
COM4
  7
ADESK1
 72
     4
 11
73.77174532538763
 21
9.446284347278096
 31
0.0
100
AcDbText
  0
TEXT
  5
A8D945097EEC2000
330
1063C03AE4E6B6F0
100
AcDbEntity
  8
LABELDIM
100
AcDbText
 10
71.89060246824476
 20
4.889427204420953
 30
0.0
 40
0.075
  1
AC/DC IN
 50
270.0
  7
ADESK1
 72
     4
 11
71.92274532538762
 21
4.619784347278096
 31
0.0
100
AcDbText
  0
TEXT
  5
A8D945097EEC2001
330
1063C03AE4E6B6F0
100
AcDbEntity
  8
LABELDIM
100
AcDbText
 10
74.82974532538763
 20
10.01728434727809
 30
0.0
 40
0.075
  1
Modem
  7
ADESK1
 72
     4
 11
75.02617389681621
 21
10.05478434727809
 31
0.0
100
AcDbText
  0
INSERT
  5
F7B6FDAF6BC6DBF6
330
1063C03AE4E6B6F0
100
AcDbEntity
  8
LABELDIM
100
AcDbBlockReference
  2
ACAD3A27
 10
75.83874532538764
 20
3.814284347278095
 30
0.0
  0
CIRCLE
  5
F7B6FDAF6BC6DC64
330
1063C03AE4E6B6F0
100
AcDbEntity
  8
LABELDIM
100
AcDbCircle
 10
74.35324532538763
 20
4.125784347278093
 30
0.0
 40
0.0650000000000013
  0
CIRCLE
  5
F7B6FDAF6BC6DC65
330
1063C03AE4E6B6F0
100
AcDbEntity
  8
LABELDIM
100
AcDbCircle
 10
74.53324532538762
 20
4.125784347278093
 30
0.0
 40
0.0650000000000013
  0
CIRCLE
  5
F7B6FDAF6BC6DC66
330
1063C03AE4E6B6F0
100
AcDbEntity
  8
LABELDIM
100
AcDbCircle
 10
74.35324532538763
 20
3.910784347278092
 30
0.0
 40
0.0650000000000013
  0
CIRCLE
  5
F7B6FDAF6BC6DC67
330
1063C03AE4E6B6F0
100
AcDbEntity
  8
LABELDIM
100
AcDbCircle
 10
74.53324532538762
 20
3.910784347278092
 30
0.0
 40
0.0650000000000013
  0
CIRCLE
  5
F7B6FDAF6BC6DC68
330
1063C03AE4E6B6F0
100
AcDbEntity
  8
LABELDIM
100
AcDbCircle
 10
74.71324532538763
 20
3.910784347278092
 30
0.0
 40
0.0650000000000013
  0
LWPOLYLINE
  5
F7B6FDAF6BC6DCA2
330
1063C03AE4E6B6F0
100
AcDbEntity
  8
LABELDIM
100
AcDbPolyline
 90
        6
 70
     1
 43
0.01
 10
70.97674532538764
 20
11.0842843472781
 10
71.35174532538764
 20
11.0842843472781
 10
71.35174532538764
 20
10.39178434727809
 10
70.95174532538763
 20
10.39178434727809
 10
70.95174532538763
 20
11.0842843472781
 10
70.97674532538764
 20
11.0842843472781
  0
LINE
  5
F7B6FDAF6BC6DCA3
330
1063C03AE4E6B6F0
100
AcDbEntity
  8
LABELDIM
100
AcDbLine
 10
71.07774532538762
 20
10.9522843472781
 30
0.0
 11
71.21574532538763
 21
10.9522843472781
 31
0.0
  0
LINE
  5
F7B6FDAF6BC6DCA4
330
1063C03AE4E6B6F0
100
AcDbEntity
  8
LABELDIM
100
AcDbLine
 10
71.21574532538763
 20
11.0162843472781
 30
0.0
 11
71.07774532538762
 21
11.0162843472781
 31
0.0
  0
LINE
  5
F7B6FDAF6BC6DCA5
330
1063C03AE4E6B6F0
100
AcDbEntity
  8
LABELDIM
100
AcDbLine
 10
71.18374532538763
 20
10.9672843472781
 30
0.0
 11
71.11274532538764
 21
10.9672843472781
 31
0.0
  0
LINE
  5
F7B6FDAF6BC6DCA6
330
1063C03AE4E6B6F0
100
AcDbEntity
  8
LABELDIM
100
AcDbLine
 10
71.11274532538764
 20
11.0002843472781
 30
0.0
 11
71.18374532538763
 21
11.0002843472781
 31
0.0
  0
LINE
  5
F7B6FDAF6BC6DCA7
330
1063C03AE4E6B6F0
100
AcDbEntity
  8
LABELDIM
100
AcDbLine
 10
71.11574532538764
 20
11.0002843472781
 30
0.0
 11
71.11574532538764
 21
10.9672843472781
 31
0.0
  0
LINE
  5
F7B6FDAF6BC6DCA8
330
1063C03AE4E6B6F0
100
AcDbEntity
  8
LABELDIM
100
AcDbLine
 10
71.11874532538763
 20
11.0002843472781
 30
0.0
 11
71.11874532538763
 21
10.9672843472781
 31
0.0
  0
LINE
  5
F7B6FDAF6BC6DCA9
330
1063C03AE4E6B6F0
100
AcDbEntity
  8
LABELDIM
100
AcDbLine
 10
71.12274532538762
 20
11.0002843472781
 30
0.0
 11
71.12274532538762
 21
10.9672843472781
 31
0.0
  0
LINE
  5
F7B6FDAF6BC6DCAA
330
1063C03AE4E6B6F0
100
AcDbEntity
  8
LABELDIM
100
AcDbLine
 10
71.12674532538763
 20
11.0002843472781
 30
0.0
 11
71.12674532538763
 21
10.9672843472781
 31
0.0
  0
LINE
  5
F7B6FDAF6BC6DCAB
330
1063C03AE4E6B6F0
100
AcDbEntity
  8
LABELDIM
100
AcDbLine
 10
71.13074532538764
 20
11.0002843472781
 30
0.0
 11
71.13074532538764
 21
10.9672843472781
 31
0.0
  0
LINE
  5
F7B6FDAF6BC6DCAC
330
1063C03AE4E6B6F0
100
AcDbEntity
  8
LABELDIM
100
AcDbLine
 10
71.13474532538763
 20
11.0002843472781
 30
0.0
 11
71.13474532538763
 21
10.9672843472781
 31
0.0
  0
LINE
  5
F7B6FDAF6BC6DCAD
330
1063C03AE4E6B6F0
100
AcDbEntity
  8
LABELDIM
100
AcDbLine
 10
71.13874532538763
 20
11.0002843472781
 30
0.0
 11
71.13874532538763
 21
10.9672843472781
 31
0.0
  0
LINE
  5
F7B6FDAF6BC6DCAE
330
1063C03AE4E6B6F0
100
AcDbEntity
  8
LABELDIM
100
AcDbLine
 10
71.11274532538764
 20
10.9672843472781
 30
0.0
 11
71.11274532538764
 21
11.0002843472781
 31
0.0
  0
LINE
  5
F7B6FDAF6BC6DCAF
330
1063C03AE4E6B6F0
100
AcDbEntity
  8
LABELDIM
100
AcDbLine
 10
71.18374532538763
 20
11.0002843472781
 30
0.0
 11
71.18374532538763
 21
10.9672843472781
 31
0.0
  0
LWPOLYLINE
  5
F7B6FDAF6BC6DCB0
330
1063C03AE4E6B6F0
100
AcDbEntity
  8
LABELDIM
100
AcDbPolyline
 90
        2
 70
     1
 43
0.005
 10
70.95424532538763
 20
11.0842843472781
 42
1.0
 10
70.94924532538763
 20
11.0842843472781
 42
1.0
  0
LWPOLYLINE
  5
F7B6FDAF6BC6DCB1
330
1063C03AE4E6B6F0
100
AcDbEntity
  8
LABELDIM
100
AcDbPolyline
 90
        2
 70
     1
 43
0.005
 10
70.97924532538764
 20
11.0842843472781
 42
1.0
 10
70.97424532538764
 20
11.0842843472781
 42
1.0
  0
LWPOLYLINE
  5
F7B6FDAF6BC6DCB2
330
1063C03AE4E6B6F0
100
AcDbEntity
  8
LABELDIM
100
AcDbPolyline
 90
        2
 70
     1
 43
0.005
 10
70.97924532538764
 20
11.0842843472781
 42
1.0
 10
70.97424532538764
 20
11.0842843472781
 42
1.0
  0
LINE
  5
F7B6FDAF6BC6DCB3
330
1063C03AE4E6B6F0
100
AcDbEntity
  8
LABELDIM
100
AcDbLine
 10
71.07774532538762
 20
11.0162843472781
 30
0.0
 11
71.07774532538762
 21
10.9522843472781
 31
0.0
  0
LWPOLYLINE
  5
F7B6FDAF6BC6DCB4
330
1063C03AE4E6B6F0
100
AcDbEntity
  8
LABELDIM
100
AcDbPolyline
 90
        2
 70
     1
 43
0.005
 10
71.35424532538763
 20
11.0842843472781
 42
1.0
 10
71.34924532538763
 20
11.0842843472781
 42
1.0
  0
LINE
  5
F7B6FDAF6BC6DCB5
330
1063C03AE4E6B6F0
100
AcDbEntity
  8
LABELDIM
100
AcDbLine
 10
71.21574532538763
 20
10.9522843472781
 30
0.0
 11
71.21574532538763
 21
11.0162843472781
 31
0.0
  0
LINE
  5
F7B6FDAF6BC6DCBA
330
1063C03AE4E6B6F0
100
AcDbEntity
  8
LABELDIM
100
AcDbLine
 10
71.07774532538762
 20
10.45228434727809
 30
0.0
 11
71.21574532538763
 21
10.45228434727809
 31
0.0
  0
LINE
  5
F7B6FDAF6BC6DCBB
330
1063C03AE4E6B6F0
100
AcDbEntity
  8
LABELDIM
100
AcDbLine
 10
71.21574532538763
 20
10.51628434727809
 30
0.0
 11
71.07774532538762
 21
10.51628434727809
 31
0.0
  0
LINE
  5
F7B6FDAF6BC6DCBC
330
1063C03AE4E6B6F0
100
AcDbEntity
  8
LABELDIM
100
AcDbLine
 10
71.07774532538762
 20
10.55228434727809
 30
0.0
 11
71.21574532538763
 21
10.55228434727809
 31
0.0
  0
LINE
  5
F7B6FDAF6BC6DCBD
330
1063C03AE4E6B6F0
100
AcDbEntity
  8
LABELDIM
100
AcDbLine
 10
71.21574532538763
 20
10.61628434727809
 30
0.0
 11
71.07774532538762
 21
10.61628434727809
 31
0.0
  0
LINE
  5
F7B6FDAF6BC6DCBE
330
1063C03AE4E6B6F0
100
AcDbEntity
  8
LABELDIM
100
AcDbLine
 10
71.07774532538762
 20
10.65228434727809
 30
0.0
 11
71.21574532538763
 21
10.65228434727809
 31
0.0
  0
LINE
  5
F7B6FDAF6BC6DCBF
330
1063C03AE4E6B6F0
100
AcDbEntity
  8
LABELDIM
100
AcDbLine
 10
71.21574532538763
 20
10.71628434727809
 30
0.0
 11
71.07774532538762
 21
10.71628434727809
 31
0.0
  0
LINE
  5
F7B6FDAF6BC6DCC0
330
1063C03AE4E6B6F0
100
AcDbEntity
  8
LABELDIM
100
AcDbLine
 10
71.07774532538762
 20
10.75228434727809
 30
0.0
 11
71.21574532538763
 21
10.75228434727809
 31
0.0
  0
LINE
  5
F7B6FDAF6BC6DCC1
330
1063C03AE4E6B6F0
100
AcDbEntity
  8
LABELDIM
100
AcDbLine
 10
71.21574532538763
 20
10.81628434727809
 30
0.0
 11
71.07774532538762
 21
10.81628434727809
 31
0.0
  0
LINE
  5
F7B6FDAF6BC6DCC2
330
1063C03AE4E6B6F0
100
AcDbEntity
  8
LABELDIM
100
AcDbLine
 10
71.07774532538762
 20
10.85228434727809
 30
0.0
 11
71.21574532538763
 21
10.85228434727809
 31
0.0
  0
LINE
  5
F7B6FDAF6BC6DCC3
330
1063C03AE4E6B6F0
100
AcDbEntity
  8
LABELDIM
100
AcDbLine
 10
71.21574532538763
 20
10.91628434727809
 30
0.0
 11
71.07774532538762
 21
10.91628434727809
 31
0.0
  0
LINE
  5
F7B6FDAF6BC6DCC4
330
1063C03AE4E6B6F0
100
AcDbEntity
  8
LABELDIM
100
AcDbLine
 10
71.18374532538763
 20
10.56728434727809
 30
0.0
 11
71.11274532538764
 21
10.56728434727809
 31
0.0
  0
LINE
  5
F7B6FDAF6BC6DCC5
330
1063C03AE4E6B6F0
100
AcDbEntity
  8
LABELDIM
100
AcDbLine
 10
71.11274532538764
 20
10.60028434727809
 30
0.0
 11
71.18374532538763
 21
10.60028434727809
 31
0.0
  0
LINE
  5
F7B6FDAF6BC6DCC6
330
1063C03AE4E6B6F0
100
AcDbEntity
  8
LABELDIM
100
AcDbLine
 10
71.18374532538763
 20
10.60028434727809
 30
0.0
 11
71.18374532538763
 21
10.56728434727809
 31
0.0
  0
LINE
  5
F7B6FDAF6BC6DCC7
330
1063C03AE4E6B6F0
100
AcDbEntity
  8
LABELDIM
100
AcDbLine
 10
71.11274532538764
 20
10.56728434727809
 30
0.0
 11
71.11274532538764
 21
10.60028434727809
 31
0.0
  0
LINE
  5
F7B6FDAF6BC6DCC8
330
1063C03AE4E6B6F0
100
AcDbEntity
  8
LABELDIM
100
AcDbLine
 10
71.13874532538763
 20
10.60028434727809
 30
0.0
 11
71.13874532538763
 21
10.56728434727809
 31
0.0
  0
LINE
  5
F7B6FDAF6BC6DCC9
330
1063C03AE4E6B6F0
100
AcDbEntity
  8
LABELDIM
100
AcDbLine
 10
71.13474532538763
 20
10.60028434727809
 30
0.0
 11
71.13474532538763
 21
10.56728434727809
 31
0.0
  0
LINE
  5
F7B6FDAF6BC6DCCA
330
1063C03AE4E6B6F0
100
AcDbEntity
  8
LABELDIM
100
AcDbLine
 10
71.13074532538764
 20
10.60028434727809
 30
0.0
 11
71.13074532538764
 21
10.56728434727809
 31
0.0
  0
LINE
  5
F7B6FDAF6BC6DCCB
330
1063C03AE4E6B6F0
100
AcDbEntity
  8
LABELDIM
100
AcDbLine
 10
71.12674532538763
 20
10.60028434727809
 30
0.0
 11
71.12674532538763
 21
10.56728434727809
 31
0.0
  0
LINE
  5
F7B6FDAF6BC6DCCC
330
1063C03AE4E6B6F0
100
AcDbEntity
  8
LABELDIM
100
AcDbLine
 10
71.12274532538762
 20
10.60028434727809
 30
0.0
 11
71.12274532538762
 21
10.56728434727809
 31
0.0
  0
LINE
  5
F7B6FDAF6BC6DCCD
330
1063C03AE4E6B6F0
100
AcDbEntity
  8
LABELDIM
100
AcDbLine
 10
71.11874532538763
 20
10.60028434727809
 30
0.0
 11
71.11874532538763
 21
10.56728434727809
 31
0.0
  0
LINE
  5
F7B6FDAF6BC6DCCE
330
1063C03AE4E6B6F0
100
AcDbEntity
  8
LABELDIM
100
AcDbLine
 10
71.11574532538764
 20
10.60028434727809
 30
0.0
 11
71.11574532538764
 21
10.56728434727809
 31
0.0
  0
LINE
  5
F7B6FDAF6BC6DCCF
330
1063C03AE4E6B6F0
100
AcDbEntity
  8
LABELDIM
100
AcDbLine
 10
71.18374532538763
 20
10.66728434727809
 30
0.0
 11
71.11274532538764
 21
10.66728434727809
 31
0.0
  0
LINE
  5
F7B6FDAF6BC6DCD0
330
1063C03AE4E6B6F0
100
AcDbEntity
  8
LABELDIM
100
AcDbLine
 10
71.11274532538764
 20
10.70028434727809
 30
0.0
 11
71.18374532538763
 21
10.70028434727809
 31
0.0
  0
LINE
  5
F7B6FDAF6BC6DCD1
330
1063C03AE4E6B6F0
100
AcDbEntity
  8
LABELDIM
100
AcDbLine
 10
71.18374532538763
 20
10.70028434727809
 30
0.0
 11
71.18374532538763
 21
10.66728434727809
 31
0.0
  0
LINE
  5
F7B6FDAF6BC6DCD2
330
1063C03AE4E6B6F0
100
AcDbEntity
  8
LABELDIM
100
AcDbLine
 10
71.11274532538764
 20
10.66728434727809
 30
0.0
 11
71.11274532538764
 21
10.70028434727809
 31
0.0
  0
LINE
  5
F7B6FDAF6BC6DCD3
330
1063C03AE4E6B6F0
100
AcDbEntity
  8
LABELDIM
100
AcDbLine
 10
71.13874532538763
 20
10.70028434727809
 30
0.0
 11
71.13874532538763
 21
10.66728434727809
 31
0.0
  0
LINE
  5
F7B6FDAF6BC6DCD4
330
1063C03AE4E6B6F0
100
AcDbEntity
  8
LABELDIM
100
AcDbLine
 10
71.13474532538763
 20
10.70028434727809
 30
0.0
 11
71.13474532538763
 21
10.66728434727809
 31
0.0
  0
LINE
  5
F7B6FDAF6BC6DCD5
330
1063C03AE4E6B6F0
100
AcDbEntity
  8
LABELDIM
100
AcDbLine
 10
71.13074532538764
 20
10.70028434727809
 30
0.0
 11
71.13074532538764
 21
10.66728434727809
 31
0.0
  0
LINE
  5
F7B6FDAF6BC6DCD6
330
1063C03AE4E6B6F0
100
AcDbEntity
  8
LABELDIM
100
AcDbLine
 10
71.12674532538763
 20
10.70028434727809
 30
0.0
 11
71.12674532538763
 21
10.66728434727809
 31
0.0
  0
LINE
  5
F7B6FDAF6BC6DCD7
330
1063C03AE4E6B6F0
100
AcDbEntity
  8
LABELDIM
100
AcDbLine
 10
71.12274532538762
 20
10.70028434727809
 30
0.0
 11
71.12274532538762
 21
10.66728434727809
 31
0.0
  0
LINE
  5
F7B6FDAF6BC6DCD8
330
1063C03AE4E6B6F0
100
AcDbEntity
  8
LABELDIM
100
AcDbLine
 10
71.11874532538763
 20
10.70028434727809
 30
0.0
 11
71.11874532538763
 21
10.66728434727809
 31
0.0
  0
LINE
  5
F7B6FDAF6BC6DCD9
330
1063C03AE4E6B6F0
100
AcDbEntity
  8
LABELDIM
100
AcDbLine
 10
71.11574532538764
 20
10.70028434727809
 30
0.0
 11
71.11574532538764
 21
10.66728434727809
 31
0.0
  0
LINE
  5
F7B6FDAF6BC6DCDA
330
1063C03AE4E6B6F0
100
AcDbEntity
  8
LABELDIM
100
AcDbLine
 10
71.18374532538763
 20
10.76728434727809
 30
0.0
 11
71.11274532538764
 21
10.76728434727809
 31
0.0
  0
LINE
  5
F7B6FDAF6BC6DCDB
330
1063C03AE4E6B6F0
100
AcDbEntity
  8
LABELDIM
100
AcDbLine
 10
71.11274532538764
 20
10.80028434727809
 30
0.0
 11
71.18374532538763
 21
10.80028434727809
 31
0.0
  0
LINE
  5
F7B6FDAF6BC6DCDC
330
1063C03AE4E6B6F0
100
AcDbEntity
  8
LABELDIM
100
AcDbLine
 10
71.18374532538763
 20
10.80028434727809
 30
0.0
 11
71.18374532538763
 21
10.76728434727809
 31
0.0
  0
LINE
  5
F7B6FDAF6BC6DCDD
330
1063C03AE4E6B6F0
100
AcDbEntity
  8
LABELDIM
100
AcDbLine
 10
71.11274532538764
 20
10.76728434727809
 30
0.0
 11
71.11274532538764
 21
10.80028434727809
 31
0.0
  0
LINE
  5
F7B6FDAF6BC6DCDE
330
1063C03AE4E6B6F0
100
AcDbEntity
  8
LABELDIM
100
AcDbLine
 10
71.13874532538763
 20
10.80028434727809
 30
0.0
 11
71.13874532538763
 21
10.76728434727809
 31
0.0
  0
LINE
  5
F7B6FDAF6BC6DCDF
330
1063C03AE4E6B6F0
100
AcDbEntity
  8
LABELDIM
100
AcDbLine
 10
71.13474532538763
 20
10.80028434727809
 30
0.0
 11
71.13474532538763
 21
10.76728434727809
 31
0.0
  0
LINE
  5
F7B6FDAF6BC6DCE0
330
1063C03AE4E6B6F0
100
AcDbEntity
  8
LABELDIM
100
AcDbLine
 10
71.13074532538764
 20
10.80028434727809
 30
0.0
 11
71.13074532538764
 21
10.76728434727809
 31
0.0
  0
LINE
  5
F7B6FDAF6BC6DCE1
330
1063C03AE4E6B6F0
100
AcDbEntity
  8
LABELDIM
100
AcDbLine
 10
71.12674532538763
 20
10.80028434727809
 30
0.0
 11
71.12674532538763
 21
10.76728434727809
 31
0.0
  0
LINE
  5
F7B6FDAF6BC6DCE2
330
1063C03AE4E6B6F0
100
AcDbEntity
  8
LABELDIM
100
AcDbLine
 10
71.12274532538762
 20
10.80028434727809
 30
0.0
 11
71.12274532538762
 21
10.76728434727809
 31
0.0
  0
LINE
  5
F7B6FDAF6BC6DCE3
330
1063C03AE4E6B6F0
100
AcDbEntity
  8
LABELDIM
100
AcDbLine
 10
71.11874532538763
 20
10.80028434727809
 30
0.0
 11
71.11874532538763
 21
10.76728434727809
 31
0.0
  0
LINE
  5
F7B6FDAF6BC6DCE4
330
1063C03AE4E6B6F0
100
AcDbEntity
  8
LABELDIM
100
AcDbLine
 10
71.11574532538764
 20
10.80028434727809
 30
0.0
 11
71.11574532538764
 21
10.76728434727809
 31
0.0
  0
LINE
  5
F7B6FDAF6BC6DCE5
330
1063C03AE4E6B6F0
100
AcDbEntity
  8
LABELDIM
100
AcDbLine
 10
71.18374532538763
 20
10.86728434727809
 30
0.0
 11
71.11274532538764
 21
10.86728434727809
 31
0.0
  0
LINE
  5
F7B6FDAF6BC6DCE6
330
1063C03AE4E6B6F0
100
AcDbEntity
  8
LABELDIM
100
AcDbLine
 10
71.11274532538764
 20
10.90028434727809
 30
0.0
 11
71.18374532538763
 21
10.90028434727809
 31
0.0
  0
LINE
  5
F7B6FDAF6BC6DCE7
330
1063C03AE4E6B6F0
100
AcDbEntity
  8
LABELDIM
100
AcDbLine
 10
71.18374532538763
 20
10.90028434727809
 30
0.0
 11
71.18374532538763
 21
10.86728434727809
 31
0.0
  0
LINE
  5
F7B6FDAF6BC6DCE8
330
1063C03AE4E6B6F0
100
AcDbEntity
  8
LABELDIM
100
AcDbLine
 10
71.11274532538764
 20
10.86728434727809
 30
0.0
 11
71.11274532538764
 21
10.90028434727809
 31
0.0
  0
LINE
  5
F7B6FDAF6BC6DCE9
330
1063C03AE4E6B6F0
100
AcDbEntity
  8
LABELDIM
100
AcDbLine
 10
71.13874532538763
 20
10.90028434727809
 30
0.0
 11
71.13874532538763
 21
10.86728434727809
 31
0.0
  0
LINE
  5
F7B6FDAF6BC6DCEA
330
1063C03AE4E6B6F0
100
AcDbEntity
  8
LABELDIM
100
AcDbLine
 10
71.13474532538763
 20
10.90028434727809
 30
0.0
 11
71.13474532538763
 21
10.86728434727809
 31
0.0
  0
LINE
  5
F7B6FDAF6BC6DCEB
330
1063C03AE4E6B6F0
100
AcDbEntity
  8
LABELDIM
100
AcDbLine
 10
71.13074532538764
 20
10.90028434727809
 30
0.0
 11
71.13074532538764
 21
10.86728434727809
 31
0.0
  0
LINE
  5
F7B6FDAF6BC6DCEC
330
1063C03AE4E6B6F0
100
AcDbEntity
  8
LABELDIM
100
AcDbLine
 10
71.12674532538763
 20
10.90028434727809
 30
0.0
 11
71.12674532538763
 21
10.86728434727809
 31
0.0
  0
LINE
  5
F7B6FDAF6BC6DCED
330
1063C03AE4E6B6F0
100
AcDbEntity
  8
LABELDIM
100
AcDbLine
 10
71.12274532538762
 20
10.90028434727809
 30
0.0
 11
71.12274532538762
 21
10.86728434727809
 31
0.0
  0
LINE
  5
F7B6FDAF6BC6DCEE
330
1063C03AE4E6B6F0
100
AcDbEntity
  8
LABELDIM
100
AcDbLine
 10
71.11874532538763
 20
10.90028434727809
 30
0.0
 11
71.11874532538763
 21
10.86728434727809
 31
0.0
  0
LINE
  5
F7B6FDAF6BC6DCEF
330
1063C03AE4E6B6F0
100
AcDbEntity
  8
LABELDIM
100
AcDbLine
 10
71.11574532538764
 20
10.90028434727809
 30
0.0
 11
71.11574532538764
 21
10.86728434727809
 31
0.0
  0
LINE
  5
F7B6FDAF6BC6DCF0
330
1063C03AE4E6B6F0
100
AcDbEntity
  8
LABELDIM
100
AcDbLine
 10
71.07774532538762
 20
10.61628434727809
 30
0.0
 11
71.07774532538762
 21
10.55228434727809
 31
0.0
  0
LINE
  5
F7B6FDAF6BC6DCF1
330
1063C03AE4E6B6F0
100
AcDbEntity
  8
LABELDIM
100
AcDbLine
 10
71.07774532538762
 20
10.71628434727809
 30
0.0
 11
71.07774532538762
 21
10.65228434727809
 31
0.0
  0
LINE
  5
F7B6FDAF6BC6DCF2
330
1063C03AE4E6B6F0
100
AcDbEntity
  8
LABELDIM
100
AcDbLine
 10
71.07774532538762
 20
10.81628434727809
 30
0.0
 11
71.07774532538762
 21
10.75228434727809
 31
0.0
  0
LINE
  5
F7B6FDAF6BC6DCF3
330
1063C03AE4E6B6F0
100
AcDbEntity
  8
LABELDIM
100
AcDbLine
 10
71.07774532538762
 20
10.91628434727809
 30
0.0
 11
71.07774532538762
 21
10.85228434727809
 31
0.0
  0
LINE
  5
F7B6FDAF6BC6DD01
330
1063C03AE4E6B6F0
100
AcDbEntity
  8
LABELDIM
100
AcDbLine
 10
71.18374532538763
 20
10.46728434727809
 30
0.0
 11
71.11274532538764
 21
10.46728434727809
 31
0.0
  0
LINE
  5
F7B6FDAF6BC6DD02
330
1063C03AE4E6B6F0
100
AcDbEntity
  8
LABELDIM
100
AcDbLine
 10
71.11274532538764
 20
10.50028434727809
 30
0.0
 11
71.18374532538763
 21
10.50028434727809
 31
0.0
  0
LINE
  5
F7B6FDAF6BC6DD03
330
1063C03AE4E6B6F0
100
AcDbEntity
  8
LABELDIM
100
AcDbLine
 10
71.18374532538763
 20
10.50028434727809
 30
0.0
 11
71.18374532538763
 21
10.46728434727809
 31
0.0
  0
LINE
  5
F7B6FDAF6BC6DD04
330
1063C03AE4E6B6F0
100
AcDbEntity
  8
LABELDIM
100
AcDbLine
 10
71.11274532538764
 20
10.46728434727809
 30
0.0
 11
71.11274532538764
 21
10.50028434727809
 31
0.0
  0
LINE
  5
F7B6FDAF6BC6DD05
330
1063C03AE4E6B6F0
100
AcDbEntity
  8
LABELDIM
100
AcDbLine
 10
71.13874532538763
 20
10.50028434727809
 30
0.0
 11
71.13874532538763
 21
10.46728434727809
 31
0.0
  0
LINE
  5
F7B6FDAF6BC6DD06
330
1063C03AE4E6B6F0
100
AcDbEntity
  8
LABELDIM
100
AcDbLine
 10
71.13474532538763
 20
10.50028434727809
 30
0.0
 11
71.13474532538763
 21
10.46728434727809
 31
0.0
  0
LINE
  5
F7B6FDAF6BC6DD07
330
1063C03AE4E6B6F0
100
AcDbEntity
  8
LABELDIM
100
AcDbLine
 10
71.13074532538764
 20
10.50028434727809
 30
0.0
 11
71.13074532538764
 21
10.46728434727809
 31
0.0
  0
LINE
  5
F7B6FDAF6BC6DD08
330
1063C03AE4E6B6F0
100
AcDbEntity
  8
LABELDIM
100
AcDbLine
 10
71.12674532538763
 20
10.50028434727809
 30
0.0
 11
71.12674532538763
 21
10.46728434727809
 31
0.0
  0
LINE
  5
F7B6FDAF6BC6DD09
330
1063C03AE4E6B6F0
100
AcDbEntity
  8
LABELDIM
100
AcDbLine
 10
71.12274532538762
 20
10.50028434727809
 30
0.0
 11
71.12274532538762
 21
10.46728434727809
 31
0.0
  0
LINE
  5
F7B6FDAF6BC6DD0A
330
1063C03AE4E6B6F0
100
AcDbEntity
  8
LABELDIM
100
AcDbLine
 10
71.11874532538763
 20
10.50028434727809
 30
0.0
 11
71.11874532538763
 21
10.46728434727809
 31
0.0
  0
LINE
  5
F7B6FDAF6BC6DD0B
330
1063C03AE4E6B6F0
100
AcDbEntity
  8
LABELDIM
100
AcDbLine
 10
71.11574532538764
 20
10.50028434727809
 30
0.0
 11
71.11574532538764
 21
10.46728434727809
 31
0.0
  0
LINE
  5
F7B6FDAF6BC6DD17
330
1063C03AE4E6B6F0
100
AcDbEntity
  8
LABELDIM
100
AcDbLine
 10
71.07774532538762
 20
10.51628434727809
 30
0.0
 11
71.07774532538762
 21
10.45228434727809
 31
0.0
  0
LINE
  5
F7B6FDAF6BC6DD19
330
1063C03AE4E6B6F0
100
AcDbEntity
  8
LABELDIM
100
AcDbLine
 10
71.21574532538763
 20
10.55228434727809
 30
0.0
 11
71.21574532538763
 21
10.61628434727809
 31
0.0
  0
LINE
  5
F7B6FDAF6BC6DD1A
330
1063C03AE4E6B6F0
100
AcDbEntity
  8
LABELDIM
100
AcDbLine
 10
71.21574532538763
 20
10.65228434727809
 30
0.0
 11
71.21574532538763
 21
10.71628434727809
 31
0.0
  0
LINE
  5
F7B6FDAF6BC6DD1B
330
1063C03AE4E6B6F0
100
AcDbEntity
  8
LABELDIM
100
AcDbLine
 10
71.21574532538763
 20
10.75228434727809
 30
0.0
 11
71.21574532538763
 21
10.81628434727809
 31
0.0
  0
LINE
  5
F7B6FDAF6BC6DD1C
330
1063C03AE4E6B6F0
100
AcDbEntity
  8
LABELDIM
100
AcDbLine
 10
71.21574532538763
 20
10.85228434727809
 30
0.0
 11
71.21574532538763
 21
10.91628434727809
 31
0.0
  0
LINE
  5
F7B6FDAF6BC6DD1F
330
1063C03AE4E6B6F0
100
AcDbEntity
  8
LABELDIM
100
AcDbLine
 10
71.21574532538763
 20
10.45228434727809
 30
0.0
 11
71.21574532538763
 21
10.51628434727809
 31
0.0
  0
LWPOLYLINE
  5
F7B6FDAF6BC6DD21
330
1063C03AE4E6B6F0
100
AcDbEntity
  8
LABELDIM
100
AcDbPolyline
 90
        6
 70
     1
 43
0.01
 10
71.39674532538764
 20
11.0842843472781
 10
71.77174532538764
 20
11.0842843472781
 10
71.77174532538764
 20
10.39178434727809
 10
71.37174532538764
 20
10.39178434727809
 10
71.37174532538764
 20
11.0842843472781
 10
71.39674532538764
 20
11.0842843472781
  0
LINE
  5
F7B6FDAF6BC6DD22
330
1063C03AE4E6B6F0
100
AcDbEntity
  8
LABELDIM
100
AcDbLine
 10
71.63574532538763
 20
10.45228434727809
 30
0.0
 11
71.63574532538763
 21
10.51628434727809
 31
0.0
  0
LINE
  5
F7B6FDAF6BC6DD23
330
1063C03AE4E6B6F0
100
AcDbEntity
  8
LABELDIM
100
AcDbLine
 10
71.63574532538763
 20
10.85228434727809
 30
0.0
 11
71.63574532538763
 21
10.91628434727809
 31
0.0
  0
LINE
  5
F7B6FDAF6BC6DD24
330
1063C03AE4E6B6F0
100
AcDbEntity
  8
LABELDIM
100
AcDbLine
 10
71.63574532538763
 20
10.75228434727809
 30
0.0
 11
71.63574532538763
 21
10.81628434727809
 31
0.0
  0
LINE
  5
F7B6FDAF6BC6DD25
330
1063C03AE4E6B6F0
100
AcDbEntity
  8
LABELDIM
100
AcDbLine
 10
71.63574532538763
 20
10.65228434727809
 30
0.0
 11
71.63574532538763
 21
10.71628434727809
 31
0.0
  0
LINE
  5
F7B6FDAF6BC6DD26
330
1063C03AE4E6B6F0
100
AcDbEntity
  8
LABELDIM
100
AcDbLine
 10
71.63574532538763
 20
10.55228434727809
 30
0.0
 11
71.63574532538763
 21
10.61628434727809
 31
0.0
  0
LINE
  5
F7B6FDAF6BC6DD27
330
1063C03AE4E6B6F0
100
AcDbEntity
  8
LABELDIM
100
AcDbLine
 10
71.49774532538763
 20
10.51628434727809
 30
0.0
 11
71.49774532538763
 21
10.45228434727809
 31
0.0
  0
LINE
  5
F7B6FDAF6BC6DD28
330
1063C03AE4E6B6F0
100
AcDbEntity
  8
LABELDIM
100
AcDbLine
 10
71.53574532538764
 20
10.50028434727809
 30
0.0
 11
71.53574532538764
 21
10.46728434727809
 31
0.0
  0
LINE
  5
F7B6FDAF6BC6DD29
330
1063C03AE4E6B6F0
100
AcDbEntity
  8
LABELDIM
100
AcDbLine
 10
71.53874532538764
 20
10.50028434727809
 30
0.0
 11
71.53874532538764
 21
10.46728434727809
 31
0.0
  0
LINE
  5
F7B6FDAF6BC6DD2A
330
1063C03AE4E6B6F0
100
AcDbEntity
  8
LABELDIM
100
AcDbLine
 10
71.54274532538763
 20
10.50028434727809
 30
0.0
 11
71.54274532538763
 21
10.46728434727809
 31
0.0
  0
LINE
  5
F7B6FDAF6BC6DD2B
330
1063C03AE4E6B6F0
100
AcDbEntity
  8
LABELDIM
100
AcDbLine
 10
71.54674532538763
 20
10.50028434727809
 30
0.0
 11
71.54674532538763
 21
10.46728434727809
 31
0.0
  0
LINE
  5
F7B6FDAF6BC6DD2C
330
1063C03AE4E6B6F0
100
AcDbEntity
  8
LABELDIM
100
AcDbLine
 10
71.55074532538764
 20
10.50028434727809
 30
0.0
 11
71.55074532538764
 21
10.46728434727809
 31
0.0
  0
LINE
  5
F7B6FDAF6BC6DD2D
330
1063C03AE4E6B6F0
100
AcDbEntity
  8
LABELDIM
100
AcDbLine
 10
71.55474532538763
 20
10.50028434727809
 30
0.0
 11
71.55474532538763
 21
10.46728434727809
 31
0.0
  0
LINE
  5
F7B6FDAF6BC6DD2E
330
1063C03AE4E6B6F0
100
AcDbEntity
  8
LABELDIM
100
AcDbLine
 10
71.55874532538764
 20
10.50028434727809
 30
0.0
 11
71.55874532538764
 21
10.46728434727809
 31
0.0
  0
LINE
  5
F7B6FDAF6BC6DD2F
330
1063C03AE4E6B6F0
100
AcDbEntity
  8
LABELDIM
100
AcDbLine
 10
71.53274532538763
 20
10.46728434727809
 30
0.0
 11
71.53274532538763
 21
10.50028434727809
 31
0.0
  0
LINE
  5
F7B6FDAF6BC6DD30
330
1063C03AE4E6B6F0
100
AcDbEntity
  8
LABELDIM
100
AcDbLine
 10
71.60374532538764
 20
10.50028434727809
 30
0.0
 11
71.60374532538764
 21
10.46728434727809
 31
0.0
  0
LINE
  5
F7B6FDAF6BC6DD31
330
1063C03AE4E6B6F0
100
AcDbEntity
  8
LABELDIM
100
AcDbLine
 10
71.53274532538763
 20
10.50028434727809
 30
0.0
 11
71.60374532538764
 21
10.50028434727809
 31
0.0
  0
LINE
  5
F7B6FDAF6BC6DD32
330
1063C03AE4E6B6F0
100
AcDbEntity
  8
LABELDIM
100
AcDbLine
 10
71.60374532538764
 20
10.46728434727809
 30
0.0
 11
71.53274532538763
 21
10.46728434727809
 31
0.0
  0
LINE
  5
F7B6FDAF6BC6DD33
330
1063C03AE4E6B6F0
100
AcDbEntity
  8
LABELDIM
100
AcDbLine
 10
71.49774532538763
 20
10.91628434727809
 30
0.0
 11
71.49774532538763
 21
10.85228434727809
 31
0.0
  0
LINE
  5
F7B6FDAF6BC6DD34
330
1063C03AE4E6B6F0
100
AcDbEntity
  8
LABELDIM
100
AcDbLine
 10
71.49774532538763
 20
10.81628434727809
 30
0.0
 11
71.49774532538763
 21
10.75228434727809
 31
0.0
  0
LINE
  5
F7B6FDAF6BC6DD35
330
1063C03AE4E6B6F0
100
AcDbEntity
  8
LABELDIM
100
AcDbLine
 10
71.49774532538763
 20
10.71628434727809
 30
0.0
 11
71.49774532538763
 21
10.65228434727809
 31
0.0
  0
LINE
  5
F7B6FDAF6BC6DD36
330
1063C03AE4E6B6F0
100
AcDbEntity
  8
LABELDIM
100
AcDbLine
 10
71.49774532538763
 20
10.61628434727809
 30
0.0
 11
71.49774532538763
 21
10.55228434727809
 31
0.0
  0
LINE
  5
F7B6FDAF6BC6DD37
330
1063C03AE4E6B6F0
100
AcDbEntity
  8
LABELDIM
100
AcDbLine
 10
71.53574532538764
 20
10.90028434727809
 30
0.0
 11
71.53574532538764
 21
10.86728434727809
 31
0.0
  0
LINE
  5
F7B6FDAF6BC6DD38
330
1063C03AE4E6B6F0
100
AcDbEntity
  8
LABELDIM
100
AcDbLine
 10
71.53874532538764
 20
10.90028434727809
 30
0.0
 11
71.53874532538764
 21
10.86728434727809
 31
0.0
  0
LINE
  5
F7B6FDAF6BC6DD39
330
1063C03AE4E6B6F0
100
AcDbEntity
  8
LABELDIM
100
AcDbLine
 10
71.54274532538763
 20
10.90028434727809
 30
0.0
 11
71.54274532538763
 21
10.86728434727809
 31
0.0
  0
LINE
  5
F7B6FDAF6BC6DD3A
330
1063C03AE4E6B6F0
100
AcDbEntity
  8
LABELDIM
100
AcDbLine
 10
71.54674532538763
 20
10.90028434727809
 30
0.0
 11
71.54674532538763
 21
10.86728434727809
 31
0.0
  0
LINE
  5
F7B6FDAF6BC6DD3B
330
1063C03AE4E6B6F0
100
AcDbEntity
  8
LABELDIM
100
AcDbLine
 10
71.55074532538764
 20
10.90028434727809
 30
0.0
 11
71.55074532538764
 21
10.86728434727809
 31
0.0
  0
LINE
  5
F7B6FDAF6BC6DD3C
330
1063C03AE4E6B6F0
100
AcDbEntity
  8
LABELDIM
100
AcDbLine
 10
71.55474532538763
 20
10.90028434727809
 30
0.0
 11
71.55474532538763
 21
10.86728434727809
 31
0.0
  0
LINE
  5
F7B6FDAF6BC6DD3D
330
1063C03AE4E6B6F0
100
AcDbEntity
  8
LABELDIM
100
AcDbLine
 10
71.55874532538764
 20
10.90028434727809
 30
0.0
 11
71.55874532538764
 21
10.86728434727809
 31
0.0
  0
LINE
  5
F7B6FDAF6BC6DD3E
330
1063C03AE4E6B6F0
100
AcDbEntity
  8
LABELDIM
100
AcDbLine
 10
71.53274532538763
 20
10.86728434727809
 30
0.0
 11
71.53274532538763
 21
10.90028434727809
 31
0.0
  0
LINE
  5
F7B6FDAF6BC6DD3F
330
1063C03AE4E6B6F0
100
AcDbEntity
  8
LABELDIM
100
AcDbLine
 10
71.60374532538764
 20
10.90028434727809
 30
0.0
 11
71.60374532538764
 21
10.86728434727809
 31
0.0
  0
LINE
  5
F7B6FDAF6BC6DD40
330
1063C03AE4E6B6F0
100
AcDbEntity
  8
LABELDIM
100
AcDbLine
 10
71.53274532538763
 20
10.90028434727809
 30
0.0
 11
71.60374532538764
 21
10.90028434727809
 31
0.0
  0
LINE
  5
F7B6FDAF6BC6DD41
330
1063C03AE4E6B6F0
100
AcDbEntity
  8
LABELDIM
100
AcDbLine
 10
71.60374532538764
 20
10.86728434727809
 30
0.0
 11
71.53274532538763
 21
10.86728434727809
 31
0.0
  0
LINE
  5
F7B6FDAF6BC6DD42
330
1063C03AE4E6B6F0
100
AcDbEntity
  8
LABELDIM
100
AcDbLine
 10
71.53574532538764
 20
10.80028434727809
 30
0.0
 11
71.53574532538764
 21
10.76728434727809
 31
0.0
  0
LINE
  5
F7B6FDAF6BC6DD43
330
1063C03AE4E6B6F0
100
AcDbEntity
  8
LABELDIM
100
AcDbLine
 10
71.53874532538764
 20
10.80028434727809
 30
0.0
 11
71.53874532538764
 21
10.76728434727809
 31
0.0
  0
LINE
  5
F7B6FDAF6BC6DD44
330
1063C03AE4E6B6F0
100
AcDbEntity
  8
LABELDIM
100
AcDbLine
 10
71.54274532538763
 20
10.80028434727809
 30
0.0
 11
71.54274532538763
 21
10.76728434727809
 31
0.0
  0
LINE
  5
F7B6FDAF6BC6DD45
330
1063C03AE4E6B6F0
100
AcDbEntity
  8
LABELDIM
100
AcDbLine
 10
71.54674532538763
 20
10.80028434727809
 30
0.0
 11
71.54674532538763
 21
10.76728434727809
 31
0.0
  0
LINE
  5
F7B6FDAF6BC6DD46
330
1063C03AE4E6B6F0
100
AcDbEntity
  8
LABELDIM
100
AcDbLine
 10
71.55074532538764
 20
10.80028434727809
 30
0.0
 11
71.55074532538764
 21
10.76728434727809
 31
0.0
  0
LINE
  5
F7B6FDAF6BC6DD47
330
1063C03AE4E6B6F0
100
AcDbEntity
  8
LABELDIM
100
AcDbLine
 10
71.55474532538763
 20
10.80028434727809
 30
0.0
 11
71.55474532538763
 21
10.76728434727809
 31
0.0
  0
LINE
  5
F7B6FDAF6BC6DD48
330
1063C03AE4E6B6F0
100
AcDbEntity
  8
LABELDIM
100
AcDbLine
 10
71.55874532538764
 20
10.80028434727809
 30
0.0
 11
71.55874532538764
 21
10.76728434727809
 31
0.0
  0
LINE
  5
F7B6FDAF6BC6DD49
330
1063C03AE4E6B6F0
100
AcDbEntity
  8
LABELDIM
100
AcDbLine
 10
71.53274532538763
 20
10.76728434727809
 30
0.0
 11
71.53274532538763
 21
10.80028434727809
 31
0.0
  0
LINE
  5
F7B6FDAF6BC6DD4A
330
1063C03AE4E6B6F0
100
AcDbEntity
  8
LABELDIM
100
AcDbLine
 10
71.60374532538764
 20
10.80028434727809
 30
0.0
 11
71.60374532538764
 21
10.76728434727809
 31
0.0
  0
LINE
  5
F7B6FDAF6BC6DD4B
330
1063C03AE4E6B6F0
100
AcDbEntity
  8
LABELDIM
100
AcDbLine
 10
71.53274532538763
 20
10.80028434727809
 30
0.0
 11
71.60374532538764
 21
10.80028434727809
 31
0.0
  0
LINE
  5
F7B6FDAF6BC6DD4C
330
1063C03AE4E6B6F0
100
AcDbEntity
  8
LABELDIM
100
AcDbLine
 10
71.60374532538764
 20
10.76728434727809
 30
0.0
 11
71.53274532538763
 21
10.76728434727809
 31
0.0
  0
LINE
  5
F7B6FDAF6BC6DD4D
330
1063C03AE4E6B6F0
100
AcDbEntity
  8
LABELDIM
100
AcDbLine
 10
71.53574532538764
 20
10.70028434727809
 30
0.0
 11
71.53574532538764
 21
10.66728434727809
 31
0.0
  0
LINE
  5
F7B6FDAF6BC6DD4E
330
1063C03AE4E6B6F0
100
AcDbEntity
  8
LABELDIM
100
AcDbLine
 10
71.53874532538764
 20
10.70028434727809
 30
0.0
 11
71.53874532538764
 21
10.66728434727809
 31
0.0
  0
LINE
  5
F7B6FDAF6BC6DD4F
330
1063C03AE4E6B6F0
100
AcDbEntity
  8
LABELDIM
100
AcDbLine
 10
71.54274532538763
 20
10.70028434727809
 30
0.0
 11
71.54274532538763
 21
10.66728434727809
 31
0.0
  0
LINE
  5
F7B6FDAF6BC6DD50
330
1063C03AE4E6B6F0
100
AcDbEntity
  8
LABELDIM
100
AcDbLine
 10
71.54674532538763
 20
10.70028434727809
 30
0.0
 11
71.54674532538763
 21
10.66728434727809
 31
0.0
  0
LINE
  5
F7B6FDAF6BC6DD51
330
1063C03AE4E6B6F0
100
AcDbEntity
  8
LABELDIM
100
AcDbLine
 10
71.55074532538764
 20
10.70028434727809
 30
0.0
 11
71.55074532538764
 21
10.66728434727809
 31
0.0
  0
LINE
  5
F7B6FDAF6BC6DD52
330
1063C03AE4E6B6F0
100
AcDbEntity
  8
LABELDIM
100
AcDbLine
 10
71.55474532538763
 20
10.70028434727809
 30
0.0
 11
71.55474532538763
 21
10.66728434727809
 31
0.0
  0
LINE
  5
F7B6FDAF6BC6DD53
330
1063C03AE4E6B6F0
100
AcDbEntity
  8
LABELDIM
100
AcDbLine
 10
71.55874532538764
 20
10.70028434727809
 30
0.0
 11
71.55874532538764
 21
10.66728434727809
 31
0.0
  0
LINE
  5
F7B6FDAF6BC6DD54
330
1063C03AE4E6B6F0
100
AcDbEntity
  8
LABELDIM
100
AcDbLine
 10
71.53274532538763
 20
10.66728434727809
 30
0.0
 11
71.53274532538763
 21
10.70028434727809
 31
0.0
  0
LINE
  5
F7B6FDAF6BC6DD55
330
1063C03AE4E6B6F0
100
AcDbEntity
  8
LABELDIM
100
AcDbLine
 10
71.60374532538764
 20
10.70028434727809
 30
0.0
 11
71.60374532538764
 21
10.66728434727809
 31
0.0
  0
LINE
  5
F7B6FDAF6BC6DD56
330
1063C03AE4E6B6F0
100
AcDbEntity
  8
LABELDIM
100
AcDbLine
 10
71.53274532538763
 20
10.70028434727809
 30
0.0
 11
71.60374532538764
 21
10.70028434727809
 31
0.0
  0
LINE
  5
F7B6FDAF6BC6DD57
330
1063C03AE4E6B6F0
100
AcDbEntity
  8
LABELDIM
100
AcDbLine
 10
71.60374532538764
 20
10.66728434727809
 30
0.0
 11
71.53274532538763
 21
10.66728434727809
 31
0.0
  0
LINE
  5
F7B6FDAF6BC6DD58
330
1063C03AE4E6B6F0
100
AcDbEntity
  8
LABELDIM
100
AcDbLine
 10
71.53574532538764
 20
10.60028434727809
 30
0.0
 11
71.53574532538764
 21
10.56728434727809
 31
0.0
  0
LINE
  5
F7B6FDAF6BC6DD59
330
1063C03AE4E6B6F0
100
AcDbEntity
  8
LABELDIM
100
AcDbLine
 10
71.53874532538764
 20
10.60028434727809
 30
0.0
 11
71.53874532538764
 21
10.56728434727809
 31
0.0
  0
LINE
  5
F7B6FDAF6BC6DD5A
330
1063C03AE4E6B6F0
100
AcDbEntity
  8
LABELDIM
100
AcDbLine
 10
71.54274532538763
 20
10.60028434727809
 30
0.0
 11
71.54274532538763
 21
10.56728434727809
 31
0.0
  0
LINE
  5
F7B6FDAF6BC6DD5B
330
1063C03AE4E6B6F0
100
AcDbEntity
  8
LABELDIM
100
AcDbLine
 10
71.54674532538763
 20
10.60028434727809
 30
0.0
 11
71.54674532538763
 21
10.56728434727809
 31
0.0
  0
LINE
  5
F7B6FDAF6BC6DD5C
330
1063C03AE4E6B6F0
100
AcDbEntity
  8
LABELDIM
100
AcDbLine
 10
71.55074532538764
 20
10.60028434727809
 30
0.0
 11
71.55074532538764
 21
10.56728434727809
 31
0.0
  0
LINE
  5
F7B6FDAF6BC6DD5D
330
1063C03AE4E6B6F0
100
AcDbEntity
  8
LABELDIM
100
AcDbLine
 10
71.55474532538763
 20
10.60028434727809
 30
0.0
 11
71.55474532538763
 21
10.56728434727809
 31
0.0
  0
LINE
  5
F7B6FDAF6BC6DD5E
330
1063C03AE4E6B6F0
100
AcDbEntity
  8
LABELDIM
100
AcDbLine
 10
71.55874532538764
 20
10.60028434727809
 30
0.0
 11
71.55874532538764
 21
10.56728434727809
 31
0.0
  0
LINE
  5
F7B6FDAF6BC6DD5F
330
1063C03AE4E6B6F0
100
AcDbEntity
  8
LABELDIM
100
AcDbLine
 10
71.53274532538763
 20
10.56728434727809
 30
0.0
 11
71.53274532538763
 21
10.60028434727809
 31
0.0
  0
LINE
  5
F7B6FDAF6BC6DD60
330
1063C03AE4E6B6F0
100
AcDbEntity
  8
LABELDIM
100
AcDbLine
 10
71.60374532538764
 20
10.60028434727809
 30
0.0
 11
71.60374532538764
 21
10.56728434727809
 31
0.0
  0
LINE
  5
F7B6FDAF6BC6DD61
330
1063C03AE4E6B6F0
100
AcDbEntity
  8
LABELDIM
100
AcDbLine
 10
71.53274532538763
 20
10.60028434727809
 30
0.0
 11
71.60374532538764
 21
10.60028434727809
 31
0.0
  0
LINE
  5
F7B6FDAF6BC6DD62
330
1063C03AE4E6B6F0
100
AcDbEntity
  8
LABELDIM
100
AcDbLine
 10
71.60374532538764
 20
10.56728434727809
 30
0.0
 11
71.53274532538763
 21
10.56728434727809
 31
0.0
  0
LINE
  5
F7B6FDAF6BC6DD63
330
1063C03AE4E6B6F0
100
AcDbEntity
  8
LABELDIM
100
AcDbLine
 10
71.63574532538763
 20
10.91628434727809
 30
0.0
 11
71.49774532538763
 21
10.91628434727809
 31
0.0
  0
LINE
  5
F7B6FDAF6BC6DD64
330
1063C03AE4E6B6F0
100
AcDbEntity
  8
LABELDIM
100
AcDbLine
 10
71.49774532538763
 20
10.85228434727809
 30
0.0
 11
71.63574532538763
 21
10.85228434727809
 31
0.0
  0
LINE
  5
F7B6FDAF6BC6DD65
330
1063C03AE4E6B6F0
100
AcDbEntity
  8
LABELDIM
100
AcDbLine
 10
71.63574532538763
 20
10.81628434727809
 30
0.0
 11
71.49774532538763
 21
10.81628434727809
 31
0.0
  0
LINE
  5
F7B6FDAF6BC6DD66
330
1063C03AE4E6B6F0
100
AcDbEntity
  8
LABELDIM
100
AcDbLine
 10
71.49774532538763
 20
10.75228434727809
 30
0.0
 11
71.63574532538763
 21
10.75228434727809
 31
0.0
  0
LINE
  5
F7B6FDAF6BC6DD67
330
1063C03AE4E6B6F0
100
AcDbEntity
  8
LABELDIM
100
AcDbLine
 10
71.63574532538763
 20
10.71628434727809
 30
0.0
 11
71.49774532538763
 21
10.71628434727809
 31
0.0
  0
LINE
  5
F7B6FDAF6BC6DD68
330
1063C03AE4E6B6F0
100
AcDbEntity
  8
LABELDIM
100
AcDbLine
 10
71.49774532538763
 20
10.65228434727809
 30
0.0
 11
71.63574532538763
 21
10.65228434727809
 31
0.0
  0
LINE
  5
F7B6FDAF6BC6DD69
330
1063C03AE4E6B6F0
100
AcDbEntity
  8
LABELDIM
100
AcDbLine
 10
71.63574532538763
 20
10.61628434727809
 30
0.0
 11
71.49774532538763
 21
10.61628434727809
 31
0.0
  0
LINE
  5
F7B6FDAF6BC6DD6A
330
1063C03AE4E6B6F0
100
AcDbEntity
  8
LABELDIM
100
AcDbLine
 10
71.49774532538763
 20
10.55228434727809
 30
0.0
 11
71.63574532538763
 21
10.55228434727809
 31
0.0
  0
LINE
  5
F7B6FDAF6BC6DD6B
330
1063C03AE4E6B6F0
100
AcDbEntity
  8
LABELDIM
100
AcDbLine
 10
71.63574532538763
 20
10.51628434727809
 30
0.0
 11
71.49774532538763
 21
10.51628434727809
 31
0.0
  0
LINE
  5
F7B6FDAF6BC6DD6C
330
1063C03AE4E6B6F0
100
AcDbEntity
  8
LABELDIM
100
AcDbLine
 10
71.49774532538763
 20
10.45228434727809
 30
0.0
 11
71.63574532538763
 21
10.45228434727809
 31
0.0
  0
LINE
  5
F7B6FDAF6BC6DD6D
330
1063C03AE4E6B6F0
100
AcDbEntity
  8
LABELDIM
100
AcDbLine
 10
71.63574532538763
 20
10.9522843472781
 30
0.0
 11
71.63574532538763
 21
11.0162843472781
 31
0.0
  0
LINE
  5
F7B6FDAF6BC6DD6E
330
1063C03AE4E6B6F0
100
AcDbEntity
  8
LABELDIM
100
AcDbLine
 10
71.49774532538763
 20
11.0162843472781
 30
0.0
 11
71.49774532538763
 21
10.9522843472781
 31
0.0
  0
LINE
  5
F7B6FDAF6BC6DD6F
330
1063C03AE4E6B6F0
100
AcDbEntity
  8
LABELDIM
100
AcDbLine
 10
71.60374532538764
 20
11.0002843472781
 30
0.0
 11
71.60374532538764
 21
10.9672843472781
 31
0.0
  0
LINE
  5
F7B6FDAF6BC6DD70
330
1063C03AE4E6B6F0
100
AcDbEntity
  8
LABELDIM
100
AcDbLine
 10
71.53274532538763
 20
10.9672843472781
 30
0.0
 11
71.53274532538763
 21
11.0002843472781
 31
0.0
  0
LINE
  5
F7B6FDAF6BC6DD71
330
1063C03AE4E6B6F0
100
AcDbEntity
  8
LABELDIM
100
AcDbLine
 10
71.55874532538764
 20
11.0002843472781
 30
0.0
 11
71.55874532538764
 21
10.9672843472781
 31
0.0
  0
LINE
  5
F7B6FDAF6BC6DD72
330
1063C03AE4E6B6F0
100
AcDbEntity
  8
LABELDIM
100
AcDbLine
 10
71.55474532538763
 20
11.0002843472781
 30
0.0
 11
71.55474532538763
 21
10.9672843472781
 31
0.0
  0
LINE
  5
F7B6FDAF6BC6DD73
330
1063C03AE4E6B6F0
100
AcDbEntity
  8
LABELDIM
100
AcDbLine
 10
71.55074532538764
 20
11.0002843472781
 30
0.0
 11
71.55074532538764
 21
10.9672843472781
 31
0.0
  0
LINE
  5
F7B6FDAF6BC6DD74
330
1063C03AE4E6B6F0
100
AcDbEntity
  8
LABELDIM
100
AcDbLine
 10
71.54674532538763
 20
11.0002843472781
 30
0.0
 11
71.54674532538763
 21
10.9672843472781
 31
0.0
  0
LINE
  5
F7B6FDAF6BC6DD75
330
1063C03AE4E6B6F0
100
AcDbEntity
  8
LABELDIM
100
AcDbLine
 10
71.54274532538763
 20
11.0002843472781
 30
0.0
 11
71.54274532538763
 21
10.9672843472781
 31
0.0
  0
LINE
  5
F7B6FDAF6BC6DD76
330
1063C03AE4E6B6F0
100
AcDbEntity
  8
LABELDIM
100
AcDbLine
 10
71.53874532538764
 20
11.0002843472781
 30
0.0
 11
71.53874532538764
 21
10.9672843472781
 31
0.0
  0
LINE
  5
F7B6FDAF6BC6DD77
330
1063C03AE4E6B6F0
100
AcDbEntity
  8
LABELDIM
100
AcDbLine
 10
71.53574532538764
 20
11.0002843472781
 30
0.0
 11
71.53574532538764
 21
10.9672843472781
 31
0.0
  0
LINE
  5
F7B6FDAF6BC6DD78
330
1063C03AE4E6B6F0
100
AcDbEntity
  8
LABELDIM
100
AcDbLine
 10
71.53274532538763
 20
11.0002843472781
 30
0.0
 11
71.60374532538764
 21
11.0002843472781
 31
0.0
  0
LINE
  5
F7B6FDAF6BC6DD79
330
1063C03AE4E6B6F0
100
AcDbEntity
  8
LABELDIM
100
AcDbLine
 10
71.60374532538764
 20
10.9672843472781
 30
0.0
 11
71.53274532538763
 21
10.9672843472781
 31
0.0
  0
LINE
  5
F7B6FDAF6BC6DD7A
330
1063C03AE4E6B6F0
100
AcDbEntity
  8
LABELDIM
100
AcDbLine
 10
71.63574532538763
 20
11.0162843472781
 30
0.0
 11
71.49774532538763
 21
11.0162843472781
 31
0.0
  0
LINE
  5
F7B6FDAF6BC6DD7B
330
1063C03AE4E6B6F0
100
AcDbEntity
  8
LABELDIM
100
AcDbLine
 10
71.49774532538763
 20
10.9522843472781
 30
0.0
 11
71.63574532538763
 21
10.9522843472781
 31
0.0
  0
LWPOLYLINE
  5
F7B6FDAF6BC6DD7C
330
1063C03AE4E6B6F0
100
AcDbEntity
  8
LABELDIM
100
AcDbPolyline
 90
        2
 70
     1
 43
0.005
 10
71.77424532538764
 20
11.0842843472781
 42
1.0
 10
71.76924532538762
 20
11.0842843472781
 42
1.0
  0
LWPOLYLINE
  5
F7B6FDAF6BC6DD7D
330
1063C03AE4E6B6F0
100
AcDbEntity
  8
LABELDIM
100
AcDbPolyline
 90
        2
 70
     1
 43
0.005
 10
71.39924532538763
 20
11.0842843472781
 42
1.0
 10
71.39424532538765
 20
11.0842843472781
 42
1.0
  0
LWPOLYLINE
  5
F7B6FDAF6BC6DD7E
330
1063C03AE4E6B6F0
100
AcDbEntity
  8
LABELDIM
100
AcDbPolyline
 90
        2
 70
     1
 43
0.005
 10
71.39924532538763
 20
11.0842843472781
 42
1.0
 10
71.39424532538765
 20
11.0842843472781
 42
1.0
  0
LWPOLYLINE
  5
F7B6FDAF6BC6DD7F
330
1063C03AE4E6B6F0
100
AcDbEntity
  8
LABELDIM
100
AcDbPolyline
 90
        2
 70
     1
 43
0.005
 10
71.37424532538763
 20
11.0842843472781
 42
1.0
 10
71.36924532538763
 20
11.0842843472781
 42
1.0
  0
INSERT
  5
F7B6FDAF6BC6DDB9
330
1063C03AE4E6B6F0
100
AcDbEntity
  8
LABELDIM
100
AcDbBlockReference
  2
ACAD3267
 10
72.58824532538763
 20
10.72278434727809
 30
0.0
 50
270.0
  0
CIRCLE
  5
F7B6FDAF6BC6DDCC
330
1063C03AE4E6B6F0
100
AcDbEntity
  8
LABELDIM
100
AcDbCircle
 10
74.04324532538763
 20
10.44078434727809
 30
0.0
 40
0.0650000000000013
  0
CIRCLE
  5
F7B6FDAF6BC6DDCD
330
1063C03AE4E6B6F0
100
AcDbEntity
  8
LABELDIM
100
AcDbCircle
 10
72.42624532538762
 20
10.24578434727809
 30
0.0
 40
0.0650000000000013
  0
CIRCLE
  5
F7B6FDAF6BC6DDCE
330
1063C03AE4E6B6F0
100
AcDbEntity
  8
LABELDIM
100
AcDbCircle
 10
72.62624532538763
 20
10.24078434727809
 30
0.0
 40
0.0650000000000013
  0
CIRCLE
  5
F7B6FDAF6BC6DDCF
330
1063C03AE4E6B6F0
100
AcDbEntity
  8
LABELDIM
100
AcDbCircle
 10
73.10324532538763
 20
10.24078434727809
 30
0.0
 40
0.0650000000000013
  0
CIRCLE
  5
F7B6FDAF6BC6DDD0
330
1063C03AE4E6B6F0
100
AcDbEntity
  8
LABELDIM
100
AcDbCircle
 10
73.84824532538762
 20
10.43578434727809
 30
0.0
 40
0.0650000000000013
  0
CIRCLE
  5
F7B6FDAF6BC6DDD1
330
1063C03AE4E6B6F0
100
AcDbEntity
  8
LABELDIM
100
AcDbCircle
 10
73.98824532538762
 20
11.16578434727809
 30
0.0
 40
0.0650000000000013
  0
CIRCLE
  5
F7B6FDAF6BC6DDD2
330
1063C03AE4E6B6F0
100
AcDbEntity
  8
LABELDIM
100
AcDbCircle
 10
73.58324532538762
 20
10.43578434727809
 30
0.0
 40
0.0650000000000013
  0
CIRCLE
  5
F7B6FDAF6BC6DDD3
330
1063C03AE4E6B6F0
100
AcDbEntity
  8
LABELDIM
100
AcDbCircle
 10
73.98824532538762
 20
10.98078434727809
 30
0.0
 40
0.0650000000000013
  0
CIRCLE
  5
F7B6FDAF6BC6DDD4
330
1063C03AE4E6B6F0
100
AcDbEntity
  8
LABELDIM
100
AcDbCircle
 10
73.84824532538764
 20
10.64078434727809
 30
0.0
 40
0.0650000000000013
  0
CIRCLE
  5
F7B6FDAF6BC6DDD5
330
1063C03AE4E6B6F0
100
AcDbEntity
  8
LABELDIM
100
AcDbCircle
 10
73.58324532538762
 20
10.64078434727809
 30
0.0
 40
0.0650000000000013
  0
CIRCLE
  5
F7B6FDAF6BC6DDD6
330
1063C03AE4E6B6F0
100
AcDbEntity
  8
LABELDIM
100
AcDbCircle
 10
73.30324532538764
 20
10.24078434727809
 30
0.0
 40
0.0650000000000013
  0
CIRCLE
  5
F7B6FDAF6BC6DDD7
330
1063C03AE4E6B6F0
100
AcDbEntity
  8
LABELDIM
100
AcDbCircle
 10
74.04324532538763
 20
10.63578434727809
 30
0.0
 40
0.0650000000000013
  0
INSERT
  5
F7B6FDAF6BC6DE12
330
1063C03AE4E6B6F0
100
AcDbEntity
  8
LABELDIM
100
AcDbBlockReference
  2
A$C36705F33
 10
136.479500014556
 20
19.45500000418876
 30
0.0
  0
INSERT
  5
F7B6FDAF6BC6DE1F
330
1063C03AE4E6B6F0
100
AcDbEntity
  8
LABELDIM
100
AcDbBlockReference
  2
A$C36705F33
 10
128.696680401495
 20
17.65809182138827
 30
0.0
 41
0.8747411045560816
 42
0.8747411045560816
 43
0.8747411045560816
  0
LWPOLYLINE
  5
F7B6FDAF6BC6DE25
330
1063C03AE4E6B6F0
100
AcDbEntity
  8
LABELDIM
100
AcDbPolyline
 90
        4
 70
     1
 43
0.0
 10
70.83350001455612
 20
11.66900000418877
 10
76.70350001455613
 20
11.66900000418877
 10
76.70350001455613
 20
3.792000004188769
 10
70.83350001455612
 20
3.792000004188769
  0
CIRCLE
  5
F7B6FDAF6BC6DE28
330
1063C03AE4E6B6F0
100
AcDbEntity
  8
LABELDIM
100
AcDbCircle
 10
71.04224532538762
 20
6.414784347278093
 30
0.0
 40
0.0650000000000013
  0
CIRCLE
  5
F7B6FDAF6BC6DE29
330
1063C03AE4E6B6F0
100
AcDbEntity
  8
LABELDIM
100
AcDbCircle
 10
71.23724532538763
 20
6.414784347278093
 30
0.0
 40
0.0650000000000013
  0
CIRCLE
  5
F7B6FDAF6BC6DE2A
330
1063C03AE4E6B6F0
100
AcDbEntity
  8
LABELDIM
100
AcDbCircle
 10
71.15224532538762
 20
6.145784347278093
 30
0.0
 40
0.0352634130856485
  0
LINE
  5
F7B6FDAF6BC6DEC3
330
1063C03AE4E6B6F0
100
AcDbEntity
  8
LABELDIM
100
AcDbLine
 10
76.68724532538764
 20
8.030000004188769
 30
0.0
 11
76.68724532538764
 21
4.325784347278088
 31
0.0
  0
LINE
  5
F7B6FDAF6BC6DEC4
330
1063C03AE4E6B6F0
100
AcDbEntity
  8
LABELDIM
100
AcDbLine
 10
76.38724532538764
 20
4.325784347278088
 30
0.0
 11
76.38724532538764
 21
8.030000004188769
 31
0.0
  0
LINE
  5
F7B6FDAF6BC6DEC5
330
1063C03AE4E6B6F0
100
AcDbEntity
  8
LABELDIM
100
AcDbLine
 10
76.66224532538763
 20
8.030000004188769
 30
0.0
 11
76.66224532538763
 21
4.325784347278088
 31
0.0
  0
CIRCLE
  5
F7B6FDAF6BC6DEC7
330
1063C03AE4E6B6F0
100
AcDbEntity
  8
LABELDIM
100
AcDbCircle
 10
76.53724532538763
 20
4.875784347278081
 30
0.0
 40
0.0610000000000106
  0
CIRCLE
  5
F7B6FDAF6BC6DEC8
330
1063C03AE4E6B6F0
100
AcDbEntity
  8
LABELDIM
100
AcDbCircle
 10
76.53724532538763
 20
4.475784347278104
 30
0.0
 40
0.0610000000000106
  0
LINE
  5
F7B6FDAF6BC6DEC9
330
1063C03AE4E6B6F0
100
AcDbEntity
  8
LABELDIM
100
AcDbLine
 10
76.68724532538764
 20
4.325784347278088
 30
0.0
 11
76.38724532538764
 21
4.325784347278088
 31
0.0
  0
ARC
  5
F7B6FDAF6BC6DECA
330
1063C03AE4E6B6F0
100
AcDbEntity
  8
LABELDIM
100
AcDbCircle
 10
76.68724532538764
 20
4.325784347278084
 30
0.0
 40
0.0025000000000013
100
AcDbArc
 50
270.0
 51
90.0
  0
ARC
  5
F7B6FDAF6BC6DECB
330
1063C03AE4E6B6F0
100
AcDbEntity
  8
LABELDIM
100
AcDbCircle
 10
76.68724532538764
 20
4.325784347278084
 30
0.0
 40
0.0025000000000013
100
AcDbArc
 50
90.0
 51
270.0
  0
ARC
  5
F7B6FDAF6BC6DECC
330
1063C03AE4E6B6F0
100
AcDbEntity
  8
LABELDIM
100
AcDbCircle
 10
76.66224532538763
 20
4.325784347278084
 30
0.0
 40
0.0025000000000013
100
AcDbArc
 50
270.0
 51
90.0
  0
ARC
  5
F7B6FDAF6BC6DECD
330
1063C03AE4E6B6F0
100
AcDbEntity
  8
LABELDIM
100
AcDbCircle
 10
76.66224532538763
 20
4.325784347278084
 30
0.0
 40
0.0025000000000013
100
AcDbArc
 50
90.0
 51
270.0
  0
ARC
  5
F7B6FDAF6BC6DECE
330
1063C03AE4E6B6F0
100
AcDbEntity
  8
LABELDIM
100
AcDbCircle
 10
76.38724532538763
 20
4.325784347278084
 30
0.0
 40
0.0025000000000013
100
AcDbArc
 50
270.0
 51
90.0
  0
ARC
  5
F7B6FDAF6BC6DECF
330
1063C03AE4E6B6F0
100
AcDbEntity
  8
LABELDIM
100
AcDbCircle
 10
76.38724532538763
 20
4.325784347278084
 30
0.0
 40
0.0025000000000013
100
AcDbArc
 50
90.0
 51
270.0
  0
ARC
  5
F7B6FDAF6BC6DED0
330
1063C03AE4E6B6F0
100
AcDbEntity
  8
LABELDIM
100
AcDbCircle
 10
76.38724532538763
 20
4.325784347278084
 30
0.0
 40
0.0025000000000013
100
AcDbArc
 50
270.0
 51
90.0
  0
ARC
  5
F7B6FDAF6BC6DED1
330
1063C03AE4E6B6F0
100
AcDbEntity
  8
LABELDIM
100
AcDbCircle
 10
76.38724532538763
 20
4.325784347278084
 30
0.0
 40
0.0025000000000013
100
AcDbArc
 50
90.0
 51
270.0
  0
LINE
  5
F7B6FDAF6BC6DED2
330
1063C03AE4E6B6F0
100
AcDbEntity
  8
LABELDIM
100
AcDbLine
 10
76.38724532538764
 20
4.325784347278088
 30
0.0
 11
76.38724532538764
 21
4.325784347278088
 31
0.0
  0
LINE
  5
F7B6FDAF6BC6DED3
330
1063C03AE4E6B6F0
100
AcDbEntity
  8
LABELDIM
100
AcDbLine
 10
76.47824532538763
 20
4.663784347278096
 30
0.0
 11
76.59724532538763
 21
4.663784347278096
 31
0.0
  0
LINE
  5
F7B6FDAF6BC6DED4
330
1063C03AE4E6B6F0
100
AcDbEntity
  8
LABELDIM
100
AcDbLine
 10
76.47824532538763
 20
4.687784347278097
 30
0.0
 11
76.59724532538763
 21
4.687784347278097
 31
0.0
  0
CIRCLE
  5
F7B6FDAF6BC6DED5
330
1063C03AE4E6B6F0
100
AcDbEntity
  8
LABELDIM
100
AcDbCircle
 10
76.53724532538763
 20
4.675784347278092
 30
0.0
 40
0.0610000000000106
  0
LINE
  5
F7B6FDAF6BC6DED6
330
1063C03AE4E6B6F0
100
AcDbEntity
  8
LABELDIM
100
AcDbLine
 10
76.47824532538763
 20
4.463784347278108
 30
0.0
 11
76.59724532538763
 21
4.463784347278108
 31
0.0
  0
LINE
  5
F7B6FDAF6BC6DED7
330
1063C03AE4E6B6F0
100
AcDbEntity
  8
LABELDIM
100
AcDbLine
 10
76.47824532538763
 20
4.487784347278108
 30
0.0
 11
76.59724532538763
 21
4.487784347278108
 31
0.0
  0
CIRCLE
  5
F7B6FDAF6BC6DED8
330
1063C03AE4E6B6F0
100
AcDbEntity
  8
LABELDIM
100
AcDbCircle
 10
76.53724532538763
 20
5.275784347278086
 30
0.0
 40
0.0610000000000106
  0
LINE
  5
F7B6FDAF6BC6DED9
330
1063C03AE4E6B6F0
100
AcDbEntity
  8
LABELDIM
100
AcDbLine
 10
76.47824532538763
 20
5.063784347278102
 30
0.0
 11
76.59724532538763
 21
5.063784347278102
 31
0.0
  0
LINE
  5
F7B6FDAF6BC6DEDA
330
1063C03AE4E6B6F0
100
AcDbEntity
  8
LABELDIM
100
AcDbLine
 10
76.47824532538763
 20
5.087784347278103
 30
0.0
 11
76.59724532538763
 21
5.087784347278103
 31
0.0
  0
CIRCLE
  5
F7B6FDAF6BC6DEDB
330
1063C03AE4E6B6F0
100
AcDbEntity
  8
LABELDIM
100
AcDbCircle
 10
76.53724532538763
 20
5.075784347278098
 30
0.0
 40
0.0610000000000106
  0
LINE
  5
F7B6FDAF6BC6DEDC
330
1063C03AE4E6B6F0
100
AcDbEntity
  8
LABELDIM
100
AcDbLine
 10
76.47824532538763
 20
4.863784347278099
 30
0.0
 11
76.59724532538763
 21
4.863784347278099
 31
0.0
  0
LINE
  5
F7B6FDAF6BC6DEDD
330
1063C03AE4E6B6F0
100
AcDbEntity
  8
LABELDIM
100
AcDbLine
 10
76.47824532538763
 20
4.8877843472781
 30
0.0
 11
76.59724532538763
 21
4.8877843472781
 31
0.0
  0
LINE
  5
F7B6FDAF6BC6DEDE
330
1063C03AE4E6B6F0
100
AcDbEntity
  8
LABELDIM
100
AcDbLine
 10
76.47824532538763
 20
5.463784347278108
 30
0.0
 11
76.59724532538763
 21
5.463784347278108
 31
0.0
  0
LINE
  5
F7B6FDAF6BC6DEDF
330
1063C03AE4E6B6F0
100
AcDbEntity
  8
LABELDIM
100
AcDbLine
 10
76.47824532538763
 20
5.487784347278108
 30
0.0
 11
76.59724532538763
 21
5.487784347278108
 31
0.0
  0
CIRCLE
  5
F7B6FDAF6BC6DEE0
330
1063C03AE4E6B6F0
100
AcDbEntity
  8
LABELDIM
100
AcDbCircle
 10
76.53724532538763
 20
5.475784347278075
 30
0.0
 40
0.0610000000000106
  0
LINE
  5
F7B6FDAF6BC6DEE1
330
1063C03AE4E6B6F0
100
AcDbEntity
  8
LABELDIM
100
AcDbLine
 10
76.47824532538763
 20
5.26378434727809
 30
0.0
 11
76.59724532538763
 21
5.26378434727809
 31
0.0
  0
LINE
  5
F7B6FDAF6BC6DEE2
330
1063C03AE4E6B6F0
100
AcDbEntity
  8
LABELDIM
100
AcDbLine
 10
76.47824532538763
 20
5.287784347278091
 30
0.0
 11
76.59724532538763
 21
5.287784347278091
 31
0.0
  0
CIRCLE
  5
F7B6FDAF6BC6DEE4
330
1063C03AE4E6B6F0
100
AcDbEntity
  8
LABELDIM
100
AcDbCircle
 10
76.53724532538763
 20
7.075784347278084
 30
0.0
 40
0.0610000000000106
  0
LINE
  5
F7B6FDAF6BC6DEE5
330
1063C03AE4E6B6F0
100
AcDbEntity
  8
LABELDIM
100
AcDbLine
 10
76.47824532538763
 20
5.663784347278096
 30
0.0
 11
76.59724532538763
 21
5.663784347278096
 31
0.0
  0
LINE
  5
F7B6FDAF6BC6DEE6
330
1063C03AE4E6B6F0
100
AcDbEntity
  8
LABELDIM
100
AcDbLine
 10
76.47824532538763
 20
5.687784347278097
 30
0.0
 11
76.59724532538763
 21
5.687784347278097
 31
0.0
  0
CIRCLE
  5
F7B6FDAF6BC6DEE7
330
1063C03AE4E6B6F0
100
AcDbEntity
  8
LABELDIM
100
AcDbCircle
 10
76.53724532538763
 20
5.675784347278092
 30
0.0
 40
0.0610000000000106
  0
LINE
  5
F7B6FDAF6BC6DEE8
330
1063C03AE4E6B6F0
100
AcDbEntity
  8
LABELDIM
100
AcDbLine
 10
76.47824532538763
 20
5.863784347278099
 30
0.0
 11
76.59724532538763
 21
5.863784347278099
 31
0.0
  0
LINE
  5
F7B6FDAF6BC6DEE9
330
1063C03AE4E6B6F0
100
AcDbEntity
  8
LABELDIM
100
AcDbLine
 10
76.47824532538763
 20
5.8877843472781
 30
0.0
 11
76.59724532538763
 21
5.8877843472781
 31
0.0
  0
CIRCLE
  5
F7B6FDAF6BC6DEEA
330
1063C03AE4E6B6F0
100
AcDbEntity
  8
LABELDIM
100
AcDbCircle
 10
76.53724532538763
 20
5.875784347278081
 30
0.0
 40
0.0610000000000106
  0
LINE
  5
F7B6FDAF6BC6DEEB
330
1063C03AE4E6B6F0
100
AcDbEntity
  8
LABELDIM
100
AcDbLine
 10
76.47824532538763
 20
6.063784347278102
 30
0.0
 11
76.59724532538763
 21
6.063784347278102
 31
0.0
  0
LINE
  5
F7B6FDAF6BC6DEEC
330
1063C03AE4E6B6F0
100
AcDbEntity
  8
LABELDIM
100
AcDbLine
 10
76.47824532538763
 20
6.087784347278103
 30
0.0
 11
76.59724532538763
 21
6.087784347278103
 31
0.0
  0
CIRCLE
  5
F7B6FDAF6BC6DEED
330
1063C03AE4E6B6F0
100
AcDbEntity
  8
LABELDIM
100
AcDbCircle
 10
76.53724532538763
 20
6.075784347278098
 30
0.0
 40
0.0610000000000106
  0
LINE
  5
F7B6FDAF6BC6DEEE
330
1063C03AE4E6B6F0
100
AcDbEntity
  8
LABELDIM
100
AcDbLine
 10
76.47824532538763
 20
6.26378434727809
 30
0.0
 11
76.59724532538763
 21
6.26378434727809
 31
0.0
  0
LINE
  5
F7B6FDAF6BC6DEEF
330
1063C03AE4E6B6F0
100
AcDbEntity
  8
LABELDIM
100
AcDbLine
 10
76.47824532538763
 20
6.287784347278091
 30
0.0
 11
76.59724532538763
 21
6.287784347278091
 31
0.0
  0
CIRCLE
  5
F7B6FDAF6BC6DEF0
330
1063C03AE4E6B6F0
100
AcDbEntity
  8
LABELDIM
100
AcDbCircle
 10
76.53724532538763
 20
6.275784347278086
 30
0.0
 40
0.0610000000000106
  0
CIRCLE
  5
F7B6FDAF6BC6DEF1
330
1063C03AE4E6B6F0
100
AcDbEntity
  8
LABELDIM
100
AcDbCircle
 10
76.53724532538763
 20
6.675784347278078
 30
0.0
 40
0.0610000000000106
  0
LINE
  5
F7B6FDAF6BC6DEF2
330
1063C03AE4E6B6F0
100
AcDbEntity
  8
LABELDIM
100
AcDbLine
 10
76.47824532538763
 20
6.463784347278108
 30
0.0
 11
76.59724532538763
 21
6.463784347278108
 31
0.0
  0
LINE
  5
F7B6FDAF6BC6DEF3
330
1063C03AE4E6B6F0
100
AcDbEntity
  8
LABELDIM
100
AcDbLine
 10
76.47824532538763
 20
6.487784347278108
 30
0.0
 11
76.59724532538763
 21
6.487784347278108
 31
0.0
  0
CIRCLE
  5
F7B6FDAF6BC6DEF4
330
1063C03AE4E6B6F0
100
AcDbEntity
  8
LABELDIM
100
AcDbCircle
 10
76.53724532538763
 20
6.475784347278075
 30
0.0
 40
0.0610000000000106
  0
LINE
  5
F7B6FDAF6BC6DEF5
330
1063C03AE4E6B6F0
100
AcDbEntity
  8
LABELDIM
100
AcDbLine
 10
76.47824532538763
 20
6.663784347278096
 30
0.0
 11
76.59724532538763
 21
6.663784347278096
 31
0.0
  0
LINE
  5
F7B6FDAF6BC6DEF6
330
1063C03AE4E6B6F0
100
AcDbEntity
  8
LABELDIM
100
AcDbLine
 10
76.47824532538763
 20
6.687784347278097
 30
0.0
 11
76.59724532538763
 21
6.687784347278097
 31
0.0
  0
LINE
  5
F7B6FDAF6BC6DEF7
330
1063C03AE4E6B6F0
100
AcDbEntity
  8
LABELDIM
100
AcDbLine
 10
76.47824532538763
 20
6.863784347278099
 30
0.0
 11
76.59724532538763
 21
6.863784347278099
 31
0.0
  0
LINE
  5
F7B6FDAF6BC6DEF8
330
1063C03AE4E6B6F0
100
AcDbEntity
  8
LABELDIM
100
AcDbLine
 10
76.47824532538763
 20
6.8877843472781
 30
0.0
 11
76.59724532538763
 21
6.8877843472781
 31
0.0
  0
CIRCLE
  5
F7B6FDAF6BC6DEF9
330
1063C03AE4E6B6F0
100
AcDbEntity
  8
LABELDIM
100
AcDbCircle
 10
76.53724532538763
 20
6.875784347278081
 30
0.0
 40
0.0610000000000106
  0
LINE
  5
F7B6FDAF6BC6DEFA
330
1063C03AE4E6B6F0
100
AcDbEntity
  8
LABELDIM
100
AcDbLine
 10
76.47824532538763
 20
7.063784347278102
 30
0.0
 11
76.59724532538763
 21
7.063784347278102
 31
0.0
  0
LINE
  5
F7B6FDAF6BC6DEFB
330
1063C03AE4E6B6F0
100
AcDbEntity
  8
LABELDIM
100
AcDbLine
 10
76.47824532538763
 20
7.087784347278103
 30
0.0
 11
76.59724532538763
 21
7.087784347278103
 31
0.0
  0
CIRCLE
  5
F7B6FDAF6BC6DEFC
330
1063C03AE4E6B6F0
100
AcDbEntity
  8
LABELDIM
100
AcDbCircle
 10
76.53724532538763
 20
7.875784347278081
 30
0.0
 40
0.0610000000000106
  0
CIRCLE
  5
F7B6FDAF6BC6DEFD
330
1063C03AE4E6B6F0
100
AcDbEntity
  8
LABELDIM
100
AcDbCircle
 10
76.53724532538763
 20
7.475784347278089
 30
0.0
 40
0.0610000000000106
  0
LINE
  5
F7B6FDAF6BC6DEFE
330
1063C03AE4E6B6F0
100
AcDbEntity
  8
LABELDIM
100
AcDbLine
 10
76.47824532538763
 20
7.26378434727809
 30
0.0
 11
76.59724532538763
 21
7.26378434727809
 31
0.0
  0
LINE
  5
F7B6FDAF6BC6DEFF
330
1063C03AE4E6B6F0
100
AcDbEntity
  8
LABELDIM
100
AcDbLine
 10
76.47824532538763
 20
7.287784347278091
 30
0.0
 11
76.59724532538763
 21
7.287784347278091
 31
0.0
  0
CIRCLE
  5
F7B6FDAF6BC6DF00
330
1063C03AE4E6B6F0
100
AcDbEntity
  8
LABELDIM
100
AcDbCircle
 10
76.53724532538763
 20
7.275784347278086
 30
0.0
 40
0.0610000000000106
  0
LINE
  5
F7B6FDAF6BC6DF01
330
1063C03AE4E6B6F0
100
AcDbEntity
  8
LABELDIM
100
AcDbLine
 10
76.47824532538763
 20
7.463784347278108
 30
0.0
 11
76.59724532538763
 21
7.463784347278108
 31
0.0
  0
LINE
  5
F7B6FDAF6BC6DF02
330
1063C03AE4E6B6F0
100
AcDbEntity
  8
LABELDIM
100
AcDbLine
 10
76.47824532538763
 20
7.663784347278096
 30
0.0
 11
76.59724532538763
 21
7.663784347278096
 31
0.0
  0
LINE
  5
F7B6FDAF6BC6DF03
330
1063C03AE4E6B6F0
100
AcDbEntity
  8
LABELDIM
100
AcDbLine
 10
76.47824532538763
 20
7.687784347278097
 30
0.0
 11
76.59724532538763
 21
7.687784347278097
 31
0.0
  0
CIRCLE
  5
F7B6FDAF6BC6DF04
330
1063C03AE4E6B6F0
100
AcDbEntity
  8
LABELDIM
100
AcDbCircle
 10
76.53724532538763
 20
7.675784347278078
 30
0.0
 40
0.0610000000000106
  0
LINE
  5
F7B6FDAF6BC6DF05
330
1063C03AE4E6B6F0
100
AcDbEntity
  8
LABELDIM
100
AcDbLine
 10
76.47824532538763
 20
7.487784347278108
 30
0.0
 11
76.59724532538763
 21
7.487784347278108
 31
0.0
  0
LINE
  5
F7B6FDAF6BC6DF0A
330
1063C03AE4E6B6F0
100
AcDbEntity
  8
LABELDIM
100
AcDbLine
 10
76.47824532538763
 20
7.863784347278099
 30
0.0
 11
76.59724532538763
 21
7.863784347278099
 31
0.0
  0
LINE
  5
F7B6FDAF6BC6DF0B
330
1063C03AE4E6B6F0
100
AcDbEntity
  8
LABELDIM
100
AcDbLine
 10
76.47824532538763
 20
7.8877843472781
 30
0.0
 11
76.59724532538763
 21
7.8877843472781
 31
0.0
  0
LINE
  5
F7B6FDAF6BC6DF0E
330
1063C03AE4E6B6F0
100
AcDbEntity
  8
LABELDIM
100
AcDbLine
 10
76.38724532538764
 20
8.030000004188769
 30
0.0
 11
76.68724532538764
 21
8.030000004188769
 31
0.0
  0
CIRCLE
  5
F7B6FDAF6BC6DF67
330
1063C03AE4E6B6F0
100
AcDbEntity
  8
LABELDIM
100
AcDbCircle
 10
76.53724532538763
 20
8.965784347278081
 30
0.0
 40
0.0610000000000106
  0
LINE
  5
F7B6FDAF6BC6DF68
330
1063C03AE4E6B6F0
100
AcDbEntity
  8
LABELDIM
100
AcDbLine
 10
76.68724532538764
 20
11.11600000418877
 30
0.0
 11
76.68724532538764
 21
8.415784347278089
 31
0.0
  0
LINE
  5
F7B6FDAF6BC6DF69
330
1063C03AE4E6B6F0
100
AcDbEntity
  8
LABELDIM
100
AcDbLine
 10
76.38724532538764
 20
8.415784347278089
 30
0.0
 11
76.38724532538764
 21
11.11600000418877
 31
0.0
  0
LINE
  5
F7B6FDAF6BC6DF6A
330
1063C03AE4E6B6F0
100
AcDbEntity
  8
LABELDIM
100
AcDbLine
 10
76.66224532538763
 20
11.11600000418877
 30
0.0
 11
76.66224532538763
 21
8.415784347278089
 31
0.0
  0
CIRCLE
  5
F7B6FDAF6BC6DF6B
330
1063C03AE4E6B6F0
100
AcDbEntity
  8
LABELDIM
100
AcDbCircle
 10
76.53724532538763
 20
8.565784347278103
 30
0.0
 40
0.0610000000000106
  0
LINE
  5
F7B6FDAF6BC6DF6C
330
1063C03AE4E6B6F0
100
AcDbEntity
  8
LABELDIM
100
AcDbLine
 10
76.68724532538764
 20
8.415784347278089
 30
0.0
 11
76.38724532538764
 21
8.415784347278089
 31
0.0
  0
LINE
  5
F7B6FDAF6BC6DF6D
330
1063C03AE4E6B6F0
100
AcDbEntity
  8
LABELDIM
100
AcDbLine
 10
76.47824532538763
 20
8.753784347278097
 30
0.0
 11
76.59724532538763
 21
8.753784347278097
 31
0.0
  0
LINE
  5
F7B6FDAF6BC6DF6E
330
1063C03AE4E6B6F0
100
AcDbEntity
  8
LABELDIM
100
AcDbLine
 10
76.47824532538763
 20
8.777784347278098
 30
0.0
 11
76.59724532538763
 21
8.777784347278098
 31
0.0
  0
CIRCLE
  5
F7B6FDAF6BC6DF6F
330
1063C03AE4E6B6F0
100
AcDbEntity
  8
LABELDIM
100
AcDbCircle
 10
76.53724532538763
 20
8.765784347278092
 30
0.0
 40
0.0610000000000106
  0
LINE
  5
F7B6FDAF6BC6DF70
330
1063C03AE4E6B6F0
100
AcDbEntity
  8
LABELDIM
100
AcDbLine
 10
76.47824532538763
 20
8.553784347278108
 30
0.0
 11
76.59724532538763
 21
8.553784347278108
 31
0.0
  0
LINE
  5
F7B6FDAF6BC6DF71
330
1063C03AE4E6B6F0
100
AcDbEntity
  8
LABELDIM
100
AcDbLine
 10
76.47824532538763
 20
8.577784347278109
 30
0.0
 11
76.59724532538763
 21
8.577784347278109
 31
0.0
  0
ARC
  5
F7B6FDAF6BC6DF72
330
1063C03AE4E6B6F0
100
AcDbEntity
  8
LABELDIM
100
AcDbCircle
 10
76.38724532538763
 20
8.415784347278083
 30
0.0
 40
0.0025000000000013
100
AcDbArc
 50
270.0
 51
90.0
  0
ARC
  5
F7B6FDAF6BC6DF73
330
1063C03AE4E6B6F0
100
AcDbEntity
  8
LABELDIM
100
AcDbCircle
 10
76.38724532538763
 20
8.415784347278083
 30
0.0
 40
0.0025000000000013
100
AcDbArc
 50
90.0
 51
270.0
  0
ARC
  5
F7B6FDAF6BC6DF74
330
1063C03AE4E6B6F0
100
AcDbEntity
  8
LABELDIM
100
AcDbCircle
 10
76.38724532538763
 20
8.415784347278083
 30
0.0
 40
0.0025000000000013
100
AcDbArc
 50
270.0
 51
90.0
  0
ARC
  5
F7B6FDAF6BC6DF75
330
1063C03AE4E6B6F0
100
AcDbEntity
  8
LABELDIM
100
AcDbCircle
 10
76.38724532538763
 20
8.415784347278083
 30
0.0
 40
0.0025000000000013
100
AcDbArc
 50
90.0
 51
270.0
  0
LINE
  5
F7B6FDAF6BC6DF76
330
1063C03AE4E6B6F0
100
AcDbEntity
  8
LABELDIM
100
AcDbLine
 10
76.38724532538764
 20
8.415784347278089
 30
0.0
 11
76.38724532538764
 21
8.415784347278089
 31
0.0
  0
ARC
  5
F7B6FDAF6BC6DF77
330
1063C03AE4E6B6F0
100
AcDbEntity
  8
LABELDIM
100
AcDbCircle
 10
76.68724532538764
 20
8.415784347278083
 30
0.0
 40
0.0025000000000013
100
AcDbArc
 50
270.0
 51
90.0
  0
ARC
  5
F7B6FDAF6BC6DF78
330
1063C03AE4E6B6F0
100
AcDbEntity
  8
LABELDIM
100
AcDbCircle
 10
76.68724532538764
 20
8.415784347278083
 30
0.0
 40
0.0025000000000013
100
AcDbArc
 50
90.0
 51
270.0
  0
ARC
  5
F7B6FDAF6BC6DF79
330
1063C03AE4E6B6F0
100
AcDbEntity
  8
LABELDIM
100
AcDbCircle
 10
76.66224532538763
 20
8.415784347278083
 30
0.0
 40
0.0025000000000013
100
AcDbArc
 50
270.0
 51
90.0
  0
ARC
  5
F7B6FDAF6BC6DF7A
330
1063C03AE4E6B6F0
100
AcDbEntity
  8
LABELDIM
100
AcDbCircle
 10
76.66224532538763
 20
8.415784347278083
 30
0.0
 40
0.0025000000000013
100
AcDbArc
 50
90.0
 51
270.0
  0
CIRCLE
  5
F7B6FDAF6BC6DF7B
330
1063C03AE4E6B6F0
100
AcDbEntity
  8
LABELDIM
100
AcDbCircle
 10
76.53724532538763
 20
9.365784347278086
 30
0.0
 40
0.0610000000000106
  0
LINE
  5
F7B6FDAF6BC6DF7C
330
1063C03AE4E6B6F0
100
AcDbEntity
  8
LABELDIM
100
AcDbLine
 10
76.47824532538763
 20
9.553784347278108
 30
0.0
 11
76.59724532538763
 21
9.553784347278108
 31
0.0
  0
LINE
  5
F7B6FDAF6BC6DF7D
330
1063C03AE4E6B6F0
100
AcDbEntity
  8
LABELDIM
100
AcDbLine
 10
76.47824532538763
 20
9.577784347278109
 30
0.0
 11
76.59724532538763
 21
9.577784347278109
 31
0.0
  0
CIRCLE
  5
F7B6FDAF6BC6DF7E
330
1063C03AE4E6B6F0
100
AcDbEntity
  8
LABELDIM
100
AcDbCircle
 10
76.53724532538763
 20
9.565784347278075
 30
0.0
 40
0.0610000000000106
  0
LINE
  5
F7B6FDAF6BC6DF7F
330
1063C03AE4E6B6F0
100
AcDbEntity
  8
LABELDIM
100
AcDbLine
 10
76.47824532538763
 20
9.353784347278091
 30
0.0
 11
76.59724532538763
 21
9.353784347278091
 31
0.0
  0
LINE
  5
F7B6FDAF6BC6DF80
330
1063C03AE4E6B6F0
100
AcDbEntity
  8
LABELDIM
100
AcDbLine
 10
76.47824532538763
 20
9.377784347278092
 30
0.0
 11
76.59724532538763
 21
9.377784347278092
 31
0.0
  0
LINE
  5
F7B6FDAF6BC6DF81
330
1063C03AE4E6B6F0
100
AcDbEntity
  8
LABELDIM
100
AcDbLine
 10
76.47824532538763
 20
9.753784347278097
 30
0.0
 11
76.59724532538763
 21
9.753784347278097
 31
0.0
  0
LINE
  5
F7B6FDAF6BC6DF82
330
1063C03AE4E6B6F0
100
AcDbEntity
  8
LABELDIM
100
AcDbLine
 10
76.47824532538763
 20
9.777784347278098
 30
0.0
 11
76.59724532538763
 21
9.777784347278098
 31
0.0
  0
CIRCLE
  5
F7B6FDAF6BC6DF83
330
1063C03AE4E6B6F0
100
AcDbEntity
  8
LABELDIM
100
AcDbCircle
 10
76.53724532538763
 20
9.765784347278092
 30
0.0
 40
0.0610000000000106
  0
LINE
  5
F7B6FDAF6BC6DF84
330
1063C03AE4E6B6F0
100
AcDbEntity
  8
LABELDIM
100
AcDbLine
 10
76.47824532538763
 20
9.9537843472781
 30
0.0
 11
76.59724532538763
 21
9.9537843472781
 31
0.0
  0
LINE
  5
F7B6FDAF6BC6DF85
330
1063C03AE4E6B6F0
100
AcDbEntity
  8
LABELDIM
100
AcDbLine
 10
76.47824532538763
 20
9.977784347278101
 30
0.0
 11
76.59724532538763
 21
9.977784347278101
 31
0.0
  0
CIRCLE
  5
F7B6FDAF6BC6DF86
330
1063C03AE4E6B6F0
100
AcDbEntity
  8
LABELDIM
100
AcDbCircle
 10
76.53724532538763
 20
9.965784347278081
 30
0.0
 40
0.0610000000000106
  0
LINE
  5
F7B6FDAF6BC6DF87
330
1063C03AE4E6B6F0
100
AcDbEntity
  8
LABELDIM
100
AcDbLine
 10
76.47824532538763
 20
10.1537843472781
 30
0.0
 11
76.59724532538763
 21
10.1537843472781
 31
0.0
  0
LINE
  5
F7B6FDAF6BC6DF88
330
1063C03AE4E6B6F0
100
AcDbEntity
  8
LABELDIM
100
AcDbLine
 10
76.47824532538763
 20
10.1777843472781
 30
0.0
 11
76.59724532538763
 21
10.1777843472781
 31
0.0
  0
CIRCLE
  5
F7B6FDAF6BC6DF89
330
1063C03AE4E6B6F0
100
AcDbEntity
  8
LABELDIM
100
AcDbCircle
 10
76.53724532538763
 20
10.16578434727809
 30
0.0
 40
0.0610000000000106
  0
LINE
  5
F7B6FDAF6BC6DF8A
330
1063C03AE4E6B6F0
100
AcDbEntity
  8
LABELDIM
100
AcDbLine
 10
76.47824532538763
 20
10.35378434727809
 30
0.0
 11
76.59724532538763
 21
10.35378434727809
 31
0.0
  0
LINE
  5
F7B6FDAF6BC6DF8B
330
1063C03AE4E6B6F0
100
AcDbEntity
  8
LABELDIM
100
AcDbLine
 10
76.47824532538763
 20
10.37778434727809
 30
0.0
 11
76.59724532538763
 21
10.37778434727809
 31
0.0
  0
CIRCLE
  5
F7B6FDAF6BC6DF8C
330
1063C03AE4E6B6F0
100
AcDbEntity
  8
LABELDIM
100
AcDbCircle
 10
76.53724532538763
 20
10.36578434727808
 30
0.0
 40
0.0610000000000106
  0
CIRCLE
  5
F7B6FDAF6BC6DF8D
330
1063C03AE4E6B6F0
100
AcDbEntity
  8
LABELDIM
100
AcDbCircle
 10
76.53724532538763
 20
10.76578434727807
 30
0.0
 40
0.0610000000000106
  0
LINE
  5
F7B6FDAF6BC6DF8E
330
1063C03AE4E6B6F0
100
AcDbEntity
  8
LABELDIM
100
AcDbLine
 10
76.47824532538763
 20
10.55378434727811
 30
0.0
 11
76.59724532538763
 21
10.55378434727811
 31
0.0
  0
LINE
  5
F7B6FDAF6BC6DF8F
330
1063C03AE4E6B6F0
100
AcDbEntity
  8
LABELDIM
100
AcDbLine
 10
76.47824532538763
 20
10.5777843472781
 30
0.0
 11
76.59724532538763
 21
10.5777843472781
 31
0.0
  0
CIRCLE
  5
F7B6FDAF6BC6DF90
330
1063C03AE4E6B6F0
100
AcDbEntity
  8
LABELDIM
100
AcDbCircle
 10
76.53724532538763
 20
10.56578434727807
 30
0.0
 40
0.0610000000000106
  0
LINE
  5
F7B6FDAF6BC6DF91
330
1063C03AE4E6B6F0
100
AcDbEntity
  8
LABELDIM
100
AcDbLine
 10
76.47824532538763
 20
10.75378434727809
 30
0.0
 11
76.59724532538763
 21
10.75378434727809
 31
0.0
  0
LINE
  5
F7B6FDAF6BC6DF92
330
1063C03AE4E6B6F0
100
AcDbEntity
  8
LABELDIM
100
AcDbLine
 10
76.47824532538763
 20
10.77778434727809
 30
0.0
 11
76.59724532538763
 21
10.77778434727809
 31
0.0
  0
LINE
  5
F7B6FDAF6BC6DF93
330
1063C03AE4E6B6F0
100
AcDbEntity
  8
LABELDIM
100
AcDbLine
 10
76.47824532538763
 20
9.153784347278103
 30
0.0
 11
76.59724532538763
 21
9.153784347278103
 31
0.0
  0
LINE
  5
F7B6FDAF6BC6DF94
330
1063C03AE4E6B6F0
100
AcDbEntity
  8
LABELDIM
100
AcDbLine
 10
76.47824532538763
 20
9.177784347278103
 30
0.0
 11
76.59724532538763
 21
9.177784347278103
 31
0.0
  0
CIRCLE
  5
F7B6FDAF6BC6DF95
330
1063C03AE4E6B6F0
100
AcDbEntity
  8
LABELDIM
100
AcDbCircle
 10
76.53724532538763
 20
9.165784347278098
 30
0.0
 40
0.0610000000000106
  0
LINE
  5
F7B6FDAF6BC6DF96
330
1063C03AE4E6B6F0
100
AcDbEntity
  8
LABELDIM
100
AcDbLine
 10
76.47824532538763
 20
8.9537843472781
 30
0.0
 11
76.59724532538763
 21
8.9537843472781
 31
0.0
  0
LINE
  5
F7B6FDAF6BC6DF97
330
1063C03AE4E6B6F0
100
AcDbEntity
  8
LABELDIM
100
AcDbLine
 10
76.47824532538763
 20
8.977784347278101
 30
0.0
 11
76.59724532538763
 21
8.977784347278101
 31
0.0
  0
LINE
  5
F7B6FDAF6BC6DFAB
330
1063C03AE4E6B6F0
100
AcDbEntity
  8
LABELDIM
100
AcDbLine
 10
76.38724532538764
 20
11.11600000418877
 30
0.0
 11
76.68724532538764
 21
11.11600000418877
 31
0.0
  0
LINE
  5
F7B6FDAF6BC6DFAC
330
1063C03AE4E6B6F0
100
AcDbEntity
  8
LABELDIM
100
AcDbLine
 10
76.47824532538763
 20
10.9537843472781
 30
0.0
 11
76.59724532538763
 21
10.9537843472781
 31
0.0
  0
LINE
  5
F7B6FDAF6BC6DFAD
330
1063C03AE4E6B6F0
100
AcDbEntity
  8
LABELDIM
100
AcDbLine
 10
76.47824532538763
 20
10.9777843472781
 30
0.0
 11
76.59724532538763
 21
10.9777843472781
 31
0.0
  0
CIRCLE
  5
F7B6FDAF6BC6DFAE
330
1063C03AE4E6B6F0
100
AcDbEntity
  8
LABELDIM
100
AcDbCircle
 10
76.53724532538763
 20
10.96578434727808
 30
0.0
 40
0.0610000000000106
  0
CIRCLE
  5
F7B6FDAF6BC6DFB7
330
1063C03AE4E6B6F0
100
AcDbEntity
  8
LABELDIM
100
AcDbCircle
 10
71.09724532538763
 20
5.81078434727811
 30
0.0
 40
0.0610000000000106
  0
LINE
  5
F7B6FDAF6BC6DFB8
330
1063C03AE4E6B6F0
100
AcDbEntity
  8
LABELDIM
100
AcDbLine
 10
70.94724532538762
 20
4.257000004188769
 30
0.0
 11
70.94724532538762
 21
5.963568690367431
 31
0.0
  0
LINE
  5
F7B6FDAF6BC6DFB9
330
1063C03AE4E6B6F0
100
AcDbEntity
  8
LABELDIM
100
AcDbLine
 10
71.24724532538762
 20
5.963568690367431
 30
0.0
 11
71.24724532538762
 21
4.257000004188769
 31
0.0
  0
LINE
  5
F7B6FDAF6BC6DFBA
330
1063C03AE4E6B6F0
100
AcDbEntity
  8
LABELDIM
100
AcDbLine
 10
70.97224532538763
 20
4.257000004188769
 30
0.0
 11
70.97224532538763
 21
5.963568690367431
 31
0.0
  0
LINE
  5
F7B6FDAF6BC6DFBC
330
1063C03AE4E6B6F0
100
AcDbEntity
  8
LABELDIM
100
AcDbLine
 10
70.94724532538762
 20
5.963568690367431
 30
0.0
 11
71.24724532538762
 21
5.963568690367431
 31
0.0
  0
CIRCLE
  5
F7B6FDAF6BC6DFCB
330
1063C03AE4E6B6F0
100
AcDbEntity
  8
LABELDIM
100
AcDbCircle
 10
71.09724532538763
 20
5.410784347278104
 30
0.0
 40
0.0610000000000106
  0
LINE
  5
F7B6FDAF6BC6DFCC
330
1063C03AE4E6B6F0
100
AcDbEntity
  8
LABELDIM
100
AcDbLine
 10
71.15624532538763
 20
5.222784347278084
 30
0.0
 11
71.03724532538763
 21
5.222784347278084
 31
0.0
  0
LINE
  5
F7B6FDAF6BC6DFCD
330
1063C03AE4E6B6F0
100
AcDbEntity
  8
LABELDIM
100
AcDbLine
 10
71.15624532538763
 20
5.198784347278083
 30
0.0
 11
71.03724532538763
 21
5.198784347278083
 31
0.0
  0
CIRCLE
  5
F7B6FDAF6BC6DFCE
330
1063C03AE4E6B6F0
100
AcDbEntity
  8
LABELDIM
100
AcDbCircle
 10
71.09724532538763
 20
5.210784347278115
 30
0.0
 40
0.0610000000000106
  0
LINE
  5
F7B6FDAF6BC6DFCF
330
1063C03AE4E6B6F0
100
AcDbEntity
  8
LABELDIM
100
AcDbLine
 10
71.15624532538763
 20
5.422784347278101
 30
0.0
 11
71.03724532538763
 21
5.422784347278101
 31
0.0
  0
LINE
  5
F7B6FDAF6BC6DFD0
330
1063C03AE4E6B6F0
100
AcDbEntity
  8
LABELDIM
100
AcDbLine
 10
71.15624532538763
 20
5.3987843472781
 30
0.0
 11
71.03724532538763
 21
5.3987843472781
 31
0.0
  0
LINE
  5
F7B6FDAF6BC6DFD1
330
1063C03AE4E6B6F0
100
AcDbEntity
  8
LABELDIM
100
AcDbLine
 10
71.15624532538763
 20
5.022784347278095
 30
0.0
 11
71.03724532538763
 21
5.022784347278095
 31
0.0
  0
LINE
  5
F7B6FDAF6BC6DFD2
330
1063C03AE4E6B6F0
100
AcDbEntity
  8
LABELDIM
100
AcDbLine
 10
71.15624532538763
 20
4.998784347278094
 30
0.0
 11
71.03724532538763
 21
4.998784347278094
 31
0.0
  0
CIRCLE
  5
F7B6FDAF6BC6DFD3
330
1063C03AE4E6B6F0
100
AcDbEntity
  8
LABELDIM
100
AcDbCircle
 10
71.09724532538763
 20
5.010784347278098
 30
0.0
 40
0.0610000000000106
  0
LINE
  5
F7B6FDAF6BC6DFD4
330
1063C03AE4E6B6F0
100
AcDbEntity
  8
LABELDIM
100
AcDbLine
 10
71.15624532538763
 20
4.822784347278092
 30
0.0
 11
71.03724532538763
 21
4.822784347278092
 31
0.0
  0
LINE
  5
F7B6FDAF6BC6DFD5
330
1063C03AE4E6B6F0
100
AcDbEntity
  8
LABELDIM
100
AcDbLine
 10
71.15624532538763
 20
4.798784347278091
 30
0.0
 11
71.03724532538763
 21
4.798784347278091
 31
0.0
  0
CIRCLE
  5
F7B6FDAF6BC6DFD6
330
1063C03AE4E6B6F0
100
AcDbEntity
  8
LABELDIM
100
AcDbCircle
 10
71.09724532538763
 20
4.81078434727811
 30
0.0
 40
0.0610000000000106
  0
LINE
  5
F7B6FDAF6BC6DFD7
330
1063C03AE4E6B6F0
100
AcDbEntity
  8
LABELDIM
100
AcDbLine
 10
71.15624532538763
 20
4.62278434727809
 30
0.0
 11
71.03724532538763
 21
4.62278434727809
 31
0.0
  0
LINE
  5
F7B6FDAF6BC6DFD8
330
1063C03AE4E6B6F0
100
AcDbEntity
  8
LABELDIM
100
AcDbLine
 10
71.15624532538763
 20
4.598784347278089
 30
0.0
 11
71.03724532538763
 21
4.598784347278089
 31
0.0
  0
CIRCLE
  5
F7B6FDAF6BC6DFD9
330
1063C03AE4E6B6F0
100
AcDbEntity
  8
LABELDIM
100
AcDbCircle
 10
71.09724532538763
 20
4.610784347278093
 30
0.0
 40
0.0610000000000106
  0
LINE
  5
F7B6FDAF6BC6DFDA
330
1063C03AE4E6B6F0
100
AcDbEntity
  8
LABELDIM
100
AcDbLine
 10
71.15624532538763
 20
4.422784347278101
 30
0.0
 11
71.03724532538763
 21
4.422784347278101
 31
0.0
  0
LINE
  5
F7B6FDAF6BC6DFDB
330
1063C03AE4E6B6F0
100
AcDbEntity
  8
LABELDIM
100
AcDbLine
 10
71.15624532538763
 20
4.3987843472781
 30
0.0
 11
71.03724532538763
 21
4.3987843472781
 31
0.0
  0
CIRCLE
  5
F7B6FDAF6BC6DFDC
330
1063C03AE4E6B6F0
100
AcDbEntity
  8
LABELDIM
100
AcDbCircle
 10
71.09724532538763
 20
4.410784347278104
 30
0.0
 40
0.0610000000000106
  0
LINE
  5
F7B6FDAF6BC6DFE3
330
1063C03AE4E6B6F0
100
AcDbEntity
  8
LABELDIM
100
AcDbLine
 10
71.15624532538763
 20
5.62278434727809
 30
0.0
 11
71.03724532538763
 21
5.62278434727809
 31
0.0
  0
LINE
  5
F7B6FDAF6BC6DFE4
330
1063C03AE4E6B6F0
100
AcDbEntity
  8
LABELDIM
100
AcDbLine
 10
71.15624532538763
 20
5.598784347278089
 30
0.0
 11
71.03724532538763
 21
5.598784347278089
 31
0.0
  0
CIRCLE
  5
F7B6FDAF6BC6DFE5
330
1063C03AE4E6B6F0
100
AcDbEntity
  8
LABELDIM
100
AcDbCircle
 10
71.09724532538763
 20
5.610784347278093
 30
0.0
 40
0.0610000000000106
  0
LINE
  5
F7B6FDAF6BC6DFE6
330
1063C03AE4E6B6F0
100
AcDbEntity
  8
LABELDIM
100
AcDbLine
 10
71.15624532538763
 20
5.822784347278092
 30
0.0
 11
71.03724532538763
 21
5.822784347278092
 31
0.0
  0
LINE
  5
F7B6FDAF6BC6DFE7
330
1063C03AE4E6B6F0
100
AcDbEntity
  8
LABELDIM
100
AcDbLine
 10
71.15624532538763
 20
5.798784347278091
 30
0.0
 11
71.03724532538763
 21
5.798784347278091
 31
0.0
  0
LINE
  5
F7B6FDAF6BC6DFFB
330
1063C03AE4E6B6F0
100
AcDbEntity
  8
LABELDIM
100
AcDbLine
 10
71.24724532538762
 20
4.257000004188769
 30
0.0
 11
70.94724532538762
 21
4.257000004188769
 31
0.0
  0
LINE
  5
F7B6FDAF6BC6E052
330
1063C03AE4E6B6F0
100
AcDbEntity
  8
LABELDIM
100
AcDbLine
 10
70.96724532538762
 20
6.660784347278109
 30
0.0
 11
70.96724532538762
 21
10.36356869036743
 31
0.0
  0
LINE
  5
F7B6FDAF6BC6E053
330
1063C03AE4E6B6F0
100
AcDbEntity
  8
LABELDIM
100
AcDbLine
 10
70.94224532538762
 20
6.660784347278109
 30
0.0
 11
70.94224532538762
 21
10.36356869036743
 31
0.0
  0
LINE
  5
F7B6FDAF6BC6E054
330
1063C03AE4E6B6F0
100
AcDbEntity
  8
LABELDIM
100
AcDbLine
 10
71.24224532538761
 20
10.36356869036743
 30
0.0
 11
71.24224532538761
 21
6.660784347278109
 31
0.0
  0
CIRCLE
  5
F7B6FDAF6BC6E055
330
1063C03AE4E6B6F0
100
AcDbEntity
  8
LABELDIM
100
AcDbCircle
 10
71.09224532538762
 20
8.410784347278113
 30
0.0
 40
0.0610000000000106
  0
LINE
  5
F7B6FDAF6BC6E056
330
1063C03AE4E6B6F0
100
AcDbEntity
  8
LABELDIM
100
AcDbLine
 10
71.15124532538762
 20
8.398784347278095
 30
0.0
 11
71.03224532538762
 21
8.398784347278095
 31
0.0
  0
LINE
  5
F7B6FDAF6BC6E057
330
1063C03AE4E6B6F0
100
AcDbEntity
  8
LABELDIM
100
AcDbLine
 10
71.15124532538762
 20
8.422784347278096
 30
0.0
 11
71.03224532538762
 21
8.422784347278096
 31
0.0
  0
ARC
  5
F7B6FDAF6BC6E058
330
1063C03AE4E6B6F0
100
AcDbEntity
  8
LABELDIM
100
AcDbCircle
 10
70.96724532538762
 20
6.660784347278099
 30
0.0
 40
0.0024999999999995
100
AcDbArc
 50
270.0
 51
90.0
  0
ARC
  5
F7B6FDAF6BC6E059
330
1063C03AE4E6B6F0
100
AcDbEntity
  8
LABELDIM
100
AcDbCircle
 10
70.96724532538762
 20
6.660784347278099
 30
0.0
 40
0.0024999999999995
100
AcDbArc
 50
90.0
 51
270.0
  0
ARC
  5
F7B6FDAF6BC6E05A
330
1063C03AE4E6B6F0
100
AcDbEntity
  8
LABELDIM
100
AcDbCircle
 10
70.94224532538762
 20
6.660784347278099
 30
0.0
 40
0.0024999999999995
100
AcDbArc
 50
270.0
 51
90.0
  0
ARC
  5
F7B6FDAF6BC6E05B
330
1063C03AE4E6B6F0
100
AcDbEntity
  8
LABELDIM
100
AcDbCircle
 10
70.94224532538762
 20
6.660784347278099
 30
0.0
 40
0.0024999999999995
100
AcDbArc
 50
90.0
 51
270.0
  0
ARC
  5
F7B6FDAF6BC6E05C
330
1063C03AE4E6B6F0
100
AcDbEntity
  8
LABELDIM
100
AcDbCircle
 10
71.24224532538763
 20
6.660784347278099
 30
0.0
 40
0.0024999999999995
100
AcDbArc
 50
270.0
 51
90.0
  0
ARC
  5
F7B6FDAF6BC6E05D
330
1063C03AE4E6B6F0
100
AcDbEntity
  8
LABELDIM
100
AcDbCircle
 10
71.24224532538763
 20
6.660784347278099
 30
0.0
 40
0.0024999999999995
100
AcDbArc
 50
90.0
 51
270.0
  0
CIRCLE
  5
F7B6FDAF6BC6E05E
330
1063C03AE4E6B6F0
100
AcDbEntity
  8
LABELDIM
100
AcDbCircle
 10
71.09224532538762
 20
8.010784347278107
 30
0.0
 40
0.0610000000000106
  0
LINE
  5
F7B6FDAF6BC6E05F
330
1063C03AE4E6B6F0
100
AcDbEntity
  8
LABELDIM
100
AcDbLine
 10
71.15124532538762
 20
8.02278434727809
 30
0.0
 11
71.03224532538762
 21
8.02278434727809
 31
0.0
  0
LINE
  5
F7B6FDAF6BC6E060
330
1063C03AE4E6B6F0
100
AcDbEntity
  8
LABELDIM
100
AcDbLine
 10
71.24224532538761
 20
6.660784347278109
 30
0.0
 11
70.94224532538762
 21
6.660784347278109
 31
0.0
  0
LINE
  5
F7B6FDAF6BC6E061
330
1063C03AE4E6B6F0
100
AcDbEntity
  8
LABELDIM
100
AcDbLine
 10
71.15124532538762
 20
6.7987843472781
 30
0.0
 11
71.03224532538762
 21
6.7987843472781
 31
0.0
  0
LINE
  5
F7B6FDAF6BC6E062
330
1063C03AE4E6B6F0
100
AcDbEntity
  8
LABELDIM
100
AcDbLine
 10
71.15124532538762
 20
6.822784347278101
 30
0.0
 11
71.03224532538762
 21
6.822784347278101
 31
0.0
  0
LINE
  5
F7B6FDAF6BC6E063
330
1063C03AE4E6B6F0
100
AcDbEntity
  8
LABELDIM
100
AcDbLine
 10
71.15124532538762
 20
7.198784347278092
 30
0.0
 11
71.03224532538762
 21
7.198784347278092
 31
0.0
  0
LINE
  5
F7B6FDAF6BC6E064
330
1063C03AE4E6B6F0
100
AcDbEntity
  8
LABELDIM
100
AcDbLine
 10
71.15124532538762
 20
7.222784347278093
 30
0.0
 11
71.03224532538762
 21
7.222784347278093
 31
0.0
  0
CIRCLE
  5
F7B6FDAF6BC6E065
330
1063C03AE4E6B6F0
100
AcDbEntity
  8
LABELDIM
100
AcDbCircle
 10
71.09224532538762
 20
7.010784347278107
 30
0.0
 40
0.0610000000000106
  0
LINE
  5
F7B6FDAF6BC6E066
330
1063C03AE4E6B6F0
100
AcDbEntity
  8
LABELDIM
100
AcDbLine
 10
71.15124532538762
 20
6.998784347278089
 30
0.0
 11
71.03224532538762
 21
6.998784347278089
 31
0.0
  0
LINE
  5
F7B6FDAF6BC6E067
330
1063C03AE4E6B6F0
100
AcDbEntity
  8
LABELDIM
100
AcDbLine
 10
71.15124532538762
 20
7.02278434727809
 30
0.0
 11
71.03224532538762
 21
7.02278434727809
 31
0.0
  0
CIRCLE
  5
F7B6FDAF6BC6E068
330
1063C03AE4E6B6F0
100
AcDbEntity
  8
LABELDIM
100
AcDbCircle
 10
71.09224532538762
 20
6.810784347278104
 30
0.0
 40
0.0610000000000106
  0
LINE
  5
F7B6FDAF6BC6E069
330
1063C03AE4E6B6F0
100
AcDbEntity
  8
LABELDIM
100
AcDbLine
 10
71.15124532538762
 20
7.598784347278083
 30
0.0
 11
71.03224532538762
 21
7.598784347278083
 31
0.0
  0
CIRCLE
  5
F7B6FDAF6BC6E06A
330
1063C03AE4E6B6F0
100
AcDbEntity
  8
LABELDIM
100
AcDbCircle
 10
71.09224532538762
 20
7.410784347278113
 30
0.0
 40
0.0610000000000106
  0
LINE
  5
F7B6FDAF6BC6E06B
330
1063C03AE4E6B6F0
100
AcDbEntity
  8
LABELDIM
100
AcDbLine
 10
71.15124532538762
 20
7.398784347278095
 30
0.0
 11
71.03224532538762
 21
7.398784347278095
 31
0.0
  0
LINE
  5
F7B6FDAF6BC6E06C
330
1063C03AE4E6B6F0
100
AcDbEntity
  8
LABELDIM
100
AcDbLine
 10
71.15124532538762
 20
7.422784347278096
 30
0.0
 11
71.03224532538762
 21
7.422784347278096
 31
0.0
  0
LINE
  5
F7B6FDAF6BC6E06D
330
1063C03AE4E6B6F0
100
AcDbEntity
  8
LABELDIM
100
AcDbLine
 10
71.15124532538762
 20
7.622784347278084
 30
0.0
 11
71.03224532538762
 21
7.622784347278084
 31
0.0
  0
CIRCLE
  5
F7B6FDAF6BC6E06E
330
1063C03AE4E6B6F0
100
AcDbEntity
  8
LABELDIM
100
AcDbCircle
 10
71.09224532538762
 20
7.810784347278104
 30
0.0
 40
0.0610000000000106
  0
LINE
  5
F7B6FDAF6BC6E06F
330
1063C03AE4E6B6F0
100
AcDbEntity
  8
LABELDIM
100
AcDbLine
 10
71.15124532538762
 20
7.7987843472781
 30
0.0
 11
71.03224532538762
 21
7.7987843472781
 31
0.0
  0
LINE
  5
F7B6FDAF6BC6E070
330
1063C03AE4E6B6F0
100
AcDbEntity
  8
LABELDIM
100
AcDbLine
 10
71.15124532538762
 20
7.822784347278101
 30
0.0
 11
71.03224532538762
 21
7.822784347278101
 31
0.0
  0
CIRCLE
  5
F7B6FDAF6BC6E071
330
1063C03AE4E6B6F0
100
AcDbEntity
  8
LABELDIM
100
AcDbCircle
 10
71.09224532538762
 20
7.610784347278102
 30
0.0
 40
0.0610000000000106
  0
CIRCLE
  5
F7B6FDAF6BC6E072
330
1063C03AE4E6B6F0
100
AcDbEntity
  8
LABELDIM
100
AcDbCircle
 10
71.09224532538762
 20
7.21078434727811
 30
0.0
 40
0.0610000000000106
  0
LINE
  5
F7B6FDAF6BC6E073
330
1063C03AE4E6B6F0
100
AcDbEntity
  8
LABELDIM
100
AcDbLine
 10
71.15124532538762
 20
7.998784347278089
 30
0.0
 11
71.03224532538762
 21
7.998784347278089
 31
0.0
  0
LINE
  5
F7B6FDAF6BC6E074
330
1063C03AE4E6B6F0
100
AcDbEntity
  8
LABELDIM
100
AcDbLine
 10
71.15124532538762
 20
8.198784347278092
 30
0.0
 11
71.03224532538762
 21
8.198784347278092
 31
0.0
  0
LINE
  5
F7B6FDAF6BC6E075
330
1063C03AE4E6B6F0
100
AcDbEntity
  8
LABELDIM
100
AcDbLine
 10
71.15124532538762
 20
8.222784347278093
 30
0.0
 11
71.03224532538762
 21
8.222784347278093
 31
0.0
  0
CIRCLE
  5
F7B6FDAF6BC6E076
330
1063C03AE4E6B6F0
100
AcDbEntity
  8
LABELDIM
100
AcDbCircle
 10
71.09224532538762
 20
8.21078434727811
 30
0.0
 40
0.0610000000000106
  0
LINE
  5
F7B6FDAF6BC6E077
330
1063C03AE4E6B6F0
100
AcDbEntity
  8
LABELDIM
100
AcDbLine
 10
70.94224532538762
 20
10.36356869036743
 30
0.0
 11
71.24224532538761
 21
10.36356869036743
 31
0.0
  0
CIRCLE
  5
F7B6FDAF6BC6E078
330
1063C03AE4E6B6F0
100
AcDbEntity
  8
LABELDIM
100
AcDbCircle
 10
71.09224532538762
 20
10.01078434727809
 30
0.0
 40
0.0610000000000106
  0
LINE
  5
F7B6FDAF6BC6E079
330
1063C03AE4E6B6F0
100
AcDbEntity
  8
LABELDIM
100
AcDbLine
 10
71.15124532538762
 20
9.998784347278089
 30
0.0
 11
71.03224532538762
 21
9.998784347278089
 31
0.0
  0
LINE
  5
F7B6FDAF6BC6E07A
330
1063C03AE4E6B6F0
100
AcDbEntity
  8
LABELDIM
100
AcDbLine
 10
71.15124532538762
 20
10.02278434727809
 30
0.0
 11
71.03224532538762
 21
10.02278434727809
 31
0.0
  0
CIRCLE
  5
F7B6FDAF6BC6E07B
330
1063C03AE4E6B6F0
100
AcDbEntity
  8
LABELDIM
100
AcDbCircle
 10
71.09224532538762
 20
8.610784347278116
 30
0.0
 40
0.0610000000000106
  0
LINE
  5
F7B6FDAF6BC6E07C
330
1063C03AE4E6B6F0
100
AcDbEntity
  8
LABELDIM
100
AcDbLine
 10
71.15124532538762
 20
8.598784347278083
 30
0.0
 11
71.03224532538762
 21
8.598784347278083
 31
0.0
  0
LINE
  5
F7B6FDAF6BC6E07D
330
1063C03AE4E6B6F0
100
AcDbEntity
  8
LABELDIM
100
AcDbLine
 10
71.15124532538762
 20
8.622784347278084
 30
0.0
 11
71.03224532538762
 21
8.622784347278084
 31
0.0
  0
CIRCLE
  5
F7B6FDAF6BC6E07E
330
1063C03AE4E6B6F0
100
AcDbEntity
  8
LABELDIM
100
AcDbCircle
 10
71.09224532538762
 20
8.810784347278104
 30
0.0
 40
0.0610000000000106
  0
LINE
  5
F7B6FDAF6BC6E07F
330
1063C03AE4E6B6F0
100
AcDbEntity
  8
LABELDIM
100
AcDbLine
 10
71.15124532538762
 20
8.7987843472781
 30
0.0
 11
71.03224532538762
 21
8.7987843472781
 31
0.0
  0
LINE
  5
F7B6FDAF6BC6E080
330
1063C03AE4E6B6F0
100
AcDbEntity
  8
LABELDIM
100
AcDbLine
 10
71.15124532538762
 20
8.822784347278101
 30
0.0
 11
71.03224532538762
 21
8.822784347278101
 31
0.0
  0
CIRCLE
  5
F7B6FDAF6BC6E081
330
1063C03AE4E6B6F0
100
AcDbEntity
  8
LABELDIM
100
AcDbCircle
 10
71.09224532538762
 20
9.010784347278093
 30
0.0
 40
0.0610000000000106
  0
LINE
  5
F7B6FDAF6BC6E082
330
1063C03AE4E6B6F0
100
AcDbEntity
  8
LABELDIM
100
AcDbLine
 10
71.15124532538762
 20
8.998784347278089
 30
0.0
 11
71.03224532538762
 21
8.998784347278089
 31
0.0
  0
LINE
  5
F7B6FDAF6BC6E083
330
1063C03AE4E6B6F0
100
AcDbEntity
  8
LABELDIM
100
AcDbLine
 10
71.15124532538762
 20
9.02278434727809
 30
0.0
 11
71.03224532538762
 21
9.02278434727809
 31
0.0
  0
CIRCLE
  5
F7B6FDAF6BC6E084
330
1063C03AE4E6B6F0
100
AcDbEntity
  8
LABELDIM
100
AcDbCircle
 10
71.09224532538762
 20
9.21078434727811
 30
0.0
 40
0.0610000000000106
  0
LINE
  5
F7B6FDAF6BC6E085
330
1063C03AE4E6B6F0
100
AcDbEntity
  8
LABELDIM
100
AcDbLine
 10
71.15124532538762
 20
9.198784347278092
 30
0.0
 11
71.03224532538762
 21
9.198784347278092
 31
0.0
  0
LINE
  5
F7B6FDAF6BC6E086
330
1063C03AE4E6B6F0
100
AcDbEntity
  8
LABELDIM
100
AcDbLine
 10
71.15124532538762
 20
9.222784347278093
 30
0.0
 11
71.03224532538762
 21
9.222784347278093
 31
0.0
  0
CIRCLE
  5
F7B6FDAF6BC6E087
330
1063C03AE4E6B6F0
100
AcDbEntity
  8
LABELDIM
100
AcDbCircle
 10
71.09224532538762
 20
9.410784347278099
 30
0.0
 40
0.0610000000000106
  0
LINE
  5
F7B6FDAF6BC6E088
330
1063C03AE4E6B6F0
100
AcDbEntity
  8
LABELDIM
100
AcDbLine
 10
71.15124532538762
 20
9.398784347278095
 30
0.0
 11
71.03224532538762
 21
9.398784347278095
 31
0.0
  0
LINE
  5
F7B6FDAF6BC6E089
330
1063C03AE4E6B6F0
100
AcDbEntity
  8
LABELDIM
100
AcDbLine
 10
71.15124532538762
 20
9.422784347278096
 30
0.0
 11
71.03224532538762
 21
9.422784347278096
 31
0.0
  0
LINE
  5
F7B6FDAF6BC6E08A
330
1063C03AE4E6B6F0
100
AcDbEntity
  8
LABELDIM
100
AcDbLine
 10
71.15124532538762
 20
9.7987843472781
 30
0.0
 11
71.03224532538762
 21
9.7987843472781
 31
0.0
  0
LINE
  5
F7B6FDAF6BC6E08B
330
1063C03AE4E6B6F0
100
AcDbEntity
  8
LABELDIM
100
AcDbLine
 10
71.15124532538762
 20
9.822784347278101
 30
0.0
 11
71.03224532538762
 21
9.822784347278101
 31
0.0
  0
CIRCLE
  5
F7B6FDAF6BC6E08C
330
1063C03AE4E6B6F0
100
AcDbEntity
  8
LABELDIM
100
AcDbCircle
 10
71.09224532538762
 20
9.610784347278116
 30
0.0
 40
0.0610000000000106
  0
LINE
  5
F7B6FDAF6BC6E08D
330
1063C03AE4E6B6F0
100
AcDbEntity
  8
LABELDIM
100
AcDbLine
 10
71.15124532538762
 20
9.598784347278083
 30
0.0
 11
71.03224532538762
 21
9.598784347278083
 31
0.0
  0
LINE
  5
F7B6FDAF6BC6E08E
330
1063C03AE4E6B6F0
100
AcDbEntity
  8
LABELDIM
100
AcDbLine
 10
71.15124532538762
 20
9.622784347278084
 30
0.0
 11
71.03224532538762
 21
9.622784347278084
 31
0.0
  0
CIRCLE
  5
F7B6FDAF6BC6E08F
330
1063C03AE4E6B6F0
100
AcDbEntity
  8
LABELDIM
100
AcDbCircle
 10
71.09224532538762
 20
9.810784347278104
 30
0.0
 40
0.0610000000000106
  0
CIRCLE
  5
F7B6FDAF6BC6E090
330
1063C03AE4E6B6F0
100
AcDbEntity
  8
LABELDIM
100
AcDbCircle
 10
71.09224532538762
 20
10.21078434727811
 30
0.0
 40
0.0610000000000106
  0
LINE
  5
F7B6FDAF6BC6E091
330
1063C03AE4E6B6F0
100
AcDbEntity
  8
LABELDIM
100
AcDbLine
 10
71.15124532538762
 20
10.19878434727809
 30
0.0
 11
71.03224532538762
 21
10.19878434727809
 31
0.0
  0
LINE
  5
F7B6FDAF6BC6E092
330
1063C03AE4E6B6F0
100
AcDbEntity
  8
LABELDIM
100
AcDbLine
 10
71.15124532538762
 20
10.22278434727809
 30
0.0
 11
71.03224532538762
 21
10.22278434727809
 31
0.0
  0
LINE
  5
F7B6FDAF6BC6E097
330
1063C03AE4E6B6F0
100
AcDbEntity
  8
LABELDIM
100
AcDbLine
 10
74.02350001455612
 20
11.2657843472781
 30
0.0
 11
73.51846098229831
 21
11.2657843472781
 31
0.0
  0
LINE
  5
F7B6FDAF6BC6E098
330
1063C03AE4E6B6F0
100
AcDbEntity
  8
LABELDIM
100
AcDbLine
 10
73.51846098229831
 20
11.56578434727809
 30
0.0
 11
74.02350001455612
 21
11.56578434727809
 31
0.0
  0
LINE
  5
F7B6FDAF6BC6E099
330
1063C03AE4E6B6F0
100
AcDbEntity
  8
LABELDIM
100
AcDbLine
 10
73.51846098229831
 20
11.54078434727809
 30
0.0
 11
74.02350001455612
 21
11.54078434727809
 31
0.0
  0
CIRCLE
  5
F7B6FDAF6BC6E09A
330
1063C03AE4E6B6F0
100
AcDbEntity
  8
LABELDIM
100
AcDbCircle
 10
73.67224532538763
 20
11.41578434727809
 30
0.0
 40
0.0610000000000106
  0
LINE
  5
F7B6FDAF6BC6E09B
330
1063C03AE4E6B6F0
100
AcDbEntity
  8
LABELDIM
100
AcDbLine
 10
73.66024532538763
 20
11.35678434727809
 30
0.0
 11
73.66024532538763
 21
11.47578434727809
 31
0.0
  0
LINE
  5
F7B6FDAF6BC6E09C
330
1063C03AE4E6B6F0
100
AcDbEntity
  8
LABELDIM
100
AcDbLine
 10
73.68424532538764
 20
11.35678434727809
 30
0.0
 11
73.68424532538764
 21
11.47578434727809
 31
0.0
  0
CIRCLE
  5
F7B6FDAF6BC6E09D
330
1063C03AE4E6B6F0
100
AcDbEntity
  8
LABELDIM
100
AcDbCircle
 10
73.87224532538763
 20
11.41578434727809
 30
0.0
 40
0.0610000000000106
  0
LINE
  5
F7B6FDAF6BC6E09E
330
1063C03AE4E6B6F0
100
AcDbEntity
  8
LABELDIM
100
AcDbLine
 10
73.86024532538762
 20
11.35678434727809
 30
0.0
 11
73.86024532538762
 21
11.47578434727809
 31
0.0
  0
LINE
  5
F7B6FDAF6BC6E09F
330
1063C03AE4E6B6F0
100
AcDbEntity
  8
LABELDIM
100
AcDbLine
 10
73.88424532538762
 20
11.35678434727809
 30
0.0
 11
73.88424532538762
 21
11.47578434727809
 31
0.0
  0
LINE
  5
F7B6FDAF6BC6E0A2
330
1063C03AE4E6B6F0
100
AcDbEntity
  8
LABELDIM
100
AcDbLine
 10
73.51846098229831
 20
11.2657843472781
 30
0.0
 11
73.51846098229831
 21
11.56578434727809
 31
0.0
  0
LINE
  5
F7B6FDAF6BC6E0A3
330
1063C03AE4E6B6F0
100
AcDbEntity
  8
LABELDIM
100
AcDbLine
 10
74.02350001455612
 20
11.56578434727809
 30
0.0
 11
74.02350001455612
 21
11.2657843472781
 31
0.0
  0
LINE
  5
F7B6FDAF6BC6E0CB
330
1063C03AE4E6B6F0
100
AcDbEntity
  8
COMP
100
AcDbLine
 10
71.02650001455612
 20
6.217000004188768
 30
0.0
 11
71.25550001455612
 21
6.217000004188768
 31
0.0
  0
LINE
  5
F7B6FDAF6BC6E0CC
330
1063C03AE4E6B6F0
100
AcDbEntity
  8
COMP
100
AcDbLine
 10
71.25550001455612
 20
6.217000004188768
 30
0.0
 11
71.25550001455612
 21
6.075000004188769
 31
0.0
  0
LINE
  5
F7B6FDAF6BC6E0CD
330
1063C03AE4E6B6F0
100
AcDbEntity
  8
COMP
100
AcDbLine
 10
71.25550001455612
 20
6.075000004188769
 30
0.0
 11
71.02650001455612
 21
6.075000004188769
 31
0.0
  0
LINE
  5
F7B6FDAF6BC6E0CE
330
1063C03AE4E6B6F0
100
AcDbEntity
  8
COMP
100
AcDbLine
 10
71.02650001455612
 20
6.075000004188769
 30
0.0
 11
71.02650001455612
 21
6.217000004188768
 31
0.0
  0
VIEWPORT
  5
F7B6FDAF6BC6DB7F
330
1063C03AE4E6B6EC
100
AcDbEntity
 67
     1
  8
0
100
AcDbViewport
 10
3.656988478783305
 20
3.116477934743085
 30
0.0
 40
5.962596398493419
 41
3.372977984381185
 68
     1
 69
     1
 12
3.656988478783305
 22
3.116477934743085
 13
0.0
 23
0.0
 14
0.5
 24
0.5
 15
0.5
 25
0.5
 16
0.0
 26
0.0
 36
1.0
 17
0.0
 27
0.0
 37
0.0
 42
50.0
 43
0.0
 44
0.0
 45
3.372977984381185
 50
0.0
 51
0.0
 72
   100
 90
    32800
  1

281
     0
 71
     1
 74
     0
110
0.0
120
0.0
130
0.0
111
1.0
121
0.0
131
0.0
112
0.0
122
1.0
132
0.0
 79
     0
146
0.0
  0
VIEWPORT
  5
F7B6FDAF6BC6DB81
330
1063C03AE4E6B6EC
100
AcDbEntity
 67
     1
  8
LABELDIM
100
AcDbViewport
 10
5.302083454732819
 20
4.052083191909189
 30
0.0
 40
8.483333527572511
 41
6.483333107054702
 68
     2
 69
     2
 12
78.48249532538765
 22
14.26853434727808
 13
0.0
 23
0.0
 14
0.001
 24
0.001
 15
0.001
 25
0.001
 16
0.0
 26
0.0
 36
1.0
 17
0.0
 27
0.0
 37
0.0
 42
50.0
 43
0.0
 44
0.0
 45
33.19316406250002
 50
0.0
 51
0.0
 72
   100
 90
    33536
  1

281
     0
 71
     1
 74
     0
110
76.46224532538763
120
4.030784347278092
130
0.0
111
1.0
121
0.0
131
0.0
112
0.0
122
1.0
132
0.0
 79
     0
146
0.0
  0
ENDSEC
  0
SECTION
  2
OBJECTS
  0
DICTIONARY
  5
1063C03AE4E6B6DE
330
0
100
AcDbDictionary
281
     1
  3
ACAD_GROUP
350
1063C03AE4E6B6DF
  3
ACAD_LAYOUT
350
1063C03AE4E6B6EB
  3
ACAD_MLINESTYLE
350
1063C03AE4E6B6E8
  3
ACAD_PLOTSETTINGS
350
1063C03AE4E6B6EA
  3
ACAD_PLOTSTYLENAME
350
1063C03AE4E6B6E0
  3
DWGPROPS
350
F7B6FDAF6BC6DBED
  0
DICTIONARY
  5
1063C03AE4E6B6DF
102
{ACAD_REACTORS
330
1063C03AE4E6B6DE
102
}
330
1063C03AE4E6B6DE
100
AcDbDictionary
281
     1
  0
DICTIONARY
  5
1063C03AE4E6B6EB
102
{ACAD_REACTORS
330
1063C03AE4E6B6DE
102
}
330
1063C03AE4E6B6DE
100
AcDbDictionary
281
     1
  3
Layout1
350
1063C03AE4E6B6EF
  3
Model
350
1063C03AE4E6B6F3
  0
DICTIONARY
  5
1063C03AE4E6B6E8
102
{ACAD_REACTORS
330
1063C03AE4E6B6DE
102
}
330
1063C03AE4E6B6DE
100
AcDbDictionary
281
     1
  3
Standard
350
1063C03AE4E6B6E9
  0
DICTIONARY
  5
1063C03AE4E6B6EA
102
{ACAD_REACTORS
330
1063C03AE4E6B6DE
102
}
330
1063C03AE4E6B6DE
100
AcDbDictionary
281
     1
  0
ACDBDICTIONARYWDFLT
  5
1063C03AE4E6B6E0
102
{ACAD_REACTORS
330
1063C03AE4E6B6DE
102
}
330
1063C03AE4E6B6DE
100
AcDbDictionary
281
     1
  3
Normal
350
1063C03AE4E6B6E1
100
AcDbDictionaryWithDefault
340
1063C03AE4E6B6E1
  0
XRECORD
  5
F7B6FDAF6BC6DBED
102
{ACAD_REACTORS
330
1063C03AE4E6B6DE
102
}
330
1063C03AE4E6B6DE
100
AcDbXrecord
280
     1
  1
DWGPROPS COOKIE
  2

  3

  4

  6

  7

  8
tphillipsmain
  9

300
=
301
=
302
=
303
=
304
=
305
=
306
=
307
=
308
=
309
=
 40
0.1535725694444444
 41
2453413.650077083
 42
2453578.658801331
  1

 90
        0
  0
LAYOUT
  5
1063C03AE4E6B6EF
102
{ACAD_REACTORS
330
1063C03AE4E6B6EB
102
}
330
1063C03AE4E6B6EB
100
AcDbPlotSettings
  1

  2
\\ENGPRINTSERV\QMS 2425 Eng Printer
  4
Letter
  6

 40
5.027083396911621
 41
5.027085304260253
 42
5.027084350585937
 43
5.027069091796875
 44
215.8999938964843
 45
279.3999938964843
 46
0.0
 47
0.0
 48
0.0
 49
0.0
140
0.0
141
0.0
142
1.0
143
1.0
 70
   688
 72
     0
 73
     1
 74
     5
  7

 75
    16
147
1.0
148
0.0
149
0.0
100
AcDbLayout
  1
Layout1
 70
     0
 71
     1
 10
-0.1979161059762549
 20
-0.1979166691697489
 11
10.80208365372785
 21
8.30208309053436
 12
0.0
 22
0.0
 32
0.0
 14
1.060416690946563
 24
0.810416638381838
 34
0.0
 15
9.543750218519075
 25
7.29374974543654
 35
0.0
146
0.0
 13
0.0
 23
0.0
 33
0.0
 16
1.0
 26
0.0
 36
0.0
 17
0.0
 27
1.0
 37
0.0
 76
     0
330
1063C03AE4E6B6EC
331
F7B6FDAF6BC6DB7F
  0
LAYOUT
  5
1063C03AE4E6B6F3
102
{ACAD_REACTORS
330
1063C03AE4E6B6EB
102
}
330
1063C03AE4E6B6EB
100
AcDbPlotSettings
  1

  2
\\ENGPRINTSERV\QMS 2425 Eng Printer
  4
Letter
  6

 40
5.027083396911621
 41
5.027085304260253
 42
5.027084350585937
 43
5.027069091796875
 44
215.8999938964843
 45
279.3999938964843
 46
0.0
 47
0.0
 48
0.0
 49
0.0
140
0.0
141
0.0
142
1.0
143
1.0
 70
 11952
 72
     0
 73
     1
 74
     0
  7

 75
     0
147
1.0
148
-1745.909967045378
149
72.42424179860363
100
AcDbLayout
  1
Model
 70
     1
 71
     0
 10
0.0
 20
0.0
 11
12.0
 21
9.0
 12
0.0
 22
0.0
 32
0.0
 14
0.0
 24
0.0
 34
0.0
 15
0.0
 25
0.0
 35
0.0
146
0.0
 13
0.0
 23
0.0
 33
0.0
 16
1.0
 26
0.0
 36
0.0
 17
0.0
 27
1.0
 37
0.0
 76
     0
330
1063C03AE4E6B6F0
  0
MLINESTYLE
  5
1063C03AE4E6B6E9
102
{ACAD_REACTORS
330
1063C03AE4E6B6E8
102
}
330
1063C03AE4E6B6E8
100
AcDbMlineStyle
  2
STANDARD
 70
     0
  3

 62
   256
 51
90.0
 52
90.0
 71
     2
 49
0.5
 62
   256
  6
BYLAYER
 49
-0.5
 62
   256
  6
BYLAYER
  0
ACDBPLACEHOLDER
  5
1063C03AE4E6B6E1
102
{ACAD_REACTORS
330
1063C03AE4E6B6E0
102
}
330
1063C03AE4E6B6E0
  0
ENDSEC
  0
EOF
