  0
SECTION
  2
HEADER
  9
$ACADVER
  1
AC1014
  9
$ACADMAINTVER
 70
     9
  9
$DWGCODEPAGE
  3
ANSI_1252
  9
$INSBASE
 10
0.0
 20
0.0
 30
0.0
  9
$EXTMIN
 10
22.33564868431088
 20
4.961271660328744
 30
-0.0015258207003583
  9
$EXTMAX
 10
29.38953061138683
 20
11.01350881592697
 30
0.0000000349246037
  9
$LIMMIN
 10
0.0
 20
0.0
  9
$LIMMAX
 10
12.0
 20
9.0
  9
$ORTHOMODE
 70
     1
  9
$REGENMODE
 70
     1
  9
$FILLMODE
 70
     1
  9
$QTEXTMODE
 70
     0
  9
$MIRRTEXT
 70
     1
  9
$DRAGMODE
 70
     2
  9
$LTSCALE
 40
0.1
  9
$OSMODE
 70
     0
  9
$ATTMODE
 70
     1
  9
$TEXTSIZE
 40
0.1
  9
$TRACEWID
 40
0.05
  9
$TEXTSTYLE
  7
BRUSHSCRIPT
  9
$CLAYER
  8
COMP
  9
$CELTYPE
  6
BYLAYER
  9
$CECOLOR
 62
   256
  9
$CELTSCALE
 40
1.0
  9
$DELOBJ
 70
     1
  9
$DISPSILH
 70
     0
  9
$DIMSCALE
 40
1.0
  9
$DIMASZ
 40
0.18
  9
$DIMEXO
 40
0.0625
  9
$DIMDLI
 40
0.38
  9
$DIMRND
 40
0.0
  9
$DIMDLE
 40
0.0
  9
$DIMEXE
 40
0.18
  9
$DIMTP
 40
0.0
  9
$DIMTM
 40
0.0
  9
$DIMTXT
 40
0.075
  9
$DIMCEN
 40
0.09
  9
$DIMTSZ
 40
0.0
  9
$DIMTOL
 70
     0
  9
$DIMLIM
 70
     0
  9
$DIMTIH
 70
     1
  9
$DIMTOH
 70
     1
  9
$DIMSE1
 70
     0
  9
$DIMSE2
 70
     0
  9
$DIMTAD
 70
     0
  9
$DIMZIN
 70
     0
  9
$DIMBLK
  1

  9
$DIMASO
 70
     1
  9
$DIMSHO
 70
     1
  9
$DIMPOST
  1

  9
$DIMAPOST
  1

  9
$DIMALT
 70
     0
  9
$DIMALTD
 70
     2
  9
$DIMALTF
 40
25.4
  9
$DIMLFAC
 40
1.0
  9
$DIMTOFL
 70
     0
  9
$DIMTVP
 40
0.0
  9
$DIMTIX
 70
     0
  9
$DIMSOXD
 70
     0
  9
$DIMSAH
 70
     0
  9
$DIMBLK1
  1

  9
$DIMBLK2
  1

  9
$DIMSTYLE
  2
STANDARD
  9
$DIMCLRD
 70
     0
  9
$DIMCLRE
 70
     0
  9
$DIMCLRT
 70
     0
  9
$DIMTFAC
 40
2.399999999999999
  9
$DIMGAP
 40
0.09
  9
$DIMJUST
 70
     0
  9
$DIMSD1
 70
     0
  9
$DIMSD2
 70
     0
  9
$DIMTOLJ
 70
     1
  9
$DIMTZIN
 70
     0
  9
$DIMALTZ
 70
     0
  9
$DIMALTTZ
 70
     0
  9
$DIMFIT
 70
     5
  9
$DIMUPT
 70
     0
  9
$DIMUNIT
 70
     2
  9
$DIMDEC
 70
     4
  9
$DIMTDEC
 70
     4
  9
$DIMALTU
 70
     2
  9
$DIMALTTD
 70
     2
  9
$DIMTXSTY
  7
STANDARD
  9
$DIMAUNIT
 70
     0
  9
$LUNITS
 70
     2
  9
$LUPREC
 70
     4
  9
$SKETCHINC
 40
0.1
  9
$FILLETRAD
 40
0.5
  9
$AUNITS
 70
     0
  9
$AUPREC
 70
     0
  9
$MENU
  1
acad
  9
$ELEVATION
 40
0.0
  9
$PELEVATION
 40
0.0
  9
$THICKNESS
 40
0.0
  9
$LIMCHECK
 70
     0
  9
$BLIPMODE
 70
     0
  9
$CHAMFERA
 40
0.5
  9
$CHAMFERB
 40
0.5
  9
$CHAMFERC
 40
0.0
  9
$CHAMFERD
 40
0.0
  9
$SKPOLY
 70
     0
  9
$TDCREATE
 40
2452671.661945139
  9
$TDUPDATE
 40
2453860.399001111
  9
$TDINDWG
 40
0.6012338194
  9
$TDUSRTIMER
 40
0.6012338194
  9
$USRTIMER
 70
     1
  9
$ANGBASE
 50
0.0
  9
$ANGDIR
 70
     0
  9
$PDMODE
 70
     0
  9
$PDSIZE
 40
0.0
  9
$PLINEWID
 40
0.02
  9
$COORDS
 70
     2
  9
$SPLFRAME
 70
     0
  9
$SPLINETYPE
 70
     6
  9
$SPLINESEGS
 70
     8
  9
$ATTDIA
 70
     0
  9
$ATTREQ
 70
     1
  9
$HANDLING
 70
-16383
  9
$HANDSEED
  5
8C7E77C8
  9
$SURFTAB1
 70
     6
  9
$SURFTAB2
 70
     6
  9
$SURFTYPE
 70
     6
  9
$SURFU
 70
     6
  9
$SURFV
 70
     6
  9
$UCSNAME
  2

  9
$UCSORG
 10
23.48774532538762
 20
5.512284347278097
 30
0.0
  9
$UCSXDIR
 10
1.0
 20
0.0
 30
0.0
  9
$UCSYDIR
 10
0.0
 20
1.0
 30
0.0
  9
$PUCSNAME
  2

  9
$PUCSORG
 10
0.0
 20
0.0
 30
0.0
  9
$PUCSXDIR
 10
1.0
 20
0.0
 30
0.0
  9
$PUCSYDIR
 10
0.0
 20
1.0
 30
0.0
  9
$USERI1
 70
     0
  9
$USERI2
 70
     0
  9
$USERI3
 70
     0
  9
$USERI4
 70
     0
  9
$USERI5
 70
     0
  9
$USERR1
 40
0.0
  9
$USERR2
 40
0.0
  9
$USERR3
 40
0.0
  9
$USERR4
 40
0.0
  9
$USERR5
 40
0.0
  9
$WORLDVIEW
 70
     1
  9
$SHADEDGE
 70
     3
  9
$SHADEDIF
 70
    70
  9
$TILEMODE
 70
     1
  9
$MAXACTVP
 70
    16
  9
$PINSBASE
 10
0.0
 20
0.0
 30
0.0
  9
$PLIMCHECK
 70
     0
  9
$PEXTMIN
 10
1.000000000000000E+20
 20
1.000000000000000E+20
 30
1.000000000000000E+20
  9
$PEXTMAX
 10
-1.000000000000000E+20
 20
-1.000000000000000E+20
 30
-1.000000000000000E+20
  9
$PLIMMIN
 10
0.0
 20
0.0
  9
$PLIMMAX
 10
12.0
 20
9.0
  9
$UNITMODE
 70
     0
  9
$VISRETAIN
 70
     0
  9
$PLINEGEN
 70
     0
  9
$PSLTSCALE
 70
     0
  9
$TREEDEPTH
 70
  3020
  9
$PICKSTYLE
 70
     1
  9
$CMLSTYLE
  2
STANDARD
  9
$CMLJUST
 70
     0
  9
$CMLSCALE
 40
1.0
  9
$PROXYGRAPHICS
 70
     1
  9
$MEASUREMENT
 70
     0
  0
ENDSEC
  0
SECTION
  2
CLASSES
  0
CLASS
  1
ACDBDICTIONARYWDFLT
  2
AcDbDictionaryWithDefault
  3
AutoCAD 2000
 90
        0
280
     0
281
     0
  0
CLASS
  1
ACDBPLACEHOLDER
  2
AcDbPlaceHolder
  3
AutoCAD 2000
 90
        0
280
     0
281
     0
  0
CLASS
  1
LAYOUT
  2
AcDbLayout
  3
AutoCAD 2000
 90
        0
280
     0
281
     0
  0
CLASS
  1
LONG_TRANSACTION
  2
AcDbLongTransaction
  3
AutoCAD 2000
 90
        0
280
     0
281
     0
  0
CLASS
  1
LWPOLYLINE
  2
AcDbPolyline
  3
AutoCAD 2000
 90
        0
280
     0
281
     1
  0
CLASS
  1
HATCH
  2
AcDbHatch
  3
AutoCAD 2000
 90
        0
280
     0
281
     1
  0
CLASS
  1
XRECORD
  2
AcDbXrecord
  3
AutoCAD 2000
 90
        0
280
     0
281
     0
  0
ENDSEC
  0
SECTION
  2
TABLES
  0
TABLE
  2
VPORT
  5
8C7E6E73
330
0
100
AcDbSymbolTable
 70
    14
  0
VPORT
  5
8C7E77A2
330
8C7E6E73
100
AcDbSymbolTableRecord
100
AcDbViewportTableRecord
  2
*ACTIVE
 70
     0
 10
0.0
 20
0.0
 11
1.0
 21
1.0
 12
25.50048840524362
 22
7.038155048878604
 13
0.0
 23
0.0
 14
0.001
 24
0.001
 15
0.001
 25
0.001
 16
0.0
 26
0.0
 36
1.0
 17
0.0
 27
0.0
 37
0.0
 40
8.491430265458232
 41
1.659459459459459
 42
50.0
 43
0.0
 44
0.0
 50
0.0
 51
0.0
 71
     0
 72
   100
 73
     1
 74
     0
 75
     1
 76
     1
 77
     0
 78
     0
  0
ENDTAB
  0
TABLE
  2
LTYPE
  5
8C7E6E70
330
0
100
AcDbSymbolTable
 70
     2
  0
LTYPE
  5
8C7E6E7E
330
8C7E6E70
100
AcDbSymbolTableRecord
100
AcDbLinetypeTableRecord
  2
BYBLOCK
 70
     0
  3

 72
    65
 73
     0
 40
0.0
  0
LTYPE
  5
8C7E6E7F
330
8C7E6E70
100
AcDbSymbolTableRecord
100
AcDbLinetypeTableRecord
  2
BYLAYER
 70
     0
  3

 72
    65
 73
     0
 40
0.0
  0
LTYPE
  5
8C7E6E80
330
8C7E6E70
100
AcDbSymbolTableRecord
100
AcDbLinetypeTableRecord
  2
CONTINUOUS
 70
     0
  3
Solid line
 72
    65
 73
     0
 40
0.0
  0
ENDTAB
  0
TABLE
  2
LAYER
  5
8C7E6E6D
330
0
100
AcDbSymbolTable
 70
     6
  0
LAYER
  5
8C7E6E7B
330
8C7E6E6D
100
AcDbSymbolTableRecord
100
AcDbLayerTableRecord
  2
0
 70
     0
 62
     7
  6
CONTINUOUS
  0
LAYER
  5
8C7E6E9E
330
8C7E6E6D
100
AcDbSymbolTableRecord
100
AcDbLayerTableRecord
  2
CASE
 70
     0
 62
     7
  6
CONTINUOUS
  0
LAYER
  5
8C7E6EA1
330
8C7E6E6D
100
AcDbSymbolTableRecord
100
AcDbLayerTableRecord
  2
LABEL
 70
     0
 62
     7
  6
CONTINUOUS
  0
LAYER
  5
8C7E6EA3
330
8C7E6E6D
100
AcDbSymbolTableRecord
100
AcDbLayerTableRecord
  2
COMP
 70
     0
 62
     7
  6
CONTINUOUS
  0
LAYER
  5
8C7E6EEB
330
8C7E6E6D
100
AcDbSymbolTableRecord
100
AcDbLayerTableRecord
  2
DEFPOINTS
 70
     0
 62
     7
  6
CONTINUOUS
  0
ENDTAB
  0
TABLE
  2
STYLE
  5
8C7E6E6E
330
0
100
AcDbSymbolTable
 70
     3
  0
STYLE
  5
8C7E6E7C
330
8C7E6E6E
100
AcDbSymbolTableRecord
100
AcDbTextStyleTableRecord
  2
STANDARD
 70
     0
 40
0.0
 41
1.0
 50
0.0
 71
     0
 42
0.1
  3
txt
  4

  0
STYLE
  5
8C7E6E99
330
8C7E6E6E
100
AcDbSymbolTableRecord
100
AcDbTextStyleTableRecord
  2
ADESK1
 70
     0
 40
0.0
 41
1.0
 50
0.0
 71
     0
 42
0.25
  3
romans
  4

  0
STYLE
  5
8C7E6E9A
330
8C7E6E6E
100
AcDbSymbolTableRecord
100
AcDbTextStyleTableRecord
  2
BRUSHSCRIPT
 70
     0
 40
0.1
 41
1.0
 50
0.0
 71
     0
 42
0.1
  3
brushscript.shx
  4

  0
ENDTAB
  0
TABLE
  2
VIEW
  5
8C7E6E71
330
0
100
AcDbSymbolTable
 70
     0
  0
ENDTAB
  0
TABLE
  2
UCS
  5
8C7E6E72
330
0
100
AcDbSymbolTable
 70
     0
  0
ENDTAB
  0
TABLE
  2
APPID
  5
8C7E6E74
330
0
100
AcDbSymbolTable
 70
     1
  0
APPID
  5
8C7E6E7D
330
8C7E6E74
100
AcDbSymbolTableRecord
100
AcDbRegAppTableRecord
  2
ACAD
 70
     0
  0
ENDTAB
  0
TABLE
  2
DIMSTYLE
  5
8C7E6E75
330
0
100
AcDbSymbolTable
 70
     1
  0
DIMSTYLE
105
8C7E6EAB
330
8C7E6E75
100
AcDbSymbolTableRecord
100
AcDbDimStyleTableRecord
  2
STANDARD
 70
     0
  3

  4

  5

  6

  7

 40
1.0
 41
0.18
 42
0.0625
 43
0.38
 44
0.18
 45
0.0
 46
0.0
 47
0.0
 48
0.0
140
0.18
141
0.09
142
0.0
143
25.4
144
1.0
145
0.0
146
1.0
147
0.09
 71
     0
 72
     0
 73
     1
 74
     1
 75
     0
 76
     0
 77
     0
 78
     0
170
     0
171
     2
172
     0
173
     0
174
     0
175
     0
176
     0
177
     0
178
     0
270
     2
271
     4
272
     4
273
     2
274
     2
340
8C7E6E7C
275
     0
280
     0
281
     0
282
     0
283
     1
284
     0
285
     0
286
     0
287
     3
288
     0
  0
ENDTAB
  0
TABLE
  2
BLOCK_RECORD
  5
8C7E6E6C
330
0
100
AcDbSymbolTable
 70
     7
  0
BLOCK_RECORD
  5
8C7E6E89
102
{ACAD_XDICTIONARY
360
8C7E77C6
102
}
330
8C7E6E6C
100
AcDbSymbolTableRecord
100
AcDbBlockTableRecord
  2
*MODEL_SPACE
  0
BLOCK_RECORD
  5
8C7E6E85
102
{ACAD_XDICTIONARY
360
8C7E77C4
102
}
330
8C7E6E6C
100
AcDbSymbolTableRecord
100
AcDbBlockTableRecord
  2
*PAPER_SPACE
  0
BLOCK_RECORD
  5
8C7E6E8D
330
8C7E6E6C
100
AcDbSymbolTableRecord
100
AcDbBlockTableRecord
  2
ACAD1C6F
  0
BLOCK_RECORD
  5
8C7E6E8E
330
8C7E6E6C
100
AcDbSymbolTableRecord
100
AcDbBlockTableRecord
  2
ACAD006E
  0
BLOCK_RECORD
  5
8C7E6E8F
330
8C7E6E6C
100
AcDbSymbolTableRecord
100
AcDbBlockTableRecord
  2
ACAD0312
  0
BLOCK_RECORD
  5
8C7E6E90
330
8C7E6E6C
100
AcDbSymbolTableRecord
100
AcDbBlockTableRecord
  2
ACAD0626
  0
BLOCK_RECORD
  5
8C7E754F
330
8C7E6E6C
100
AcDbSymbolTableRecord
100
AcDbBlockTableRecord
  2
A$C0A327B35
  0
ENDTAB
  0
ENDSEC
  0
SECTION
  2
BLOCKS
  0
BLOCK
  5
8C7E6EA6
330
8C7E6E89
100
AcDbEntity
  8
0
100
AcDbBlockBegin
  2
*MODEL_SPACE
 70
     0
 10
0.0
 20
0.0
 30
0.0
  3
*MODEL_SPACE
  1

  0
ENDBLK
  5
8C7E6EA7
330
8C7E6E89
100
AcDbEntity
  8
0
100
AcDbBlockEnd
  0
BLOCK
  5
8C7E6EA4
330
8C7E6E85
100
AcDbEntity
 67
     1
  8
0
100
AcDbBlockBegin
  2
*PAPER_SPACE
 70
     0
 10
0.0
 20
0.0
 30
0.0
  3
*PAPER_SPACE
  1

  0
ENDBLK
  5
8C7E6EA5
330
8C7E6E85
100
AcDbEntity
 67
     1
  8
0
100
AcDbBlockEnd
  0
BLOCK
  5
1
330
8C7E6E8D
100
AcDbEntity
  8
0
100
AcDbBlockBegin
  2
ACAD1C6F
 70
     0
 10
0.0
 20
0.0
 30
0.0
  3
ACAD1C6F
  1

  0
ARC
  5
2
330
8C7E6E8D
100
AcDbEntity
  8
CASE
100
AcDbCircle
 10
0.0
 20
0.0
 30
0.0
 40
0.1180000000000003
100
AcDbArc
 50
90.0
 51
270.0
  0
LINE
  5
3
330
8C7E6E8D
100
AcDbEntity
  8
CASE
100
AcDbLine
 10
0.0
 20
0.1180000000000005
 30
0.0
 11
0.2949999999999999
 21
0.1180000000000005
 31
0.0
  0
LINE
  5
4
330
8C7E6E8D
100
AcDbEntity
  8
CASE
100
AcDbLine
 10
0.0
 20
-0.1180000000000003
 30
0.0
 11
0.2949999999999999
 21
-0.1180000000000003
 31
0.0
  0
ARC
  5
5
330
8C7E6E8D
100
AcDbEntity
  8
CASE
100
AcDbCircle
 10
0.4501085714285705
 20
0.0000000000000013
 30
0.0
 40
0.1948914285714288
100
AcDbArc
 50
217.2623329576324
 51
142.7376670423683
  0
LINE
  5
6
330
8C7E6E8D
100
AcDbEntity
  8
CASE
100
AcDbLine
 10
0.0
 20
-0.1180000000000003
 30
0.0
 11
0.0
 21
-0.1180000000000003
 31
0.0
  0
LINE
  5
7
330
8C7E6E8D
100
AcDbEntity
  8
CASE
100
AcDbLine
 10
0.0
 20
0.1180000000000005
 30
0.0
 11
0.0
 21
0.1180000000000005
 31
0.0
  0
ENDBLK
  5
8
330
8C7E6E8D
100
AcDbEntity
  8
0
100
AcDbBlockEnd
  0
BLOCK
  5
9
330
8C7E6E8E
100
AcDbEntity
  8
0
100
AcDbBlockBegin
  2
ACAD006E
 70
     0
 10
0.0
 20
0.0
 30
0.0
  3
ACAD006E
  1

  0
ARC
  5
A
330
8C7E6E8E
100
AcDbEntity
  8
CASE
100
AcDbCircle
 10
0.0
 20
0.0
 30
0.0
 40
0.1180000000000003
100
AcDbArc
 50
90.0
 51
270.0
  0
LINE
  5
B
330
8C7E6E8E
100
AcDbEntity
  8
CASE
100
AcDbLine
 10
0.0
 20
0.1180000000000005
 30
0.0
 11
0.2949999999999999
 21
0.1180000000000005
 31
0.0
  0
LINE
  5
C
330
8C7E6E8E
100
AcDbEntity
  8
CASE
100
AcDbLine
 10
0.0
 20
-0.1180000000000003
 30
0.0
 11
0.2949999999999999
 21
-0.1180000000000003
 31
0.0
  0
ARC
  5
D
330
8C7E6E8E
100
AcDbEntity
  8
CASE
100
AcDbCircle
 10
0.4501085714285705
 20
0.0000000000000013
 30
0.0
 40
0.1948914285714288
100
AcDbArc
 50
217.2623329576324
 51
142.7376670423683
  0
LINE
  5
E
330
8C7E6E8E
100
AcDbEntity
  8
CASE
100
AcDbLine
 10
0.0
 20
-0.1180000000000003
 30
0.0
 11
0.0
 21
-0.1180000000000003
 31
0.0
  0
LINE
  5
F
330
8C7E6E8E
100
AcDbEntity
  8
CASE
100
AcDbLine
 10
0.0
 20
0.1180000000000005
 30
0.0
 11
0.0
 21
0.1180000000000005
 31
0.0
  0
ENDBLK
  5
10
330
8C7E6E8E
100
AcDbEntity
  8
0
100
AcDbBlockEnd
  0
BLOCK
  5
11
330
8C7E6E8F
100
AcDbEntity
  8
0
100
AcDbBlockBegin
  2
ACAD0312
 70
     0
 10
0.0
 20
0.0
 30
0.0
  3
ACAD0312
  1

  0
ARC
  5
12
330
8C7E6E8F
100
AcDbEntity
  8
CASE
100
AcDbCircle
 10
0.0
 20
0.0
 30
0.0
 40
0.1180000000000003
100
AcDbArc
 50
90.0
 51
270.0
  0
LINE
  5
13
330
8C7E6E8F
100
AcDbEntity
  8
CASE
100
AcDbLine
 10
0.0
 20
0.1180000000000005
 30
0.0
 11
0.2949999999999999
 21
0.1180000000000005
 31
0.0
  0
LINE
  5
14
330
8C7E6E8F
100
AcDbEntity
  8
CASE
100
AcDbLine
 10
0.0
 20
-0.1180000000000003
 30
0.0
 11
0.2949999999999999
 21
-0.1180000000000003
 31
0.0
  0
ARC
  5
15
330
8C7E6E8F
100
AcDbEntity
  8
CASE
100
AcDbCircle
 10
0.4501085714285705
 20
0.0000000000000013
 30
0.0
 40
0.1948914285714288
100
AcDbArc
 50
217.2623329576324
 51
142.7376670423683
  0
LINE
  5
16
330
8C7E6E8F
100
AcDbEntity
  8
CASE
100
AcDbLine
 10
0.0
 20
-0.1180000000000003
 30
0.0
 11
0.0
 21
-0.1180000000000003
 31
0.0
  0
LINE
  5
17
330
8C7E6E8F
100
AcDbEntity
  8
CASE
100
AcDbLine
 10
0.0
 20
0.1180000000000005
 30
0.0
 11
0.0
 21
0.1180000000000005
 31
0.0
  0
ENDBLK
  5
18
330
8C7E6E8F
100
AcDbEntity
  8
0
100
AcDbBlockEnd
  0
BLOCK
  5
19
330
8C7E6E90
100
AcDbEntity
  8
0
100
AcDbBlockBegin
  2
ACAD0626
 70
     0
 10
0.0
 20
0.0
 30
0.0
  3
ACAD0626
  1

  0
ARC
  5
1A
330
8C7E6E90
100
AcDbEntity
  8
CASE
100
AcDbCircle
 10
0.0
 20
0.0
 30
0.0
 40
0.1180000000000003
100
AcDbArc
 50
90.0
 51
270.0
  0
LINE
  5
1B
330
8C7E6E90
100
AcDbEntity
  8
CASE
100
AcDbLine
 10
0.0
 20
0.1180000000000005
 30
0.0
 11
0.2949999999999999
 21
0.1180000000000005
 31
0.0
  0
LINE
  5
1C
330
8C7E6E90
100
AcDbEntity
  8
CASE
100
AcDbLine
 10
0.0
 20
-0.1180000000000003
 30
0.0
 11
0.2949999999999999
 21
-0.1180000000000003
 31
0.0
  0
ARC
  5
1D
330
8C7E6E90
100
AcDbEntity
  8
CASE
100
AcDbCircle
 10
0.4501085714285705
 20
0.0000000000000013
 30
0.0
 40
0.1948914285714288
100
AcDbArc
 50
217.2623329576324
 51
142.7376670423683
  0
LINE
  5
1E
330
8C7E6E90
100
AcDbEntity
  8
CASE
100
AcDbLine
 10
0.0
 20
-0.1180000000000003
 30
0.0
 11
0.0
 21
-0.1180000000000003
 31
0.0
  0
LINE
  5
1F
330
8C7E6E90
100
AcDbEntity
  8
CASE
100
AcDbLine
 10
0.0
 20
0.1180000000000005
 30
0.0
 11
0.0
 21
0.1180000000000005
 31
0.0
  0
ENDBLK
  5
20
330
8C7E6E90
100
AcDbEntity
  8
0
100
AcDbBlockEnd
  0
BLOCK
  5
8C7E7555
330
8C7E754F
100
AcDbEntity
  8
0
100
AcDbBlockBegin
  2
A$C0A327B35
 70
     0
 10
0.0
 20
0.0
 30
0.0
  3
A$C0A327B35
  1

  0
LINE
  5
8C7E7550
330
8C7E754F
100
AcDbEntity
  8
LABEL
100
AcDbLine
 10
-24.04922359122785
 20
4.925425885004091
 30
0.0
 11
-24.07722359122785
 21
4.953425885004092
 31
0.0
  0
CIRCLE
  5
8C7E7551
330
8C7E754F
100
AcDbEntity
  8
LABEL
100
AcDbCircle
 10
-24.10522359122786
 20
4.981425885004092
 30
0.0
 40
0.0390000000000015
  0
LINE
  5
8C7E7552
330
8C7E754F
100
AcDbEntity
  8
LABEL
100
AcDbLine
 10
-24.04922359122785
 20
5.037425885004092
 30
0.0
 11
-24.07722359122785
 21
5.009425885004092
 31
0.0
  0
LINE
  5
8C7E7553
330
8C7E754F
100
AcDbEntity
  8
LABEL
100
AcDbLine
 10
-24.16122359122786
 20
5.037425885004092
 30
0.0
 11
-24.13322359122785
 21
5.009425885004092
 31
0.0
  0
LINE
  5
8C7E7554
330
8C7E754F
100
AcDbEntity
  8
LABEL
100
AcDbLine
 10
-24.16122359122786
 20
4.925425885004091
 30
0.0
 11
-24.13322359122785
 21
4.953425885004092
 31
0.0
  0
ENDBLK
  5
8C7E7556
330
8C7E754F
100
AcDbEntity
  8
0
100
AcDbBlockEnd
  0
ENDSEC
  0
SECTION
  2
ENTITIES
  0
LWPOLYLINE
  5
8C7E0B20
330
8C7E6E89
100
AcDbEntity
  8
COMP
100
AcDbPolyline
 90
        6
 70
     1
 43
0.01
 10
28.73774532538762
 20
5.522284347278094
 10
28.73774532538762
 20
5.112284347278094
 10
22.98774532538762
 20
5.112284347278094
 10
22.98774532538762
 20
10.93228434727809
 10
28.73774532538762
 20
10.93228434727809
 10
28.73774532538762
 20
5.522284347278094
  0
LWPOLYLINE
  5
8C7E0BC5
330
8C7E6E89
100
AcDbEntity
  8
COMP
100
AcDbPolyline
 90
        2
 70
     1
 43
0.005
 10
22.98774532538762
 20
5.114784347278094
 42
1.0
 10
22.98774532538762
 20
5.109784347278094
 42
1.0
  0
LWPOLYLINE
  5
8C7E0D14
330
8C7E6E89
100
AcDbEntity
  8
COMP
100
AcDbPolyline
 90
        2
 70
     1
 43
0.005
 10
27.12274532538762
 20
5.154784347278094
 42
1.0
 10
27.12274532538762
 20
5.149784347278094
 42
1.0
  0
LWPOLYLINE
  5
8C7E0D65
330
8C7E6E89
100
AcDbEntity
  8
COMP
100
AcDbPolyline
 90
        2
 70
     1
 43
0.005
 10
28.02274532538762
 20
5.154784347278094
 42
1.0
 10
28.02274532538762
 20
5.149784347278094
 42
1.0
  0
LWPOLYLINE
  5
8C7E0EFD
330
8C7E6E89
100
AcDbEntity
  8
COMP
100
AcDbPolyline
 90
        6
 70
     1
 43
0.01
 10
24.87674532538763
 20
5.179284347278096
 10
24.87674532538763
 20
5.499284347278096
 10
24.71674532538763
 20
5.499284347278096
 10
24.71674532538763
 20
5.129284347278091
 10
24.87674532538763
 20
5.129284347278091
 10
24.87674532538763
 20
5.179284347278096
  0
LWPOLYLINE
  5
8C7E0F05
330
8C7E6E89
100
AcDbEntity
  8
COMP
100
AcDbPolyline
 90
        2
 70
     1
 43
0.005
 10
24.87424532538762
 20
5.179284347278096
 42
1.0
 10
24.87924532538762
 20
5.179284347278096
 42
1.0
  0
LWPOLYLINE
  5
8C7E0F09
330
8C7E6E89
100
AcDbEntity
  8
COMP
100
AcDbPolyline
 90
        2
 70
     1
 43
0.005
 10
24.71424532538763
 20
5.129284347278091
 42
1.0
 10
24.71924532538762
 20
5.129284347278091
 42
1.0
  0
LWPOLYLINE
  5
8C7E0F0D
330
8C7E6E89
100
AcDbEntity
  8
COMP
100
AcDbPolyline
 90
        2
 70
     1
 43
0.005
 10
24.87424532538762
 20
5.129284347278091
 42
1.0
 10
24.87924532538762
 20
5.129284347278091
 42
1.0
  0
LWPOLYLINE
  5
8C7E0F11
330
8C7E6E89
100
AcDbEntity
  8
COMP
100
AcDbPolyline
 90
        2
 70
     1
 43
0.005
 10
24.87424532538762
 20
5.179284347278096
 42
1.0
 10
24.87924532538762
 20
5.179284347278096
 42
1.0
  0
LWPOLYLINE
  5
8C7E0F3A
330
8C7E6E89
100
AcDbEntity
  8
COMP
100
AcDbPolyline
 90
        2
 70
     1
 43
0.005
 10
24.87424532538762
 20
5.499284347278096
 42
1.0
 10
24.87924532538762
 20
5.499284347278096
 42
1.0
  0
LWPOLYLINE
  5
8C7E0F3E
330
8C7E6E89
100
AcDbEntity
  8
COMP
100
AcDbPolyline
 90
        2
 70
     1
 43
0.005
 10
24.71424532538763
 20
5.499284347278096
 42
1.0
 10
24.71924532538762
 20
5.499284347278096
 42
1.0
  0
LWPOLYLINE
  5
8C7E0F64
330
8C7E6E89
100
AcDbEntity
  8
COMP
100
AcDbPolyline
 90
        2
 70
     0
 43
0.01
 10
24.83074532538763
 20
5.314284347278094
 42
1.0
 10
24.76274532538762
 20
5.314284347278094
  0
LWPOLYLINE
  5
8C7E0F68
330
8C7E6E89
100
AcDbEntity
  8
COMP
100
AcDbPolyline
 90
        2
 70
     1
 43
0.005
 10
24.82824532538762
 20
5.314284347278094
 42
1.0
 10
24.83324532538762
 20
5.314284347278094
 42
1.0
  0
LWPOLYLINE
  5
8C7E0F6C
330
8C7E6E89
100
AcDbEntity
  8
COMP
100
AcDbPolyline
 90
        2
 70
     1
 43
0.005
 10
24.76024532538763
 20
5.314284347278094
 42
1.0
 10
24.76524532538762
 20
5.314284347278094
 42
1.0
  0
LWPOLYLINE
  5
8C7E0F70
330
8C7E6E89
100
AcDbEntity
  8
COMP
100
AcDbPolyline
 90
        2
 70
     0
 43
0.01
 10
24.76274532538762
 20
5.314284347278094
 42
1.0
 10
24.83074532538763
 20
5.314284347278094
  0
LWPOLYLINE
  5
8C7E0F74
330
8C7E6E89
100
AcDbEntity
  8
COMP
100
AcDbPolyline
 90
        2
 70
     1
 43
0.005
 10
24.76024532538763
 20
5.314284347278094
 42
1.0
 10
24.76524532538762
 20
5.314284347278094
 42
1.0
  0
LWPOLYLINE
  5
8C7E0F78
330
8C7E6E89
100
AcDbEntity
  8
COMP
100
AcDbPolyline
 90
        2
 70
     1
 43
0.005
 10
24.82824532538762
 20
5.314284347278094
 42
1.0
 10
24.83324532538762
 20
5.314284347278094
 42
1.0
  0
LWPOLYLINE
  5
8C7E51E4
330
8C7E6E89
100
AcDbEntity
  8
COMP
100
AcDbPolyline
 90
        2
 70
     1
 43
0.005
 10
27.12274532538762
 20
5.554784347278094
 42
1.0
 10
27.12274532538762
 20
5.549784347278094
 42
1.0
  0
LWPOLYLINE
  5
8C7E53C7
330
8C7E6E89
100
AcDbEntity
  8
COMP
100
AcDbPolyline
 90
        2
 70
     1
 43
0.005
 10
28.02274532538762
 20
5.554784347278094
 42
1.0
 10
28.02274532538762
 20
5.549784347278094
 42
1.0
  0
LWPOLYLINE
  5
8C7E6085
330
8C7E6E89
100
AcDbEntity
  8
COMP
100
AcDbPolyline
 90
        2
 70
     1
 43
0.005
 10
22.98774532538762
 20
10.86478434727809
 42
1.0
 10
22.98774532538762
 20
10.85978434727809
 42
1.0
  0
LWPOLYLINE
  5
8C7E60A1
330
8C7E6E89
100
AcDbEntity
  8
COMP
100
AcDbPolyline
 90
        2
 70
     1
 43
0.036
 10
24.88374532538762
 20
10.37928434727809
 42
1.0
 10
24.88374532538762
 20
10.34328434727809
 42
1.0
  0
LWPOLYLINE
  5
8C7E60B4
330
8C7E6E89
100
AcDbEntity
  8
COMP
100
AcDbPolyline
 90
        5
 70
     1
 43
0.01
 10
25.07474532538762
 20
9.645284347278094
 10
24.58074532538762
 20
9.645284347278094
 10
24.58074532538762
 20
10.85928434727809
 10
25.07474532538762
 20
10.85928434727809
 10
25.07474532538762
 20
9.645284347278094
  0
LWPOLYLINE
  5
8C7E633B
330
8C7E6E89
100
AcDbEntity
  8
COMP
100
AcDbPolyline
 90
        2
 70
     1
 43
0.005
 10
24.58074532538762
 20
9.647784347278093
 42
1.0
 10
24.58074532538762
 20
9.642784347278094
 42
1.0
  0
LWPOLYLINE
  5
8C7E636B
330
8C7E6E89
100
AcDbEntity
  8
COMP
100
AcDbPolyline
 90
        2
 70
     1
 43
0.005
 10
25.07474532538762
 20
9.647784347278093
 42
1.0
 10
25.07474532538762
 20
9.642784347278094
 42
1.0
  0
LWPOLYLINE
  5
8C7E636F
330
8C7E6E89
100
AcDbEntity
  8
COMP
100
AcDbPolyline
 90
        2
 70
     1
 43
0.005
 10
25.07474532538762
 20
9.647784347278093
 42
1.0
 10
25.07474532538762
 20
9.642784347278094
 42
1.0
  0
LWPOLYLINE
  5
8C7E6374
330
8C7E6E89
100
AcDbEntity
  8
COMP
100
AcDbPolyline
 90
        2
 70
     1
 43
0.085
 10
24.82474532538762
 20
9.802284347278094
 42
1.0
 10
24.82474532538762
 20
9.718284347278094
 42
1.0
  0
LWPOLYLINE
  5
8C7E63B1
330
8C7E6E89
100
AcDbEntity
  8
COMP
100
AcDbPolyline
 90
        2
 70
     1
 43
0.036
 10
24.88374532538762
 20
10.16128434727809
 42
1.0
 10
24.88374532538762
 20
10.12528434727809
 42
1.0
  0
LWPOLYLINE
  5
8C7E63B5
330
8C7E6E89
100
AcDbEntity
  8
COMP
100
AcDbPolyline
 90
        2
 70
     1
 43
0.036
 10
24.88374532538762
 20
10.27028434727809
 42
1.0
 10
24.88374532538762
 20
10.23428434727809
 42
1.0
  0
LWPOLYLINE
  5
8C7E63B9
330
8C7E6E89
100
AcDbEntity
  8
COMP
100
AcDbPolyline
 90
        2
 70
     1
 43
0.036
 10
24.88374532538762
 20
10.05228434727809
 42
1.0
 10
24.88374532538762
 20
10.01628434727809
 42
1.0
  0
LWPOLYLINE
  5
8C7E63BD
330
8C7E6E89
100
AcDbEntity
  8
COMP
100
AcDbPolyline
 90
        2
 70
     1
 43
0.036
 10
24.77174532538762
 20
10.10728434727809
 42
1.0
 10
24.77174532538762
 20
10.07128434727809
 42
1.0
  0
LWPOLYLINE
  5
8C7E63C1
330
8C7E6E89
100
AcDbEntity
  8
COMP
100
AcDbPolyline
 90
        2
 70
     1
 43
0.036
 10
24.77174532538762
 20
10.21628434727809
 42
1.0
 10
24.77174532538762
 20
10.18028434727809
 42
1.0
  0
LWPOLYLINE
  5
8C7E63C5
330
8C7E6E89
100
AcDbEntity
  8
COMP
100
AcDbPolyline
 90
        2
 70
     1
 43
0.036
 10
24.77174532538762
 20
10.32528434727809
 42
1.0
 10
24.77174532538762
 20
10.28928434727809
 42
1.0
  0
LWPOLYLINE
  5
8C7E6486
330
8C7E6E89
100
AcDbEntity
  8
COMP
100
AcDbPolyline
 90
        2
 70
     1
 43
0.005
 10
24.58074532538762
 20
10.86178434727809
 42
1.0
 10
24.58074532538762
 20
10.85678434727809
 42
1.0
  0
SOLID
  5
8C7E6495
330
8C7E6E89
100
AcDbEntity
  8
COMP
100
AcDbTrace
 10
24.84774532538762
 20
10.50628434727809
 30
0.0
 11
24.84774532538762
 21
10.43428434727809
 31
0.0
 12
24.91974532538762
 22
10.50628434727809
 32
0.0
 13
24.91974532538762
 23
10.43428434727809
 33
0.0
  0
LWPOLYLINE
  5
8C7E6496
330
8C7E6E89
100
AcDbEntity
  8
COMP
100
AcDbPolyline
 90
        2
 70
     1
 43
0.005
 10
25.07474532538762
 20
10.86178434727809
 42
1.0
 10
25.07474532538762
 20
10.85678434727809
 42
1.0
  0
LWPOLYLINE
  5
8C7E649A
330
8C7E6E89
100
AcDbEntity
  8
COMP
100
AcDbPolyline
 90
        2
 70
     1
 43
0.036
 10
24.77174532538762
 20
10.43428434727809
 42
1.0
 10
24.77174532538762
 20
10.39828434727809
 42
1.0
  0
LWPOLYLINE
  5
8C7E649E
330
8C7E6E89
100
AcDbEntity
  8
COMP
100
AcDbPolyline
 90
        2
 70
     1
 43
0.085
 10
24.82474532538762
 20
10.78628434727809
 42
1.0
 10
24.82474532538762
 20
10.70228434727809
 42
1.0
  0
LWPOLYLINE
  5
8C7E64BC
330
8C7E6E89
100
AcDbEntity
  8
COMP
100
AcDbPolyline
 90
        6
 70
     1
 43
0.001
 10
26.96774532538762
 20
10.90728434727809
 10
27.02774532538762
 20
10.90728434727809
 10
27.02774532538762
 20
10.19728434727809
 10
26.38774532538762
 20
10.19728434727809
 10
26.38774532538762
 20
10.90728434727809
 10
26.96774532538762
 20
10.90728434727809
  0
LWPOLYLINE
  5
8C7E64C4
330
8C7E6E89
100
AcDbEntity
  8
COMP
100
AcDbPolyline
 90
        2
 70
     0
 43
0.01
 10
26.28174532538762
 20
10.21028434727809
 42
1.0
 10
26.28174532538762
 20
10.37428434727809
  0
LWPOLYLINE
  5
8C7E64C8
330
8C7E6E89
100
AcDbEntity
  8
COMP
100
AcDbPolyline
 90
        2
 70
     1
 43
0.005
 10
26.28174532538762
 20
10.37678434727809
 42
1.0
 10
26.28174532538762
 20
10.37178434727809
 42
1.0
  0
LWPOLYLINE
  5
8C7E64CC
330
8C7E6E89
100
AcDbEntity
  8
COMP
100
AcDbPolyline
 90
        2
 70
     1
 43
0.005
 10
26.28174532538762
 20
10.37678434727809
 42
1.0
 10
26.28174532538762
 20
10.37178434727809
 42
1.0
  0
LWPOLYLINE
  5
8C7E64D9
330
8C7E6E89
100
AcDbEntity
  8
COMP
100
AcDbPolyline
 90
        2
 70
     0
 43
0.01
 10
26.28174532538762
 20
10.37428434727809
 42
1.0
 10
26.28174532538762
 20
10.21028434727809
  0
LWPOLYLINE
  5
8C7E64DD
330
8C7E6E89
100
AcDbEntity
  8
COMP
100
AcDbPolyline
 90
        2
 70
     1
 43
0.036
 10
25.56374532538762
 20
10.37928434727809
 42
1.0
 10
25.56374532538762
 20
10.34328434727809
 42
1.0
  0
LWPOLYLINE
  5
8C7E64E2
330
8C7E6E89
100
AcDbEntity
  8
COMP
100
AcDbPolyline
 90
        5
 70
     1
 43
0.01
 10
25.75474532538762
 20
9.645284347278094
 10
25.26074532538762
 20
9.645284347278094
 10
25.26074532538762
 20
10.85928434727809
 10
25.75474532538762
 20
10.85928434727809
 10
25.75474532538762
 20
9.645284347278094
  0
LWPOLYLINE
  5
8C7E6505
330
8C7E6E89
100
AcDbEntity
  8
COMP
100
AcDbPolyline
 90
        2
 70
     0
 43
0.01
 10
24.71874532538762
 20
9.594284347278094
 42
1.0
 10
24.71874532538762
 20
9.430284347278094
  0
LWPOLYLINE
  5
8C7E6520
330
8C7E6E89
100
AcDbEntity
  8
COMP
100
AcDbPolyline
 90
        2
 70
     1
 43
0.085
 10
25.50474532538762
 20
9.802284347278094
 42
1.0
 10
25.50474532538762
 20
9.718284347278094
 42
1.0
  0
LWPOLYLINE
  5
8C7E6554
330
8C7E6E89
100
AcDbEntity
  8
COMP
100
AcDbPolyline
 90
        2
 70
     1
 43
0.005
 10
25.26074532538762
 20
9.647784347278093
 42
1.0
 10
25.26074532538762
 20
9.642784347278094
 42
1.0
  0
LWPOLYLINE
  5
8C7E6582
330
8C7E6E89
100
AcDbEntity
  8
COMP
100
AcDbPolyline
 90
        2
 70
     1
 43
0.005
 10
25.75474532538762
 20
9.647784347278093
 42
1.0
 10
25.75474532538762
 20
9.642784347278094
 42
1.0
  0
LWPOLYLINE
  5
8C7E6586
330
8C7E6E89
100
AcDbEntity
  8
COMP
100
AcDbPolyline
 90
        2
 70
     1
 43
0.005
 10
25.75474532538762
 20
9.647784347278093
 42
1.0
 10
25.75474532538762
 20
9.642784347278094
 42
1.0
  0
LWPOLYLINE
  5
8C7E65B1
330
8C7E6E89
100
AcDbEntity
  8
COMP
100
AcDbPolyline
 90
        2
 70
     1
 43
0.036
 10
25.45174532538762
 20
10.10728434727809
 42
1.0
 10
25.45174532538762
 20
10.07128434727809
 42
1.0
  0
LWPOLYLINE
  5
8C7E65B5
330
8C7E6E89
100
AcDbEntity
  8
COMP
100
AcDbPolyline
 90
        2
 70
     1
 43
0.036
 10
25.45174532538762
 20
10.21628434727809
 42
1.0
 10
25.45174532538762
 20
10.18028434727809
 42
1.0
  0
LWPOLYLINE
  5
8C7E65B9
330
8C7E6E89
100
AcDbEntity
  8
COMP
100
AcDbPolyline
 90
        2
 70
     1
 43
0.036
 10
25.45174532538762
 20
10.32528434727809
 42
1.0
 10
25.45174532538762
 20
10.28928434727809
 42
1.0
  0
LWPOLYLINE
  5
8C7E65F0
330
8C7E6E89
100
AcDbEntity
  8
COMP
100
AcDbPolyline
 90
        2
 70
     1
 43
0.036
 10
25.56374532538762
 20
10.16128434727809
 42
1.0
 10
25.56374532538762
 20
10.12528434727809
 42
1.0
  0
LWPOLYLINE
  5
8C7E65F4
330
8C7E6E89
100
AcDbEntity
  8
COMP
100
AcDbPolyline
 90
        2
 70
     1
 43
0.036
 10
25.56374532538762
 20
10.27028434727809
 42
1.0
 10
25.56374532538762
 20
10.23428434727809
 42
1.0
  0
LWPOLYLINE
  5
8C7E65F8
330
8C7E6E89
100
AcDbEntity
  8
COMP
100
AcDbPolyline
 90
        2
 70
     1
 43
0.036
 10
25.56374532538762
 20
10.05228434727809
 42
1.0
 10
25.56374532538762
 20
10.01628434727809
 42
1.0
  0
LWPOLYLINE
  5
8C7E6692
330
8C7E6E89
100
AcDbEntity
  8
COMP
100
AcDbPolyline
 90
        2
 70
     0
 43
0.01
 10
24.71874532538762
 20
9.430284347278094
 42
1.0
 10
24.71874532538762
 20
9.594284347278094
  0
LWPOLYLINE
  5
8C7E675A
330
8C7E6E89
100
AcDbEntity
  8
COMP
100
AcDbPolyline
 90
        2
 70
     1
 43
0.005
 10
26.28174532538762
 20
10.21278434727809
 42
1.0
 10
26.28174532538762
 20
10.20778434727809
 42
1.0
  0
LWPOLYLINE
  5
8C7E675E
330
8C7E6E89
100
AcDbEntity
  8
COMP
100
AcDbPolyline
 90
        2
 70
     1
 43
0.005
 10
26.28174532538762
 20
10.21278434727809
 42
1.0
 10
26.28174532538762
 20
10.20778434727809
 42
1.0
  0
LWPOLYLINE
  5
8C7E680C
330
8C7E6E89
100
AcDbEntity
  8
COMP
100
AcDbPolyline
 90
        2
 70
     1
 43
0.0005
 10
26.38774532538762
 20
10.19748434727809
 42
1.0
 10
26.38774532538762
 20
10.19698434727809
 42
1.0
  0
LWPOLYLINE
  5
8C7E6836
330
8C7E6E89
100
AcDbEntity
  8
COMP
100
AcDbPolyline
 90
        2
 70
     1
 43
0.085
 10
25.50474532538762
 20
10.78628434727809
 42
1.0
 10
25.50474532538762
 20
10.70228434727809
 42
1.0
  0
LWPOLYLINE
  5
8C7E683A
330
8C7E6E89
100
AcDbEntity
  8
COMP
100
AcDbPolyline
 90
        2
 70
     1
 43
0.005
 10
25.26074532538762
 20
10.86178434727809
 42
1.0
 10
25.26074532538762
 20
10.85678434727809
 42
1.0
  0
LWPOLYLINE
  5
8C7E683F
330
8C7E6E89
100
AcDbEntity
  8
COMP
100
AcDbPolyline
 90
        2
 70
     1
 43
0.036
 10
25.45174532538762
 20
10.43428434727809
 42
1.0
 10
25.45174532538762
 20
10.39828434727809
 42
1.0
  0
LWPOLYLINE
  5
8C7E6850
330
8C7E6E89
100
AcDbEntity
  8
COMP
100
AcDbPolyline
 90
        2
 70
     1
 43
0.005
 10
25.75474532538762
 20
10.86178434727809
 42
1.0
 10
25.75474532538762
 20
10.85678434727809
 42
1.0
  0
SOLID
  5
8C7E6858
330
8C7E6E89
100
AcDbEntity
  8
COMP
100
AcDbTrace
 10
25.52774532538762
 20
10.50628434727809
 30
0.0
 11
25.52774532538762
 21
10.43428434727809
 31
0.0
 12
25.59974532538762
 22
10.50628434727809
 32
0.0
 13
25.59974532538762
 23
10.43428434727809
 33
0.0
  0
LWPOLYLINE
  5
8C7E6862
330
8C7E6E89
100
AcDbEntity
  8
COMP
100
AcDbPolyline
 90
        2
 70
     0
 43
0.01
 10
26.28174532538762
 20
10.39528434727809
 42
1.0
 10
26.28174532538762
 20
10.55928434727809
  0
LWPOLYLINE
  5
8C7E6866
330
8C7E6E89
100
AcDbEntity
  8
COMP
100
AcDbPolyline
 90
        2
 70
     1
 43
0.005
 10
26.28174532538762
 20
10.39778434727809
 42
1.0
 10
26.28174532538762
 20
10.39278434727809
 42
1.0
  0
LWPOLYLINE
  5
8C7E686A
330
8C7E6E89
100
AcDbEntity
  8
COMP
100
AcDbPolyline
 90
        2
 70
     1
 43
0.005
 10
26.28174532538762
 20
10.39778434727809
 42
1.0
 10
26.28174532538762
 20
10.39278434727809
 42
1.0
  0
LWPOLYLINE
  5
8C7E687E
330
8C7E6E89
100
AcDbEntity
  8
COMP
100
AcDbPolyline
 90
        2
 70
     1
 43
0.005
 10
26.28174532538762
 20
10.56178434727809
 42
1.0
 10
26.28174532538762
 20
10.55678434727809
 42
1.0
  0
LWPOLYLINE
  5
8C7E6882
330
8C7E6E89
100
AcDbEntity
  8
COMP
100
AcDbPolyline
 90
        2
 70
     1
 43
0.005
 10
26.28174532538762
 20
10.56178434727809
 42
1.0
 10
26.28174532538762
 20
10.55678434727809
 42
1.0
  0
LWPOLYLINE
  5
8C7E68A8
330
8C7E6E89
100
AcDbEntity
  8
COMP
100
AcDbPolyline
 90
        2
 70
     0
 43
0.01
 10
26.28174532538762
 20
10.55928434727809
 42
1.0
 10
26.28174532538762
 20
10.39528434727809
  0
LWPOLYLINE
  5
8C7E68BD
330
8C7E6E89
100
AcDbEntity
  8
COMP
100
AcDbPolyline
 90
        2
 70
     1
 43
0.0005
 10
26.38774532538762
 20
10.90748434727809
 42
1.0
 10
26.38774532538762
 20
10.90698434727809
 42
1.0
  0
LWPOLYLINE
  5
8C7E6975
330
8C7E6E89
100
AcDbEntity
  8
COMP
100
AcDbPolyline
 90
        2
 70
     1
 43
0.0005
 10
27.02774532538762
 20
10.19748434727809
 42
1.0
 10
27.02774532538762
 20
10.19698434727809
 42
1.0
  0
LWPOLYLINE
  5
8C7E69EA
330
8C7E6E89
100
AcDbEntity
  8
COMP
100
AcDbPolyline
 90
        2
 70
     1
 43
0.0005
 10
26.96774532538762
 20
10.90748434727809
 42
1.0
 10
26.96774532538762
 20
10.90698434727809
 42
1.0
  0
LWPOLYLINE
  5
8C7E69EE
330
8C7E6E89
100
AcDbEntity
  8
COMP
100
AcDbPolyline
 90
        2
 70
     1
 43
0.0005
 10
27.02774532538762
 20
10.90748434727809
 42
1.0
 10
27.02774532538762
 20
10.90698434727809
 42
1.0
  0
LWPOLYLINE
  5
8C7E69F2
330
8C7E6E89
100
AcDbEntity
  8
COMP
100
AcDbPolyline
 90
        2
 70
     1
 43
0.0005
 10
26.96774532538762
 20
10.90748434727809
 42
1.0
 10
26.96774532538762
 20
10.90698434727809
 42
1.0
  0
LWPOLYLINE
  5
8C7E6A12
330
8C7E6E89
100
AcDbEntity
  8
COMP
100
AcDbPolyline
 90
        2
 70
     1
 43
0.005
 10
28.73774532538762
 20
5.114784347278094
 42
1.0
 10
28.73774532538762
 20
5.109784347278094
 42
1.0
  0
LWPOLYLINE
  5
8C7E6A37
330
8C7E6E89
100
AcDbEntity
  8
COMP
100
AcDbPolyline
 90
        2
 70
     1
 43
0.005
 10
28.73774532538762
 20
5.524784347278094
 42
1.0
 10
28.73774532538762
 20
5.519784347278094
 42
1.0
  0
LWPOLYLINE
  5
8C7E6A3B
330
8C7E6E89
100
AcDbEntity
  8
COMP
100
AcDbPolyline
 90
        2
 70
     1
 43
0.005
 10
28.73774532538762
 20
5.524784347278094
 42
1.0
 10
28.73774532538762
 20
5.519784347278094
 42
1.0
  0
LWPOLYLINE
  5
8C7E6B36
330
8C7E6E89
100
AcDbEntity
  8
COMP
100
AcDbPolyline
 90
        2
 70
     1
 43
0.005
 10
28.73774532538762
 20
10.86478434727809
 42
1.0
 10
28.73774532538762
 20
10.85978434727809
 42
1.0
  0
LINE
  5
8C7E6DCD
330
8C7E6E89
100
AcDbEntity
  8
COMP
100
AcDbLine
 10
27.12274532538762
 20
5.177284347278094
 30
0.0
 11
27.12274532538762
 21
5.552284347278094
 31
0.0
  0
LINE
  5
8C7E6DCE
330
8C7E6E89
100
AcDbEntity
  8
COMP
100
AcDbLine
 10
27.12274532538762
 20
5.552284347278094
 30
0.0
 11
28.02274532538762
 21
5.552284347278094
 31
0.0
  0
LINE
  5
8C7E6DCF
330
8C7E6E89
100
AcDbEntity
  8
COMP
100
AcDbLine
 10
28.02274532538762
 20
5.552284347278094
 30
0.0
 11
28.02274532538762
 21
5.152284347278094
 31
0.0
  0
LINE
  5
8C7E6DD0
330
8C7E6E89
100
AcDbEntity
  8
COMP
100
AcDbLine
 10
28.02274532538762
 20
5.152284347278094
 30
0.0
 11
27.12274532538762
 21
5.152284347278094
 31
0.0
  0
LINE
  5
8C7E6DD1
330
8C7E6E89
100
AcDbEntity
  8
COMP
100
AcDbLine
 10
27.12274532538762
 20
5.152284347278094
 30
0.0
 11
27.12274532538762
 21
5.177284347278094
 31
0.0
  0
LINE
  5
8C7E6DD2
330
8C7E6E89
100
AcDbEntity
  8
COMP
100
AcDbLine
 10
27.12274532538762
 20
5.177284347278094
 30
0.0
 11
27.12274532538762
 21
5.177284347278094
 31
0.0
  0
LINE
  5
8C7E6DD3
330
8C7E6E89
100
AcDbEntity
  8
COMP
100
AcDbLine
 10
27.95574532538762
 20
5.285284347278092
 30
0.0
 11
27.95574532538762
 21
5.423284347278092
 31
0.0
  0
LINE
  5
8C7E6DD4
330
8C7E6E89
100
AcDbEntity
  8
COMP
100
AcDbLine
 10
27.89174532538762
 20
5.423284347278092
 30
0.0
 11
27.89174532538762
 21
5.285284347278092
 31
0.0
  0
LINE
  5
8C7E6DD5
330
8C7E6E89
100
AcDbEntity
  8
COMP
100
AcDbLine
 10
27.85574532538762
 20
5.285284347278092
 30
0.0
 11
27.85574532538762
 21
5.423284347278092
 31
0.0
  0
LINE
  5
8C7E6DD6
330
8C7E6E89
100
AcDbEntity
  8
COMP
100
AcDbLine
 10
27.79174532538762
 20
5.423284347278092
 30
0.0
 11
27.79174532538762
 21
5.285284347278092
 31
0.0
  0
LINE
  5
8C7E6DD7
330
8C7E6E89
100
AcDbEntity
  8
COMP
100
AcDbLine
 10
27.75574532538762
 20
5.285284347278092
 30
0.0
 11
27.75574532538762
 21
5.423284347278092
 31
0.0
  0
LINE
  5
8C7E6DD8
330
8C7E6E89
100
AcDbEntity
  8
COMP
100
AcDbLine
 10
27.69174532538762
 20
5.423284347278092
 30
0.0
 11
27.69174532538762
 21
5.285284347278092
 31
0.0
  0
LINE
  5
8C7E6DD9
330
8C7E6E89
100
AcDbEntity
  8
COMP
100
AcDbLine
 10
27.65574532538762
 20
5.285284347278092
 30
0.0
 11
27.65574532538762
 21
5.423284347278092
 31
0.0
  0
LINE
  5
8C7E6DDA
330
8C7E6E89
100
AcDbEntity
  8
COMP
100
AcDbLine
 10
27.59174532538762
 20
5.423284347278092
 30
0.0
 11
27.59174532538762
 21
5.285284347278092
 31
0.0
  0
LINE
  5
8C7E6DDB
330
8C7E6E89
100
AcDbEntity
  8
COMP
100
AcDbLine
 10
27.55574532538763
 20
5.285284347278092
 30
0.0
 11
27.55574532538763
 21
5.423284347278092
 31
0.0
  0
LINE
  5
8C7E6DDC
330
8C7E6E89
100
AcDbEntity
  8
COMP
100
AcDbLine
 10
27.49174532538763
 20
5.423284347278092
 30
0.0
 11
27.49174532538763
 21
5.285284347278092
 31
0.0
  0
LINE
  5
8C7E6DDD
330
8C7E6E89
100
AcDbEntity
  8
COMP
100
AcDbLine
 10
27.45574532538762
 20
5.285284347278092
 30
0.0
 11
27.45574532538762
 21
5.423284347278092
 31
0.0
  0
LINE
  5
8C7E6DDE
330
8C7E6E89
100
AcDbEntity
  8
COMP
100
AcDbLine
 10
27.39174532538763
 20
5.423284347278092
 30
0.0
 11
27.39174532538763
 21
5.285284347278092
 31
0.0
  0
LINE
  5
8C7E6DDF
330
8C7E6E89
100
AcDbEntity
  8
COMP
100
AcDbLine
 10
27.35574532538763
 20
5.285284347278092
 30
0.0
 11
27.35574532538763
 21
5.423284347278092
 31
0.0
  0
LINE
  5
8C7E6DE0
330
8C7E6E89
100
AcDbEntity
  8
COMP
100
AcDbLine
 10
27.29174532538762
 20
5.423284347278092
 30
0.0
 11
27.29174532538762
 21
5.285284347278092
 31
0.0
  0
LINE
  5
8C7E6DE1
330
8C7E6E89
100
AcDbEntity
  8
COMP
100
AcDbLine
 10
27.25574532538761
 20
5.285284347278092
 30
0.0
 11
27.25574532538761
 21
5.423284347278092
 31
0.0
  0
LINE
  5
8C7E6DE2
330
8C7E6E89
100
AcDbEntity
  8
COMP
100
AcDbLine
 10
27.19174532538762
 20
5.423284347278092
 30
0.0
 11
27.19174532538762
 21
5.285284347278092
 31
0.0
  0
LINE
  5
8C7E6DE3
330
8C7E6E89
100
AcDbEntity
  8
COMP
100
AcDbLine
 10
27.89174532538762
 20
5.285284347278092
 30
0.0
 11
27.95574532538762
 21
5.285284347278092
 31
0.0
  0
LINE
  5
8C7E6DE4
330
8C7E6E89
100
AcDbEntity
  8
COMP
100
AcDbLine
 10
27.19174532538762
 20
5.285284347278092
 30
0.0
 11
27.25574532538761
 21
5.285284347278092
 31
0.0
  0
LINE
  5
8C7E6DE5
330
8C7E6E89
100
AcDbEntity
  8
COMP
100
AcDbLine
 10
27.49174532538763
 20
5.285284347278092
 30
0.0
 11
27.55574532538763
 21
5.285284347278092
 31
0.0
  0
LINE
  5
8C7E6DE6
330
8C7E6E89
100
AcDbEntity
  8
COMP
100
AcDbLine
 10
27.39174532538763
 20
5.285284347278092
 30
0.0
 11
27.45574532538762
 21
5.285284347278092
 31
0.0
  0
LINE
  5
8C7E6DE7
330
8C7E6E89
100
AcDbEntity
  8
COMP
100
AcDbLine
 10
27.29174532538762
 20
5.285284347278092
 30
0.0
 11
27.35574532538763
 21
5.285284347278092
 31
0.0
  0
LINE
  5
8C7E6DE8
330
8C7E6E89
100
AcDbEntity
  8
COMP
100
AcDbLine
 10
27.79174532538762
 20
5.285284347278092
 30
0.0
 11
27.85574532538762
 21
5.285284347278092
 31
0.0
  0
LINE
  5
8C7E6DE9
330
8C7E6E89
100
AcDbEntity
  8
COMP
100
AcDbLine
 10
27.69174532538762
 20
5.285284347278092
 30
0.0
 11
27.75574532538762
 21
5.285284347278092
 31
0.0
  0
LINE
  5
8C7E6DEA
330
8C7E6E89
100
AcDbEntity
  8
COMP
100
AcDbLine
 10
27.59174532538762
 20
5.285284347278092
 30
0.0
 11
27.65574532538762
 21
5.285284347278092
 31
0.0
  0
LINE
  5
8C7E6DEB
330
8C7E6E89
100
AcDbEntity
  8
COMP
100
AcDbLine
 10
27.95574532538762
 20
5.423284347278092
 30
0.0
 11
27.89174532538762
 21
5.423284347278092
 31
0.0
  0
LINE
  5
8C7E6DEC
330
8C7E6E89
100
AcDbEntity
  8
COMP
100
AcDbLine
 10
27.90774532538762
 20
5.391284347278092
 30
0.0
 11
27.94074532538762
 21
5.391284347278092
 31
0.0
  0
LINE
  5
8C7E6DED
330
8C7E6E89
100
AcDbEntity
  8
COMP
100
AcDbLine
 10
27.94074532538762
 20
5.320284347278091
 30
0.0
 11
27.90774532538762
 21
5.320284347278091
 31
0.0
  0
LINE
  5
8C7E6DEE
330
8C7E6E89
100
AcDbEntity
  8
COMP
100
AcDbLine
 10
27.90774532538762
 20
5.346284347278092
 30
0.0
 11
27.94074532538762
 21
5.346284347278092
 31
0.0
  0
LINE
  5
8C7E6DEF
330
8C7E6E89
100
AcDbEntity
  8
COMP
100
AcDbLine
 10
27.90774532538762
 20
5.342284347278091
 30
0.0
 11
27.94074532538762
 21
5.342284347278091
 31
0.0
  0
LINE
  5
8C7E6DF0
330
8C7E6E89
100
AcDbEntity
  8
COMP
100
AcDbLine
 10
27.90774532538762
 20
5.338284347278092
 30
0.0
 11
27.94074532538762
 21
5.338284347278092
 31
0.0
  0
LINE
  5
8C7E6DF1
330
8C7E6E89
100
AcDbEntity
  8
COMP
100
AcDbLine
 10
27.90774532538762
 20
5.334284347278092
 30
0.0
 11
27.94074532538762
 21
5.334284347278092
 31
0.0
  0
LINE
  5
8C7E6DF2
330
8C7E6E89
100
AcDbEntity
  8
COMP
100
AcDbLine
 10
27.90774532538762
 20
5.330284347278092
 30
0.0
 11
27.94074532538762
 21
5.330284347278092
 31
0.0
  0
LINE
  5
8C7E6DF3
330
8C7E6E89
100
AcDbEntity
  8
COMP
100
AcDbLine
 10
27.90774532538762
 20
5.326284347278091
 30
0.0
 11
27.94074532538762
 21
5.326284347278091
 31
0.0
  0
LINE
  5
8C7E6DF4
330
8C7E6E89
100
AcDbEntity
  8
COMP
100
AcDbLine
 10
27.90774532538762
 20
5.323284347278091
 30
0.0
 11
27.94074532538762
 21
5.323284347278091
 31
0.0
  0
LINE
  5
8C7E6DF5
330
8C7E6E89
100
AcDbEntity
  8
COMP
100
AcDbLine
 10
27.20774532538762
 20
5.323284347278091
 30
0.0
 11
27.24074532538761
 21
5.323284347278091
 31
0.0
  0
LINE
  5
8C7E6DF6
330
8C7E6E89
100
AcDbEntity
  8
COMP
100
AcDbLine
 10
27.20774532538762
 20
5.326284347278091
 30
0.0
 11
27.24074532538761
 21
5.326284347278091
 31
0.0
  0
LINE
  5
8C7E6DF7
330
8C7E6E89
100
AcDbEntity
  8
COMP
100
AcDbLine
 10
27.20774532538762
 20
5.330284347278092
 30
0.0
 11
27.24074532538761
 21
5.330284347278092
 31
0.0
  0
LINE
  5
8C7E6DF8
330
8C7E6E89
100
AcDbEntity
  8
COMP
100
AcDbLine
 10
27.20774532538762
 20
5.334284347278092
 30
0.0
 11
27.24074532538761
 21
5.334284347278092
 31
0.0
  0
LINE
  5
8C7E6DF9
330
8C7E6E89
100
AcDbEntity
  8
COMP
100
AcDbLine
 10
27.20774532538762
 20
5.338284347278092
 30
0.0
 11
27.24074532538761
 21
5.338284347278092
 31
0.0
  0
LINE
  5
8C7E6DFA
330
8C7E6E89
100
AcDbEntity
  8
COMP
100
AcDbLine
 10
27.20774532538762
 20
5.342284347278091
 30
0.0
 11
27.24074532538761
 21
5.342284347278091
 31
0.0
  0
LINE
  5
8C7E6DFB
330
8C7E6E89
100
AcDbEntity
  8
COMP
100
AcDbLine
 10
27.20774532538762
 20
5.346284347278092
 30
0.0
 11
27.24074532538761
 21
5.346284347278092
 31
0.0
  0
LINE
  5
8C7E6DFC
330
8C7E6E89
100
AcDbEntity
  8
COMP
100
AcDbLine
 10
27.24074532538761
 20
5.320284347278091
 30
0.0
 11
27.20774532538762
 21
5.320284347278091
 31
0.0
  0
LINE
  5
8C7E6DFD
330
8C7E6E89
100
AcDbEntity
  8
COMP
100
AcDbLine
 10
27.20774532538762
 20
5.391284347278092
 30
0.0
 11
27.24074532538761
 21
5.391284347278092
 31
0.0
  0
LINE
  5
8C7E6DFE
330
8C7E6E89
100
AcDbEntity
  8
COMP
100
AcDbLine
 10
27.25574532538761
 20
5.423284347278092
 30
0.0
 11
27.19174532538762
 21
5.423284347278092
 31
0.0
  0
LINE
  5
8C7E6DFF
330
8C7E6E89
100
AcDbEntity
  8
COMP
100
AcDbLine
 10
27.20774532538762
 20
5.320284347278091
 30
0.0
 11
27.20774532538762
 21
5.391284347278092
 31
0.0
  0
LINE
  5
8C7E6E00
330
8C7E6E89
100
AcDbEntity
  8
COMP
100
AcDbLine
 10
27.54074532538762
 20
5.391284347278092
 30
0.0
 11
27.54074532538762
 21
5.320284347278091
 31
0.0
  0
LINE
  5
8C7E6E01
330
8C7E6E89
100
AcDbEntity
  8
COMP
100
AcDbLine
 10
27.50774532538763
 20
5.320284347278091
 30
0.0
 11
27.50774532538763
 21
5.391284347278092
 31
0.0
  0
LINE
  5
8C7E6E02
330
8C7E6E89
100
AcDbEntity
  8
COMP
100
AcDbLine
 10
27.55574532538763
 20
5.423284347278092
 30
0.0
 11
27.49174532538763
 21
5.423284347278092
 31
0.0
  0
LINE
  5
8C7E6E03
330
8C7E6E89
100
AcDbEntity
  8
COMP
100
AcDbLine
 10
27.50774532538763
 20
5.391284347278092
 30
0.0
 11
27.54074532538762
 21
5.391284347278092
 31
0.0
  0
LINE
  5
8C7E6E04
330
8C7E6E89
100
AcDbEntity
  8
COMP
100
AcDbLine
 10
27.54074532538762
 20
5.320284347278091
 30
0.0
 11
27.50774532538763
 21
5.320284347278091
 31
0.0
  0
LINE
  5
8C7E6E05
330
8C7E6E89
100
AcDbEntity
  8
COMP
100
AcDbLine
 10
27.50774532538763
 20
5.346284347278092
 30
0.0
 11
27.54074532538762
 21
5.346284347278092
 31
0.0
  0
LINE
  5
8C7E6E06
330
8C7E6E89
100
AcDbEntity
  8
COMP
100
AcDbLine
 10
27.50774532538763
 20
5.342284347278091
 30
0.0
 11
27.54074532538762
 21
5.342284347278091
 31
0.0
  0
LINE
  5
8C7E6E07
330
8C7E6E89
100
AcDbEntity
  8
COMP
100
AcDbLine
 10
27.50774532538763
 20
5.338284347278092
 30
0.0
 11
27.54074532538762
 21
5.338284347278092
 31
0.0
  0
LINE
  5
8C7E6E08
330
8C7E6E89
100
AcDbEntity
  8
COMP
100
AcDbLine
 10
27.50774532538763
 20
5.334284347278092
 30
0.0
 11
27.54074532538762
 21
5.334284347278092
 31
0.0
  0
LINE
  5
8C7E6E09
330
8C7E6E89
100
AcDbEntity
  8
COMP
100
AcDbLine
 10
27.50774532538763
 20
5.330284347278092
 30
0.0
 11
27.54074532538762
 21
5.330284347278092
 31
0.0
  0
LINE
  5
8C7E6E0A
330
8C7E6E89
100
AcDbEntity
  8
COMP
100
AcDbLine
 10
27.50774532538763
 20
5.326284347278091
 30
0.0
 11
27.54074532538762
 21
5.326284347278091
 31
0.0
  0
LINE
  5
8C7E6E0B
330
8C7E6E89
100
AcDbEntity
  8
COMP
100
AcDbLine
 10
27.50774532538763
 20
5.323284347278091
 30
0.0
 11
27.54074532538762
 21
5.323284347278091
 31
0.0
  0
LINE
  5
8C7E6E0C
330
8C7E6E89
100
AcDbEntity
  8
COMP
100
AcDbLine
 10
27.44074532538762
 20
5.391284347278092
 30
0.0
 11
27.44074532538762
 21
5.320284347278091
 31
0.0
  0
LINE
  5
8C7E6E0D
330
8C7E6E89
100
AcDbEntity
  8
COMP
100
AcDbLine
 10
27.40774532538762
 20
5.320284347278091
 30
0.0
 11
27.40774532538762
 21
5.391284347278092
 31
0.0
  0
LINE
  5
8C7E6E0E
330
8C7E6E89
100
AcDbEntity
  8
COMP
100
AcDbLine
 10
27.45574532538762
 20
5.423284347278092
 30
0.0
 11
27.39174532538763
 21
5.423284347278092
 31
0.0
  0
LINE
  5
8C7E6E0F
330
8C7E6E89
100
AcDbEntity
  8
COMP
100
AcDbLine
 10
27.40774532538762
 20
5.391284347278092
 30
0.0
 11
27.44074532538762
 21
5.391284347278092
 31
0.0
  0
LINE
  5
8C7E6E10
330
8C7E6E89
100
AcDbEntity
  8
COMP
100
AcDbLine
 10
27.44074532538762
 20
5.320284347278091
 30
0.0
 11
27.40774532538762
 21
5.320284347278091
 31
0.0
  0
LINE
  5
8C7E6E11
330
8C7E6E89
100
AcDbEntity
  8
COMP
100
AcDbLine
 10
27.40774532538762
 20
5.346284347278092
 30
0.0
 11
27.44074532538762
 21
5.346284347278092
 31
0.0
  0
LINE
  5
8C7E6E12
330
8C7E6E89
100
AcDbEntity
  8
COMP
100
AcDbLine
 10
27.40774532538762
 20
5.342284347278091
 30
0.0
 11
27.44074532538762
 21
5.342284347278091
 31
0.0
  0
LINE
  5
8C7E6E13
330
8C7E6E89
100
AcDbEntity
  8
COMP
100
AcDbLine
 10
27.40774532538762
 20
5.338284347278092
 30
0.0
 11
27.44074532538762
 21
5.338284347278092
 31
0.0
  0
LINE
  5
8C7E6E14
330
8C7E6E89
100
AcDbEntity
  8
COMP
100
AcDbLine
 10
27.40774532538762
 20
5.334284347278092
 30
0.0
 11
27.44074532538762
 21
5.334284347278092
 31
0.0
  0
LINE
  5
8C7E6E15
330
8C7E6E89
100
AcDbEntity
  8
COMP
100
AcDbLine
 10
27.40774532538762
 20
5.330284347278092
 30
0.0
 11
27.44074532538762
 21
5.330284347278092
 31
0.0
  0
LINE
  5
8C7E6E16
330
8C7E6E89
100
AcDbEntity
  8
COMP
100
AcDbLine
 10
27.40774532538762
 20
5.326284347278091
 30
0.0
 11
27.44074532538762
 21
5.326284347278091
 31
0.0
  0
LINE
  5
8C7E6E17
330
8C7E6E89
100
AcDbEntity
  8
COMP
100
AcDbLine
 10
27.40774532538762
 20
5.323284347278091
 30
0.0
 11
27.44074532538762
 21
5.323284347278091
 31
0.0
  0
LINE
  5
8C7E6E18
330
8C7E6E89
100
AcDbEntity
  8
COMP
100
AcDbLine
 10
27.34074532538762
 20
5.391284347278092
 30
0.0
 11
27.34074532538762
 21
5.320284347278091
 31
0.0
  0
LINE
  5
8C7E6E19
330
8C7E6E89
100
AcDbEntity
  8
COMP
100
AcDbLine
 10
27.30774532538762
 20
5.320284347278091
 30
0.0
 11
27.30774532538762
 21
5.391284347278092
 31
0.0
  0
LINE
  5
8C7E6E1A
330
8C7E6E89
100
AcDbEntity
  8
COMP
100
AcDbLine
 10
27.35574532538763
 20
5.423284347278092
 30
0.0
 11
27.29174532538762
 21
5.423284347278092
 31
0.0
  0
LINE
  5
8C7E6E1B
330
8C7E6E89
100
AcDbEntity
  8
COMP
100
AcDbLine
 10
27.30774532538762
 20
5.391284347278092
 30
0.0
 11
27.34074532538762
 21
5.391284347278092
 31
0.0
  0
LINE
  5
8C7E6E1C
330
8C7E6E89
100
AcDbEntity
  8
COMP
100
AcDbLine
 10
27.34074532538762
 20
5.320284347278091
 30
0.0
 11
27.30774532538762
 21
5.320284347278091
 31
0.0
  0
LINE
  5
8C7E6E1D
330
8C7E6E89
100
AcDbEntity
  8
COMP
100
AcDbLine
 10
27.30774532538762
 20
5.346284347278092
 30
0.0
 11
27.34074532538762
 21
5.346284347278092
 31
0.0
  0
LINE
  5
8C7E6E1E
330
8C7E6E89
100
AcDbEntity
  8
COMP
100
AcDbLine
 10
27.30774532538762
 20
5.342284347278091
 30
0.0
 11
27.34074532538762
 21
5.342284347278091
 31
0.0
  0
LINE
  5
8C7E6E1F
330
8C7E6E89
100
AcDbEntity
  8
COMP
100
AcDbLine
 10
27.30774532538762
 20
5.338284347278092
 30
0.0
 11
27.34074532538762
 21
5.338284347278092
 31
0.0
  0
LINE
  5
8C7E6E20
330
8C7E6E89
100
AcDbEntity
  8
COMP
100
AcDbLine
 10
27.30774532538762
 20
5.334284347278092
 30
0.0
 11
27.34074532538762
 21
5.334284347278092
 31
0.0
  0
LINE
  5
8C7E6E21
330
8C7E6E89
100
AcDbEntity
  8
COMP
100
AcDbLine
 10
27.30774532538762
 20
5.330284347278092
 30
0.0
 11
27.34074532538762
 21
5.330284347278092
 31
0.0
  0
LINE
  5
8C7E6E22
330
8C7E6E89
100
AcDbEntity
  8
COMP
100
AcDbLine
 10
27.30774532538762
 20
5.326284347278091
 30
0.0
 11
27.34074532538762
 21
5.326284347278091
 31
0.0
  0
LINE
  5
8C7E6E23
330
8C7E6E89
100
AcDbEntity
  8
COMP
100
AcDbLine
 10
27.30774532538762
 20
5.323284347278091
 30
0.0
 11
27.34074532538762
 21
5.323284347278091
 31
0.0
  0
LINE
  5
8C7E6E24
330
8C7E6E89
100
AcDbEntity
  8
COMP
100
AcDbLine
 10
27.24074532538761
 20
5.391284347278092
 30
0.0
 11
27.24074532538761
 21
5.320284347278091
 31
0.0
  0
LINE
  5
8C7E6E25
330
8C7E6E89
100
AcDbEntity
  8
COMP
100
AcDbLine
 10
27.90774532538762
 20
5.320284347278091
 30
0.0
 11
27.90774532538762
 21
5.391284347278092
 31
0.0
  0
LINE
  5
8C7E6E26
330
8C7E6E89
100
AcDbEntity
  8
COMP
100
AcDbLine
 10
27.84074532538762
 20
5.391284347278092
 30
0.0
 11
27.84074532538762
 21
5.320284347278091
 31
0.0
  0
LINE
  5
8C7E6E27
330
8C7E6E89
100
AcDbEntity
  8
COMP
100
AcDbLine
 10
27.80774532538762
 20
5.320284347278091
 30
0.0
 11
27.80774532538762
 21
5.391284347278092
 31
0.0
  0
LINE
  5
8C7E6E28
330
8C7E6E89
100
AcDbEntity
  8
COMP
100
AcDbLine
 10
27.85574532538762
 20
5.423284347278092
 30
0.0
 11
27.79174532538762
 21
5.423284347278092
 31
0.0
  0
LINE
  5
8C7E6E29
330
8C7E6E89
100
AcDbEntity
  8
COMP
100
AcDbLine
 10
27.80774532538762
 20
5.391284347278092
 30
0.0
 11
27.84074532538762
 21
5.391284347278092
 31
0.0
  0
LINE
  5
8C7E6E2A
330
8C7E6E89
100
AcDbEntity
  8
COMP
100
AcDbLine
 10
27.84074532538762
 20
5.320284347278091
 30
0.0
 11
27.80774532538762
 21
5.320284347278091
 31
0.0
  0
LINE
  5
8C7E6E2B
330
8C7E6E89
100
AcDbEntity
  8
COMP
100
AcDbLine
 10
27.80774532538762
 20
5.346284347278092
 30
0.0
 11
27.84074532538762
 21
5.346284347278092
 31
0.0
  0
LINE
  5
8C7E6E2C
330
8C7E6E89
100
AcDbEntity
  8
COMP
100
AcDbLine
 10
27.80774532538762
 20
5.342284347278091
 30
0.0
 11
27.84074532538762
 21
5.342284347278091
 31
0.0
  0
LINE
  5
8C7E6E2D
330
8C7E6E89
100
AcDbEntity
  8
COMP
100
AcDbLine
 10
27.80774532538762
 20
5.338284347278092
 30
0.0
 11
27.84074532538762
 21
5.338284347278092
 31
0.0
  0
LINE
  5
8C7E6E2E
330
8C7E6E89
100
AcDbEntity
  8
COMP
100
AcDbLine
 10
27.80774532538762
 20
5.334284347278092
 30
0.0
 11
27.84074532538762
 21
5.334284347278092
 31
0.0
  0
LINE
  5
8C7E6E2F
330
8C7E6E89
100
AcDbEntity
  8
COMP
100
AcDbLine
 10
27.80774532538762
 20
5.330284347278092
 30
0.0
 11
27.84074532538762
 21
5.330284347278092
 31
0.0
  0
LINE
  5
8C7E6E30
330
8C7E6E89
100
AcDbEntity
  8
COMP
100
AcDbLine
 10
27.80774532538762
 20
5.326284347278091
 30
0.0
 11
27.84074532538762
 21
5.326284347278091
 31
0.0
  0
LINE
  5
8C7E6E31
330
8C7E6E89
100
AcDbEntity
  8
COMP
100
AcDbLine
 10
27.80774532538762
 20
5.323284347278091
 30
0.0
 11
27.84074532538762
 21
5.323284347278091
 31
0.0
  0
LINE
  5
8C7E6E32
330
8C7E6E89
100
AcDbEntity
  8
COMP
100
AcDbLine
 10
27.74074532538762
 20
5.391284347278092
 30
0.0
 11
27.74074532538762
 21
5.320284347278091
 31
0.0
  0
LINE
  5
8C7E6E33
330
8C7E6E89
100
AcDbEntity
  8
COMP
100
AcDbLine
 10
27.70774532538762
 20
5.320284347278091
 30
0.0
 11
27.70774532538762
 21
5.391284347278092
 31
0.0
  0
LINE
  5
8C7E6E34
330
8C7E6E89
100
AcDbEntity
  8
COMP
100
AcDbLine
 10
27.75574532538762
 20
5.423284347278092
 30
0.0
 11
27.69174532538762
 21
5.423284347278092
 31
0.0
  0
LINE
  5
8C7E6E35
330
8C7E6E89
100
AcDbEntity
  8
COMP
100
AcDbLine
 10
27.70774532538762
 20
5.391284347278092
 30
0.0
 11
27.74074532538762
 21
5.391284347278092
 31
0.0
  0
LINE
  5
8C7E6E36
330
8C7E6E89
100
AcDbEntity
  8
COMP
100
AcDbLine
 10
27.74074532538762
 20
5.320284347278091
 30
0.0
 11
27.70774532538762
 21
5.320284347278091
 31
0.0
  0
LINE
  5
8C7E6E37
330
8C7E6E89
100
AcDbEntity
  8
COMP
100
AcDbLine
 10
27.70774532538762
 20
5.346284347278092
 30
0.0
 11
27.74074532538762
 21
5.346284347278092
 31
0.0
  0
LINE
  5
8C7E6E38
330
8C7E6E89
100
AcDbEntity
  8
COMP
100
AcDbLine
 10
27.70774532538762
 20
5.342284347278091
 30
0.0
 11
27.74074532538762
 21
5.342284347278091
 31
0.0
  0
LINE
  5
8C7E6E39
330
8C7E6E89
100
AcDbEntity
  8
COMP
100
AcDbLine
 10
27.70774532538762
 20
5.338284347278092
 30
0.0
 11
27.74074532538762
 21
5.338284347278092
 31
0.0
  0
LINE
  5
8C7E6E3A
330
8C7E6E89
100
AcDbEntity
  8
COMP
100
AcDbLine
 10
27.70774532538762
 20
5.334284347278092
 30
0.0
 11
27.74074532538762
 21
5.334284347278092
 31
0.0
  0
LINE
  5
8C7E6E3B
330
8C7E6E89
100
AcDbEntity
  8
COMP
100
AcDbLine
 10
27.70774532538762
 20
5.330284347278092
 30
0.0
 11
27.74074532538762
 21
5.330284347278092
 31
0.0
  0
LINE
  5
8C7E6E3C
330
8C7E6E89
100
AcDbEntity
  8
COMP
100
AcDbLine
 10
27.70774532538762
 20
5.326284347278091
 30
0.0
 11
27.74074532538762
 21
5.326284347278091
 31
0.0
  0
LINE
  5
8C7E6E3D
330
8C7E6E89
100
AcDbEntity
  8
COMP
100
AcDbLine
 10
27.70774532538762
 20
5.323284347278091
 30
0.0
 11
27.74074532538762
 21
5.323284347278091
 31
0.0
  0
LINE
  5
8C7E6E3E
330
8C7E6E89
100
AcDbEntity
  8
COMP
100
AcDbLine
 10
27.64074532538762
 20
5.391284347278092
 30
0.0
 11
27.64074532538762
 21
5.320284347278091
 31
0.0
  0
LINE
  5
8C7E6E3F
330
8C7E6E89
100
AcDbEntity
  8
COMP
100
AcDbLine
 10
27.60774532538762
 20
5.320284347278091
 30
0.0
 11
27.60774532538762
 21
5.391284347278092
 31
0.0
  0
LINE
  5
8C7E6E40
330
8C7E6E89
100
AcDbEntity
  8
COMP
100
AcDbLine
 10
27.65574532538762
 20
5.423284347278092
 30
0.0
 11
27.59174532538762
 21
5.423284347278092
 31
0.0
  0
LINE
  5
8C7E6E41
330
8C7E6E89
100
AcDbEntity
  8
COMP
100
AcDbLine
 10
27.60774532538762
 20
5.391284347278092
 30
0.0
 11
27.64074532538762
 21
5.391284347278092
 31
0.0
  0
LINE
  5
8C7E6E42
330
8C7E6E89
100
AcDbEntity
  8
COMP
100
AcDbLine
 10
27.64074532538762
 20
5.320284347278091
 30
0.0
 11
27.60774532538762
 21
5.320284347278091
 31
0.0
  0
LINE
  5
8C7E6E43
330
8C7E6E89
100
AcDbEntity
  8
COMP
100
AcDbLine
 10
27.60774532538762
 20
5.346284347278092
 30
0.0
 11
27.64074532538762
 21
5.346284347278092
 31
0.0
  0
LINE
  5
8C7E6E44
330
8C7E6E89
100
AcDbEntity
  8
COMP
100
AcDbLine
 10
27.60774532538762
 20
5.342284347278091
 30
0.0
 11
27.64074532538762
 21
5.342284347278091
 31
0.0
  0
LINE
  5
8C7E6E45
330
8C7E6E89
100
AcDbEntity
  8
COMP
100
AcDbLine
 10
27.60774532538762
 20
5.338284347278092
 30
0.0
 11
27.64074532538762
 21
5.338284347278092
 31
0.0
  0
LINE
  5
8C7E6E46
330
8C7E6E89
100
AcDbEntity
  8
COMP
100
AcDbLine
 10
27.60774532538762
 20
5.334284347278092
 30
0.0
 11
27.64074532538762
 21
5.334284347278092
 31
0.0
  0
LINE
  5
8C7E6E47
330
8C7E6E89
100
AcDbEntity
  8
COMP
100
AcDbLine
 10
27.60774532538762
 20
5.330284347278092
 30
0.0
 11
27.64074532538762
 21
5.330284347278092
 31
0.0
  0
LINE
  5
8C7E6E48
330
8C7E6E89
100
AcDbEntity
  8
COMP
100
AcDbLine
 10
27.60774532538762
 20
5.326284347278091
 30
0.0
 11
27.64074532538762
 21
5.326284347278091
 31
0.0
  0
LINE
  5
8C7E6E49
330
8C7E6E89
100
AcDbEntity
  8
COMP
100
AcDbLine
 10
27.60774532538762
 20
5.323284347278091
 30
0.0
 11
27.64074532538762
 21
5.323284347278091
 31
0.0
  0
LINE
  5
8C7E6E4A
330
8C7E6E89
100
AcDbEntity
  8
COMP
100
AcDbLine
 10
27.94074532538762
 20
5.391284347278092
 30
0.0
 11
27.94074532538762
 21
5.320284347278091
 31
0.0
  0
LWPOLYLINE
  5
8C7E6E62
330
8C7E6E89
100
AcDbEntity
  8
COMP
100
AcDbPolyline
 90
        4
 70
     0
 43
0.02
 10
27.12274532538762
 20
5.552284347278094
 10
28.02274532538762
 20
5.552284347278094
 10
28.02274532538762
 20
5.152284347278094
 10
27.12274532538762
 20
5.152284347278094
  0
LWPOLYLINE
  5
8C7E6E68
330
8C7E6E89
100
AcDbEntity
  8
COMP
100
AcDbPolyline
 90
        2
 70
     0
 43
0.02
 10
27.12274532538762
 20
5.142284347278094
 10
27.12274532538762
 20
5.562284347278094
  0
LWPOLYLINE
  5
8C7E71B9
330
8C7E6E89
100
AcDbEntity
  8
COMP
100
AcDbPolyline
 90
        2
 70
     0
 43
0.01
 10
24.93074532538762
 20
9.430284347278094
 42
1.0
 10
24.93074532538762
 20
9.594284347278094
  0
LWPOLYLINE
  5
8C7E71BA
330
8C7E6E89
100
AcDbEntity
  8
COMP
100
AcDbPolyline
 90
        2
 70
     0
 43
0.01
 10
24.93074532538762
 20
9.594284347278094
 42
1.0
 10
24.93074532538762
 20
9.430284347278094
  0
LWPOLYLINE
  5
8C7E71BB
330
8C7E6E89
100
AcDbEntity
  8
COMP
100
AcDbPolyline
 90
        2
 70
     0
 43
0.01
 10
25.39674532538762
 20
9.592284347278093
 42
1.0
 10
25.39674532538762
 20
9.428284347278093
  0
LWPOLYLINE
  5
8C7E71BC
330
8C7E6E89
100
AcDbEntity
  8
COMP
100
AcDbPolyline
 90
        2
 70
     0
 43
0.01
 10
25.39674532538762
 20
9.428284347278093
 42
1.0
 10
25.39674532538762
 20
9.592284347278093
  0
LWPOLYLINE
  5
8C7E71BD
330
8C7E6E89
100
AcDbEntity
  8
COMP
100
AcDbPolyline
 90
        2
 70
     0
 43
0.01
 10
25.60874532538762
 20
9.592284347278093
 42
1.0
 10
25.60874532538762
 20
9.428284347278093
  0
LWPOLYLINE
  5
8C7E71BE
330
8C7E6E89
100
AcDbEntity
  8
COMP
100
AcDbPolyline
 90
        2
 70
     0
 43
0.01
 10
25.60874532538762
 20
9.428284347278093
 42
1.0
 10
25.60874532538762
 20
9.592284347278093
  0
LWPOLYLINE
  5
8C7E71C1
330
8C7E6E89
100
AcDbEntity
  8
COMP
100
AcDbPolyline
 90
        2
 70
     0
 43
0.02
 10
23.60774532538762
 20
10.48528434727809
 10
23.60774532538762
 20
10.90528434727809
  0
LWPOLYLINE
  5
8C7E71C2
330
8C7E6E89
100
AcDbEntity
  8
COMP
100
AcDbPolyline
 90
        4
 70
     0
 43
0.02
 10
23.60774532538762
 20
10.89528434727809
 10
24.11574532538762
 20
10.89528434727809
 10
24.11574532538762
 20
10.49528434727809
 10
23.60774532538762
 20
10.49528434727809
  0
LINE
  5
8C7E71C4
330
8C7E6E89
100
AcDbEntity
  8
COMP
100
AcDbLine
 10
23.60774532538762
 20
10.52028434727809
 30
0.0
 11
23.60774532538762
 21
10.89528434727809
 31
0.0
  0
LINE
  5
8C7E71C5
330
8C7E6E89
100
AcDbEntity
  8
COMP
100
AcDbLine
 10
23.93474532538762
 20
10.76628434727809
 30
0.0
 11
23.87074532538763
 21
10.76628434727809
 31
0.0
  0
LINE
  5
8C7E71C6
330
8C7E6E89
100
AcDbEntity
  8
COMP
100
AcDbLine
 10
23.87074532538763
 20
10.62828434727809
 30
0.0
 11
23.93474532538762
 21
10.62828434727809
 31
0.0
  0
LINE
  5
8C7E71C8
330
8C7E6E89
100
AcDbEntity
  8
COMP
100
AcDbLine
 10
23.60774532538762
 20
10.52028434727809
 30
0.0
 11
23.60774532538762
 21
10.52028434727809
 31
0.0
  0
LINE
  5
8C7E71C9
330
8C7E6E89
100
AcDbEntity
  8
COMP
100
AcDbLine
 10
23.60774532538762
 20
10.49528434727809
 30
0.0
 11
23.60774532538762
 21
10.52028434727809
 31
0.0
  0
LWPOLYLINE
  5
8C7E71CA
330
8C7E6E89
100
AcDbEntity
  8
COMP
100
AcDbPolyline
 90
        2
 70
     1
 43
0.005
 10
23.60774532538762
 20
10.49778434727809
 42
1.0
 10
23.60774532538762
 20
10.49278434727809
 42
1.0
  0
LINE
  5
8C7E7207
330
8C7E6E89
100
AcDbEntity
  8
COMP
100
AcDbLine
 10
23.68674532538762
 20
10.66628434727809
 30
0.0
 11
23.71974532538762
 21
10.66628434727809
 31
0.0
  0
LINE
  5
8C7E7208
330
8C7E6E89
100
AcDbEntity
  8
COMP
100
AcDbLine
 10
23.68674532538762
 20
10.66928434727809
 30
0.0
 11
23.71974532538762
 21
10.66928434727809
 31
0.0
  0
LINE
  5
8C7E7209
330
8C7E6E89
100
AcDbEntity
  8
COMP
100
AcDbLine
 10
23.68674532538762
 20
10.67328434727809
 30
0.0
 11
23.71974532538762
 21
10.67328434727809
 31
0.0
  0
LINE
  5
8C7E720A
330
8C7E6E89
100
AcDbEntity
  8
COMP
100
AcDbLine
 10
23.68674532538762
 20
10.67728434727809
 30
0.0
 11
23.71974532538762
 21
10.67728434727809
 31
0.0
  0
LINE
  5
8C7E720B
330
8C7E6E89
100
AcDbEntity
  8
COMP
100
AcDbLine
 10
23.68674532538762
 20
10.68128434727809
 30
0.0
 11
23.71974532538762
 21
10.68128434727809
 31
0.0
  0
LINE
  5
8C7E720C
330
8C7E6E89
100
AcDbEntity
  8
COMP
100
AcDbLine
 10
23.68674532538762
 20
10.68528434727809
 30
0.0
 11
23.71974532538762
 21
10.68528434727809
 31
0.0
  0
LINE
  5
8C7E720D
330
8C7E6E89
100
AcDbEntity
  8
COMP
100
AcDbLine
 10
23.68674532538762
 20
10.68928434727809
 30
0.0
 11
23.71974532538762
 21
10.68928434727809
 31
0.0
  0
LINE
  5
8C7E720E
330
8C7E6E89
100
AcDbEntity
  8
COMP
100
AcDbLine
 10
23.71974532538762
 20
10.66328434727809
 30
0.0
 11
23.68674532538762
 21
10.66328434727809
 31
0.0
  0
LINE
  5
8C7E720F
330
8C7E6E89
100
AcDbEntity
  8
COMP
100
AcDbLine
 10
23.68674532538762
 20
10.73428434727809
 30
0.0
 11
23.71974532538762
 21
10.73428434727809
 31
0.0
  0
LINE
  5
8C7E7210
330
8C7E6E89
100
AcDbEntity
  8
COMP
100
AcDbLine
 10
23.73474532538762
 20
10.76628434727809
 30
0.0
 11
23.67074532538762
 21
10.76628434727809
 31
0.0
  0
LINE
  5
8C7E7211
330
8C7E6E89
100
AcDbEntity
  8
COMP
100
AcDbLine
 10
23.68674532538762
 20
10.66328434727809
 30
0.0
 11
23.68674532538762
 21
10.73428434727809
 31
0.0
  0
LINE
  5
8C7E7212
330
8C7E6E89
100
AcDbEntity
  8
COMP
100
AcDbLine
 10
23.71974532538762
 20
10.73428434727809
 30
0.0
 11
23.71974532538762
 21
10.66328434727809
 31
0.0
  0
LINE
  5
8C7E7213
330
8C7E6E89
100
AcDbEntity
  8
COMP
100
AcDbLine
 10
23.78674532538762
 20
10.66628434727809
 30
0.0
 11
23.81974532538762
 21
10.66628434727809
 31
0.0
  0
LINE
  5
8C7E7214
330
8C7E6E89
100
AcDbEntity
  8
COMP
100
AcDbLine
 10
23.78674532538762
 20
10.66928434727809
 30
0.0
 11
23.81974532538762
 21
10.66928434727809
 31
0.0
  0
LINE
  5
8C7E7215
330
8C7E6E89
100
AcDbEntity
  8
COMP
100
AcDbLine
 10
23.78674532538762
 20
10.67328434727809
 30
0.0
 11
23.81974532538762
 21
10.67328434727809
 31
0.0
  0
LINE
  5
8C7E7216
330
8C7E6E89
100
AcDbEntity
  8
COMP
100
AcDbLine
 10
23.78674532538762
 20
10.67728434727809
 30
0.0
 11
23.81974532538762
 21
10.67728434727809
 31
0.0
  0
LINE
  5
8C7E7217
330
8C7E6E89
100
AcDbEntity
  8
COMP
100
AcDbLine
 10
23.78674532538762
 20
10.68128434727809
 30
0.0
 11
23.81974532538762
 21
10.68128434727809
 31
0.0
  0
LINE
  5
8C7E7218
330
8C7E6E89
100
AcDbEntity
  8
COMP
100
AcDbLine
 10
23.78674532538762
 20
10.68528434727809
 30
0.0
 11
23.81974532538762
 21
10.68528434727809
 31
0.0
  0
LINE
  5
8C7E7219
330
8C7E6E89
100
AcDbEntity
  8
COMP
100
AcDbLine
 10
23.78674532538762
 20
10.68928434727809
 30
0.0
 11
23.81974532538762
 21
10.68928434727809
 31
0.0
  0
LINE
  5
8C7E721A
330
8C7E6E89
100
AcDbEntity
  8
COMP
100
AcDbLine
 10
23.81974532538762
 20
10.66328434727809
 30
0.0
 11
23.78674532538762
 21
10.66328434727809
 31
0.0
  0
LINE
  5
8C7E721B
330
8C7E6E89
100
AcDbEntity
  8
COMP
100
AcDbLine
 10
23.78674532538762
 20
10.73428434727809
 30
0.0
 11
23.81974532538762
 21
10.73428434727809
 31
0.0
  0
LINE
  5
8C7E721C
330
8C7E6E89
100
AcDbEntity
  8
COMP
100
AcDbLine
 10
23.83474532538762
 20
10.76628434727809
 30
0.0
 11
23.77074532538762
 21
10.76628434727809
 31
0.0
  0
LINE
  5
8C7E721D
330
8C7E6E89
100
AcDbEntity
  8
COMP
100
AcDbLine
 10
23.78674532538762
 20
10.66328434727809
 30
0.0
 11
23.78674532538762
 21
10.73428434727809
 31
0.0
  0
LINE
  5
8C7E721E
330
8C7E6E89
100
AcDbEntity
  8
COMP
100
AcDbLine
 10
23.81974532538762
 20
10.73428434727809
 30
0.0
 11
23.81974532538762
 21
10.66328434727809
 31
0.0
  0
LINE
  5
8C7E721F
330
8C7E6E89
100
AcDbEntity
  8
COMP
100
AcDbLine
 10
23.88674532538762
 20
10.66628434727809
 30
0.0
 11
23.91974532538762
 21
10.66628434727809
 31
0.0
  0
LINE
  5
8C7E7220
330
8C7E6E89
100
AcDbEntity
  8
COMP
100
AcDbLine
 10
23.88674532538762
 20
10.66928434727809
 30
0.0
 11
23.91974532538762
 21
10.66928434727809
 31
0.0
  0
LINE
  5
8C7E7221
330
8C7E6E89
100
AcDbEntity
  8
COMP
100
AcDbLine
 10
23.88674532538762
 20
10.67328434727809
 30
0.0
 11
23.91974532538762
 21
10.67328434727809
 31
0.0
  0
LINE
  5
8C7E7222
330
8C7E6E89
100
AcDbEntity
  8
COMP
100
AcDbLine
 10
23.88674532538762
 20
10.67728434727809
 30
0.0
 11
23.91974532538762
 21
10.67728434727809
 31
0.0
  0
LINE
  5
8C7E7223
330
8C7E6E89
100
AcDbEntity
  8
COMP
100
AcDbLine
 10
23.88674532538762
 20
10.68128434727809
 30
0.0
 11
23.91974532538762
 21
10.68128434727809
 31
0.0
  0
LINE
  5
8C7E7224
330
8C7E6E89
100
AcDbEntity
  8
COMP
100
AcDbLine
 10
23.88674532538762
 20
10.68528434727809
 30
0.0
 11
23.91974532538762
 21
10.68528434727809
 31
0.0
  0
LINE
  5
8C7E7225
330
8C7E6E89
100
AcDbEntity
  8
COMP
100
AcDbLine
 10
23.88674532538762
 20
10.68928434727809
 30
0.0
 11
23.91974532538762
 21
10.68928434727809
 31
0.0
  0
LINE
  5
8C7E7226
330
8C7E6E89
100
AcDbEntity
  8
COMP
100
AcDbLine
 10
23.91974532538762
 20
10.66328434727809
 30
0.0
 11
23.88674532538762
 21
10.66328434727809
 31
0.0
  0
LINE
  5
8C7E7227
330
8C7E6E89
100
AcDbEntity
  8
COMP
100
AcDbLine
 10
23.88674532538762
 20
10.73428434727809
 30
0.0
 11
23.91974532538762
 21
10.73428434727809
 31
0.0
  0
LINE
  5
8C7E7228
330
8C7E6E89
100
AcDbEntity
  8
COMP
100
AcDbLine
 10
23.88674532538762
 20
10.66328434727809
 30
0.0
 11
23.88674532538762
 21
10.73428434727809
 31
0.0
  0
LINE
  5
8C7E7229
330
8C7E6E89
100
AcDbEntity
  8
COMP
100
AcDbLine
 10
23.91974532538762
 20
10.73428434727809
 30
0.0
 11
23.91974532538762
 21
10.66328434727809
 31
0.0
  0
LINE
  5
8C7E722A
330
8C7E6E89
100
AcDbEntity
  8
COMP
100
AcDbLine
 10
23.67074532538762
 20
10.62828434727809
 30
0.0
 11
23.73474532538762
 21
10.62828434727809
 31
0.0
  0
LINE
  5
8C7E722B
330
8C7E6E89
100
AcDbEntity
  8
COMP
100
AcDbLine
 10
23.77074532538762
 20
10.62828434727809
 30
0.0
 11
23.83474532538762
 21
10.62828434727809
 31
0.0
  0
LINE
  5
8C7E722C
330
8C7E6E89
100
AcDbEntity
  8
COMP
100
AcDbLine
 10
23.67074532538762
 20
10.76628434727809
 30
0.0
 11
23.67074532538762
 21
10.62828434727809
 31
0.0
  0
LINE
  5
8C7E722D
330
8C7E6E89
100
AcDbEntity
  8
COMP
100
AcDbLine
 10
23.73474532538762
 20
10.62828434727809
 30
0.0
 11
23.73474532538762
 21
10.76628434727809
 31
0.0
  0
LINE
  5
8C7E722E
330
8C7E6E89
100
AcDbEntity
  8
COMP
100
AcDbLine
 10
23.77074532538762
 20
10.76628434727809
 30
0.0
 11
23.77074532538762
 21
10.62828434727809
 31
0.0
  0
LINE
  5
8C7E722F
330
8C7E6E89
100
AcDbEntity
  8
COMP
100
AcDbLine
 10
23.83474532538762
 20
10.62828434727809
 30
0.0
 11
23.83474532538762
 21
10.76628434727809
 31
0.0
  0
LINE
  5
8C7E7230
330
8C7E6E89
100
AcDbEntity
  8
COMP
100
AcDbLine
 10
23.87074532538763
 20
10.76628434727809
 30
0.0
 11
23.87074532538763
 21
10.62828434727809
 31
0.0
  0
LINE
  5
8C7E7232
330
8C7E6E89
100
AcDbEntity
  8
COMP
100
AcDbLine
 10
24.01974532538762
 20
10.73428434727809
 30
0.0
 11
24.01974532538762
 21
10.66328434727809
 31
0.0
  0
LINE
  5
8C7E7233
330
8C7E6E89
100
AcDbEntity
  8
COMP
100
AcDbLine
 10
23.98674532538762
 20
10.66328434727809
 30
0.0
 11
23.98674532538762
 21
10.73428434727809
 31
0.0
  0
LINE
  5
8C7E7234
330
8C7E6E89
100
AcDbEntity
  8
COMP
100
AcDbLine
 10
23.98674532538762
 20
10.66628434727809
 30
0.0
 11
24.01974532538762
 21
10.66628434727809
 31
0.0
  0
LINE
  5
8C7E7235
330
8C7E6E89
100
AcDbEntity
  8
COMP
100
AcDbLine
 10
23.98674532538762
 20
10.66928434727809
 30
0.0
 11
24.01974532538762
 21
10.66928434727809
 31
0.0
  0
LINE
  5
8C7E7236
330
8C7E6E89
100
AcDbEntity
  8
COMP
100
AcDbLine
 10
23.98674532538762
 20
10.67328434727809
 30
0.0
 11
24.01974532538762
 21
10.67328434727809
 31
0.0
  0
LINE
  5
8C7E7237
330
8C7E6E89
100
AcDbEntity
  8
COMP
100
AcDbLine
 10
23.98674532538762
 20
10.67728434727809
 30
0.0
 11
24.01974532538762
 21
10.67728434727809
 31
0.0
  0
LINE
  5
8C7E7238
330
8C7E6E89
100
AcDbEntity
  8
COMP
100
AcDbLine
 10
23.98674532538762
 20
10.68128434727809
 30
0.0
 11
24.01974532538762
 21
10.68128434727809
 31
0.0
  0
LINE
  5
8C7E7239
330
8C7E6E89
100
AcDbEntity
  8
COMP
100
AcDbLine
 10
23.98674532538762
 20
10.68528434727809
 30
0.0
 11
24.01974532538762
 21
10.68528434727809
 31
0.0
  0
LINE
  5
8C7E723A
330
8C7E6E89
100
AcDbEntity
  8
COMP
100
AcDbLine
 10
23.98674532538762
 20
10.68928434727809
 30
0.0
 11
24.01974532538762
 21
10.68928434727809
 31
0.0
  0
LINE
  5
8C7E723B
330
8C7E6E89
100
AcDbEntity
  8
COMP
100
AcDbLine
 10
24.01974532538762
 20
10.66328434727809
 30
0.0
 11
23.98674532538762
 21
10.66328434727809
 31
0.0
  0
LINE
  5
8C7E723C
330
8C7E6E89
100
AcDbEntity
  8
COMP
100
AcDbLine
 10
23.98674532538762
 20
10.73428434727809
 30
0.0
 11
24.01974532538762
 21
10.73428434727809
 31
0.0
  0
LINE
  5
8C7E723D
330
8C7E6E89
100
AcDbEntity
  8
COMP
100
AcDbLine
 10
24.03474532538762
 20
10.76628434727809
 30
0.0
 11
23.97074532538762
 21
10.76628434727809
 31
0.0
  0
LINE
  5
8C7E723E
330
8C7E6E89
100
AcDbEntity
  8
COMP
100
AcDbLine
 10
23.97074532538762
 20
10.62828434727809
 30
0.0
 11
24.03474532538762
 21
10.62828434727809
 31
0.0
  0
LINE
  5
8C7E723F
330
8C7E6E89
100
AcDbEntity
  8
COMP
100
AcDbLine
 10
23.93474532538762
 20
10.62828434727809
 30
0.0
 11
23.93474532538762
 21
10.76628434727809
 31
0.0
  0
LINE
  5
8C7E7240
330
8C7E6E89
100
AcDbEntity
  8
COMP
100
AcDbLine
 10
23.97074532538762
 20
10.76628434727809
 30
0.0
 11
23.97074532538762
 21
10.62828434727809
 31
0.0
  0
LINE
  5
8C7E7241
330
8C7E6E89
100
AcDbEntity
  8
COMP
100
AcDbLine
 10
24.03474532538762
 20
10.62828434727809
 30
0.0
 11
24.03474532538762
 21
10.76628434727809
 31
0.0
  0
LINE
  5
8C7E7324
330
8C7E6E89
100
AcDbEntity
  8
COMP
100
AcDbLine
 10
24.69174532538762
 20
10.50528434727809
 30
0.0
 11
24.69174532538762
 21
9.999284347278097
 31
0.0
  0
LINE
  5
8C7E7325
330
8C7E6E89
100
AcDbEntity
  8
COMP
100
AcDbLine
 10
24.95974532538762
 20
9.943284347278099
 30
0.0
 11
24.69174532538762
 21
9.999284347278097
 31
0.0
  0
LINE
  5
8C7E7326
330
8C7E6E89
100
AcDbEntity
  8
COMP
100
AcDbLine
 10
24.95974532538762
 20
10.56128434727809
 30
0.0
 11
24.95974532538762
 21
9.943284347278099
 31
0.0
  0
LINE
  5
8C7E7327
330
8C7E6E89
100
AcDbEntity
  8
COMP
100
AcDbLine
 10
24.95974532538762
 20
10.56128434727809
 30
0.0
 11
24.69174532538762
 21
10.50528434727809
 31
0.0
  0
LINE
  5
8C7E7328
330
8C7E6E89
100
AcDbEntity
  8
COMP
100
AcDbLine
 10
25.37174532538762
 20
10.50528434727809
 30
0.0
 11
25.37174532538762
 21
9.999284347278097
 31
0.0
  0
LINE
  5
8C7E7329
330
8C7E6E89
100
AcDbEntity
  8
COMP
100
AcDbLine
 10
25.63974532538762
 20
9.943284347278099
 30
0.0
 11
25.37174532538762
 21
9.999284347278097
 31
0.0
  0
LINE
  5
8C7E732A
330
8C7E6E89
100
AcDbEntity
  8
COMP
100
AcDbLine
 10
25.63974532538762
 20
10.56128434727809
 30
0.0
 11
25.63974532538762
 21
9.943284347278099
 31
0.0
  0
LINE
  5
8C7E732B
330
8C7E6E89
100
AcDbEntity
  8
COMP
100
AcDbLine
 10
25.63974532538762
 20
10.56128434727809
 30
0.0
 11
25.37174532538762
 21
10.50528434727809
 31
0.0
  0
LINE
  5
8C7E732C
330
8C7E6E89
100
AcDbEntity
  8
COMP
100
AcDbLine
 10
26.85974532538762
 20
10.26768434727809
 30
0.0
 11
26.85974532538762
 21
10.39368434727809
 31
0.0
  0
LINE
  5
8C7E732D
330
8C7E6E89
100
AcDbEntity
  8
COMP
100
AcDbLine
 10
26.85974532538762
 20
10.39368434727809
 30
0.0
 11
26.96774532538762
 21
10.39368434727809
 31
0.0
  0
LINE
  5
8C7E732E
330
8C7E6E89
100
AcDbEntity
  8
COMP
100
AcDbLine
 10
26.96774532538762
 20
10.39368434727809
 30
0.0
 11
26.96774532538762
 21
10.73668434727809
 31
0.0
  0
LINE
  5
8C7E732F
330
8C7E6E89
100
AcDbEntity
  8
COMP
100
AcDbLine
 10
26.96774532538762
 20
10.73668434727809
 30
0.0
 11
26.82774532538762
 21
10.73668434727809
 31
0.0
  0
LINE
  5
8C7E7330
330
8C7E6E89
100
AcDbEntity
  8
COMP
100
AcDbLine
 10
26.82774532538762
 20
10.73668434727809
 30
0.0
 11
26.82774532538762
 21
10.77468434727809
 31
0.0
  0
LINE
  5
8C7E7331
330
8C7E6E89
100
AcDbEntity
  8
COMP
100
AcDbLine
 10
26.82774532538762
 20
10.77468434727809
 30
0.0
 11
26.78774532538762
 21
10.77468434727809
 31
0.0
  0
LINE
  5
8C7E7332
330
8C7E6E89
100
AcDbEntity
  8
COMP
100
AcDbLine
 10
26.78774532538762
 20
10.77468434727809
 30
0.0
 11
26.78774532538762
 21
10.91168434727809
 31
0.0
  0
LINE
  5
8C7E7333
330
8C7E6E89
100
AcDbEntity
  8
COMP
100
AcDbLine
 10
26.62774532538762
 20
10.91168434727809
 30
0.0
 11
26.62774532538762
 21
10.77468434727809
 31
0.0
  0
LINE
  5
8C7E7334
330
8C7E6E89
100
AcDbEntity
  8
COMP
100
AcDbLine
 10
26.62774532538762
 20
10.77468434727809
 30
0.0
 11
26.58774532538762
 21
10.77468434727809
 31
0.0
  0
LINE
  5
8C7E7335
330
8C7E6E89
100
AcDbEntity
  8
COMP
100
AcDbLine
 10
26.58774532538762
 20
10.77468434727809
 30
0.0
 11
26.58774532538762
 21
10.73668434727809
 31
0.0
  0
LINE
  5
8C7E7336
330
8C7E6E89
100
AcDbEntity
  8
COMP
100
AcDbLine
 10
26.58774532538762
 20
10.73668434727809
 30
0.0
 11
26.44774532538762
 21
10.73668434727809
 31
0.0
  0
LINE
  5
8C7E7337
330
8C7E6E89
100
AcDbEntity
  8
COMP
100
AcDbLine
 10
26.44774532538762
 20
10.73668434727809
 30
0.0
 11
26.44774532538762
 21
10.39368434727809
 31
0.0
  0
LINE
  5
8C7E7338
330
8C7E6E89
100
AcDbEntity
  8
COMP
100
AcDbLine
 10
26.44774532538762
 20
10.39368434727809
 30
0.0
 11
26.55574532538762
 21
10.39368434727809
 31
0.0
  0
LINE
  5
8C7E7339
330
8C7E6E89
100
AcDbEntity
  8
COMP
100
AcDbLine
 10
26.55574532538762
 20
10.39368434727809
 30
0.0
 11
26.55574532538762
 21
10.26768434727809
 31
0.0
  0
LINE
  5
8C7E733A
330
8C7E6E89
100
AcDbEntity
  8
COMP
100
AcDbLine
 10
26.55574532538762
 20
10.26768434727809
 30
0.0
 11
26.85974532538762
 21
10.26768434727809
 31
0.0
  0
LINE
  5
8C7E739E
330
8C7E6E89
100
AcDbEntity
  8
LABEL
100
AcDbLine
 10
28.73274532538762
 20
9.872284347278089
 30
0.0
 11
28.73274532538762
 21
5.772284347278091
 31
0.0
  0
LINE
  5
8C7E739F
330
8C7E6E89
100
AcDbEntity
  8
LABEL
100
AcDbLine
 10
28.43274532538762
 20
5.772284347278091
 30
0.0
 11
28.43274532538762
 21
9.872284347278089
 31
0.0
  0
LINE
  5
8C7E73A0
330
8C7E6E89
100
AcDbEntity
  8
LABEL
100
AcDbLine
 10
28.70774532538762
 20
9.872284347278089
 30
0.0
 11
28.70774532538762
 21
5.772284347278091
 31
0.0
  0
CIRCLE
  5
8C7E73A2
330
8C7E6E89
100
AcDbEntity
  8
LABEL
100
AcDbCircle
 10
28.58274532538762
 20
6.322284347278097
 30
0.0
 40
0.0610000000000106
  0
CIRCLE
  5
8C7E73A3
330
8C7E6E89
100
AcDbEntity
  8
LABEL
100
AcDbCircle
 10
28.58274532538762
 20
5.922284347278106
 30
0.0
 40
0.0610000000000106
  0
LINE
  5
8C7E73A4
330
8C7E6E89
100
AcDbEntity
  8
LABEL
100
AcDbLine
 10
28.73274532538762
 20
5.772284347278091
 30
0.0
 11
28.43274532538762
 21
5.772284347278091
 31
0.0
  0
LINE
  5
8C7E73AD
330
8C7E6E89
100
AcDbEntity
  8
LABEL
100
AcDbLine
 10
28.43274532538762
 20
5.772284347278091
 30
0.0
 11
28.43274532538762
 21
5.772284347278091
 31
0.0
  0
LINE
  5
8C7E73AE
330
8C7E6E89
100
AcDbEntity
  8
LABEL
100
AcDbLine
 10
28.52374532538762
 20
6.110284347278106
 30
0.0
 11
28.64274532538762
 21
6.110284347278106
 31
0.0
  0
LINE
  5
8C7E73AF
330
8C7E6E89
100
AcDbEntity
  8
LABEL
100
AcDbLine
 10
28.52374532538762
 20
6.134284347278107
 30
0.0
 11
28.64274532538762
 21
6.134284347278107
 31
0.0
  0
CIRCLE
  5
8C7E73B0
330
8C7E6E89
100
AcDbEntity
  8
LABEL
100
AcDbCircle
 10
28.58274532538762
 20
6.122284347278094
 30
0.0
 40
0.0610000000000106
  0
LINE
  5
8C7E73B1
330
8C7E6E89
100
AcDbEntity
  8
LABEL
100
AcDbLine
 10
28.52374532538762
 20
5.910284347278111
 30
0.0
 11
28.64274532538762
 21
5.910284347278111
 31
0.0
  0
LINE
  5
8C7E73B2
330
8C7E6E89
100
AcDbEntity
  8
LABEL
100
AcDbLine
 10
28.52374532538762
 20
5.934284347278111
 30
0.0
 11
28.64274532538762
 21
5.934284347278111
 31
0.0
  0
CIRCLE
  5
8C7E73B3
330
8C7E6E89
100
AcDbEntity
  8
LABEL
100
AcDbCircle
 10
28.58274532538762
 20
6.722284347278085
 30
0.0
 40
0.0610000000000106
  0
LINE
  5
8C7E73B4
330
8C7E6E89
100
AcDbEntity
  8
LABEL
100
AcDbLine
 10
28.52374532538762
 20
6.510284347278105
 30
0.0
 11
28.64274532538762
 21
6.510284347278105
 31
0.0
  0
LINE
  5
8C7E73B5
330
8C7E6E89
100
AcDbEntity
  8
LABEL
100
AcDbLine
 10
28.52374532538762
 20
6.534284347278106
 30
0.0
 11
28.64274532538762
 21
6.534284347278106
 31
0.0
  0
CIRCLE
  5
8C7E73B6
330
8C7E6E89
100
AcDbEntity
  8
LABEL
100
AcDbCircle
 10
28.58274532538762
 20
6.5222843472781
 30
0.0
 40
0.0610000000000106
  0
LINE
  5
8C7E73B7
330
8C7E6E89
100
AcDbEntity
  8
LABEL
100
AcDbLine
 10
28.52374532538762
 20
6.310284347278102
 30
0.0
 11
28.64274532538762
 21
6.310284347278102
 31
0.0
  0
LINE
  5
8C7E73B8
330
8C7E6E89
100
AcDbEntity
  8
LABEL
100
AcDbLine
 10
28.52374532538762
 20
6.334284347278103
 30
0.0
 11
28.64274532538762
 21
6.334284347278103
 31
0.0
  0
LINE
  5
8C7E73B9
330
8C7E6E89
100
AcDbEntity
  8
LABEL
100
AcDbLine
 10
28.52374532538762
 20
6.9102843472781
 30
0.0
 11
28.64274532538762
 21
6.9102843472781
 31
0.0
  0
LINE
  5
8C7E73BA
330
8C7E6E89
100
AcDbEntity
  8
LABEL
100
AcDbLine
 10
28.52374532538762
 20
6.934284347278101
 30
0.0
 11
28.64274532538762
 21
6.934284347278101
 31
0.0
  0
CIRCLE
  5
8C7E73BB
330
8C7E6E89
100
AcDbEntity
  8
LABEL
100
AcDbCircle
 10
28.58274532538762
 20
6.922284347278088
 30
0.0
 40
0.0610000000000106
  0
LINE
  5
8C7E73BC
330
8C7E6E89
100
AcDbEntity
  8
LABEL
100
AcDbLine
 10
28.52374532538762
 20
6.710284347278097
 30
0.0
 11
28.64274532538762
 21
6.710284347278097
 31
0.0
  0
LINE
  5
8C7E73BD
330
8C7E6E89
100
AcDbEntity
  8
LABEL
100
AcDbLine
 10
28.52374532538762
 20
6.734284347278098
 30
0.0
 11
28.64274532538762
 21
6.734284347278098
 31
0.0
  0
CIRCLE
  5
8C7E73BF
330
8C7E6E89
100
AcDbEntity
  8
LABEL
100
AcDbCircle
 10
28.58274532538762
 20
8.522284347278089
 30
0.0
 40
0.0610000000000106
  0
LINE
  5
8C7E73C0
330
8C7E6E89
100
AcDbEntity
  8
LABEL
100
AcDbLine
 10
28.52374532538762
 20
7.110284347278103
 30
0.0
 11
28.64274532538762
 21
7.110284347278103
 31
0.0
  0
LINE
  5
8C7E73C1
330
8C7E6E89
100
AcDbEntity
  8
LABEL
100
AcDbLine
 10
28.52374532538762
 20
7.134284347278104
 30
0.0
 11
28.64274532538762
 21
7.134284347278104
 31
0.0
  0
CIRCLE
  5
8C7E73C2
330
8C7E6E89
100
AcDbEntity
  8
LABEL
100
AcDbCircle
 10
28.58274532538762
 20
7.122284347278091
 30
0.0
 40
0.0610000000000106
  0
LINE
  5
8C7E73C3
330
8C7E6E89
100
AcDbEntity
  8
LABEL
100
AcDbLine
 10
28.52374532538762
 20
7.310284347278106
 30
0.0
 11
28.64274532538762
 21
7.310284347278106
 31
0.0
  0
LINE
  5
8C7E73C4
330
8C7E6E89
100
AcDbEntity
  8
LABEL
100
AcDbLine
 10
28.52374532538762
 20
7.334284347278106
 30
0.0
 11
28.64274532538762
 21
7.334284347278106
 31
0.0
  0
CIRCLE
  5
8C7E73C5
330
8C7E6E89
100
AcDbEntity
  8
LABEL
100
AcDbCircle
 10
28.58274532538762
 20
7.322284347278094
 30
0.0
 40
0.0610000000000106
  0
LINE
  5
8C7E73C6
330
8C7E6E89
100
AcDbEntity
  8
LABEL
100
AcDbLine
 10
28.52374532538762
 20
7.510284347278108
 30
0.0
 11
28.64274532538762
 21
7.510284347278108
 31
0.0
  0
LINE
  5
8C7E73C7
330
8C7E6E89
100
AcDbEntity
  8
LABEL
100
AcDbLine
 10
28.52374532538762
 20
7.534284347278109
 30
0.0
 11
28.64274532538762
 21
7.534284347278109
 31
0.0
  0
CIRCLE
  5
8C7E73C8
330
8C7E6E89
100
AcDbEntity
  8
LABEL
100
AcDbCircle
 10
28.58274532538762
 20
7.522284347278096
 30
0.0
 40
0.0610000000000106
  0
LINE
  5
8C7E73C9
330
8C7E6E89
100
AcDbEntity
  8
LABEL
100
AcDbLine
 10
28.52374532538762
 20
7.710284347278097
 30
0.0
 11
28.64274532538762
 21
7.710284347278097
 31
0.0
  0
LINE
  5
8C7E73CA
330
8C7E6E89
100
AcDbEntity
  8
LABEL
100
AcDbLine
 10
28.52374532538762
 20
7.734284347278098
 30
0.0
 11
28.64274532538762
 21
7.734284347278098
 31
0.0
  0
CIRCLE
  5
8C7E73CB
330
8C7E6E89
100
AcDbEntity
  8
LABEL
100
AcDbCircle
 10
28.58274532538762
 20
7.722284347278085
 30
0.0
 40
0.0610000000000106
  0
CIRCLE
  5
8C7E73CC
330
8C7E6E89
100
AcDbEntity
  8
LABEL
100
AcDbCircle
 10
28.58274532538762
 20
8.122284347278091
 30
0.0
 40
0.0610000000000106
  0
LINE
  5
8C7E73CD
330
8C7E6E89
100
AcDbEntity
  8
LABEL
100
AcDbLine
 10
28.52374532538762
 20
7.9102843472781
 30
0.0
 11
28.64274532538762
 21
7.9102843472781
 31
0.0
  0
LINE
  5
8C7E73CE
330
8C7E6E89
100
AcDbEntity
  8
LABEL
100
AcDbLine
 10
28.52374532538762
 20
7.934284347278101
 30
0.0
 11
28.64274532538762
 21
7.934284347278101
 31
0.0
  0
CIRCLE
  5
8C7E73CF
330
8C7E6E89
100
AcDbEntity
  8
LABEL
100
AcDbCircle
 10
28.58274532538762
 20
7.922284347278088
 30
0.0
 40
0.0610000000000106
  0
LINE
  5
8C7E73D0
330
8C7E6E89
100
AcDbEntity
  8
LABEL
100
AcDbLine
 10
28.52374532538762
 20
8.110284347278103
 30
0.0
 11
28.64274532538762
 21
8.110284347278103
 31
0.0
  0
LINE
  5
8C7E73D1
330
8C7E6E89
100
AcDbEntity
  8
LABEL
100
AcDbLine
 10
28.52374532538762
 20
8.134284347278104
 30
0.0
 11
28.64274532538762
 21
8.134284347278104
 31
0.0
  0
LINE
  5
8C7E73D2
330
8C7E6E89
100
AcDbEntity
  8
LABEL
100
AcDbLine
 10
28.52374532538762
 20
8.310284347278106
 30
0.0
 11
28.64274532538762
 21
8.310284347278106
 31
0.0
  0
LINE
  5
8C7E73D3
330
8C7E6E89
100
AcDbEntity
  8
LABEL
100
AcDbLine
 10
28.52374532538762
 20
8.334284347278106
 30
0.0
 11
28.64274532538762
 21
8.334284347278106
 31
0.0
  0
CIRCLE
  5
8C7E73D4
330
8C7E6E89
100
AcDbEntity
  8
LABEL
100
AcDbCircle
 10
28.58274532538762
 20
8.322284347278094
 30
0.0
 40
0.0610000000000106
  0
LINE
  5
8C7E73D5
330
8C7E6E89
100
AcDbEntity
  8
LABEL
100
AcDbLine
 10
28.52374532538762
 20
8.510284347278094
 30
0.0
 11
28.64274532538762
 21
8.510284347278094
 31
0.0
  0
LINE
  5
8C7E73D6
330
8C7E6E89
100
AcDbEntity
  8
LABEL
100
AcDbLine
 10
28.52374532538762
 20
8.534284347278095
 30
0.0
 11
28.64274532538762
 21
8.534284347278095
 31
0.0
  0
CIRCLE
  5
8C7E73D7
330
8C7E6E89
100
AcDbEntity
  8
LABEL
100
AcDbCircle
 10
28.58274532538762
 20
9.322284347278094
 30
0.0
 40
0.0610000000000106
  0
CIRCLE
  5
8C7E73D8
330
8C7E6E89
100
AcDbEntity
  8
LABEL
100
AcDbCircle
 10
28.58274532538762
 20
8.922284347278095
 30
0.0
 40
0.0610000000000106
  0
LINE
  5
8C7E73D9
330
8C7E6E89
100
AcDbEntity
  8
LABEL
100
AcDbLine
 10
28.52374532538762
 20
8.710284347278097
 30
0.0
 11
28.64274532538762
 21
8.710284347278097
 31
0.0
  0
LINE
  5
8C7E73DA
330
8C7E6E89
100
AcDbEntity
  8
LABEL
100
AcDbLine
 10
28.52374532538762
 20
8.734284347278098
 30
0.0
 11
28.64274532538762
 21
8.734284347278098
 31
0.0
  0
CIRCLE
  5
8C7E73DB
330
8C7E6E89
100
AcDbEntity
  8
LABEL
100
AcDbCircle
 10
28.58274532538762
 20
8.722284347278092
 30
0.0
 40
0.0610000000000106
  0
LINE
  5
8C7E73DC
330
8C7E6E89
100
AcDbEntity
  8
LABEL
100
AcDbLine
 10
28.52374532538762
 20
8.9102843472781
 30
0.0
 11
28.64274532538762
 21
8.9102843472781
 31
0.0
  0
LINE
  5
8C7E73DD
330
8C7E6E89
100
AcDbEntity
  8
LABEL
100
AcDbLine
 10
28.52374532538762
 20
9.110284347278103
 30
0.0
 11
28.64274532538762
 21
9.110284347278103
 31
0.0
  0
LINE
  5
8C7E73DE
330
8C7E6E89
100
AcDbEntity
  8
LABEL
100
AcDbLine
 10
28.52374532538762
 20
9.134284347278104
 30
0.0
 11
28.64274532538762
 21
9.134284347278104
 31
0.0
  0
CIRCLE
  5
8C7E73DF
330
8C7E6E89
100
AcDbEntity
  8
LABEL
100
AcDbCircle
 10
28.58274532538762
 20
9.122284347278091
 30
0.0
 40
0.0610000000000106
  0
LINE
  5
8C7E73E0
330
8C7E6E89
100
AcDbEntity
  8
LABEL
100
AcDbLine
 10
28.52374532538762
 20
8.934284347278101
 30
0.0
 11
28.64274532538762
 21
8.934284347278101
 31
0.0
  0
CIRCLE
  5
8C7E73E1
330
8C7E6E89
100
AcDbEntity
  8
LABEL
100
AcDbCircle
 10
28.58274532538762
 20
9.722284347278092
 30
0.0
 40
0.0610000000000106
  0
LINE
  5
8C7E73E2
330
8C7E6E89
100
AcDbEntity
  8
LABEL
100
AcDbLine
 10
28.52374532538762
 20
9.510284347278094
 30
0.0
 11
28.64274532538762
 21
9.510284347278094
 31
0.0
  0
LINE
  5
8C7E73E3
330
8C7E6E89
100
AcDbEntity
  8
LABEL
100
AcDbLine
 10
28.52374532538762
 20
9.534284347278095
 30
0.0
 11
28.64274532538762
 21
9.534284347278095
 31
0.0
  0
CIRCLE
  5
8C7E73E4
330
8C7E6E89
100
AcDbEntity
  8
LABEL
100
AcDbCircle
 10
28.58274532538762
 20
9.522284347278089
 30
0.0
 40
0.0610000000000106
  0
LINE
  5
8C7E73E5
330
8C7E6E89
100
AcDbEntity
  8
LABEL
100
AcDbLine
 10
28.52374532538762
 20
9.310284347278106
 30
0.0
 11
28.64274532538762
 21
9.310284347278106
 31
0.0
  0
LINE
  5
8C7E73E6
330
8C7E6E89
100
AcDbEntity
  8
LABEL
100
AcDbLine
 10
28.52374532538762
 20
9.334284347278106
 30
0.0
 11
28.64274532538762
 21
9.334284347278106
 31
0.0
  0
LINE
  5
8C7E73E7
330
8C7E6E89
100
AcDbEntity
  8
LABEL
100
AcDbLine
 10
28.52374532538762
 20
9.710284347278097
 30
0.0
 11
28.64274532538762
 21
9.710284347278097
 31
0.0
  0
LINE
  5
8C7E73E8
330
8C7E6E89
100
AcDbEntity
  8
LABEL
100
AcDbLine
 10
28.52374532538762
 20
9.734284347278098
 30
0.0
 11
28.64274532538762
 21
9.734284347278098
 31
0.0
  0
LINE
  5
8C7E73E9
330
8C7E6E89
100
AcDbEntity
  8
LABEL
100
AcDbLine
 10
28.43274532538762
 20
9.872284347278089
 30
0.0
 11
28.73274532538762
 21
9.872284347278089
 31
0.0
  0
CIRCLE
  5
8C7E73F1
330
8C7E6E89
100
AcDbEntity
  8
LABEL
100
AcDbCircle
 10
23.14274532538762
 20
7.362284347278099
 30
0.0
 40
0.0610000000000106
  0
LINE
  5
8C7E73F2
330
8C7E6E89
100
AcDbEntity
  8
LABEL
100
AcDbLine
 10
23.01774532538762
 20
5.606284347278097
 30
0.0
 11
23.01774532538762
 21
10.11228434727809
 31
0.0
  0
LINE
  5
8C7E73F3
330
8C7E6E89
100
AcDbEntity
  8
LABEL
100
AcDbLine
 10
23.29274532538762
 20
10.11228434727809
 30
0.0
 11
23.29274532538762
 21
5.606284347278097
 31
0.0
  0
LINE
  5
8C7E73F4
330
8C7E6E89
100
AcDbEntity
  8
LABEL
100
AcDbLine
 10
22.99274532538762
 20
6.856284347278097
 30
0.0
 11
22.99274532538762
 21
10.16228434727809
 31
0.0
  0
CIRCLE
  5
8C7E73F5
330
8C7E6E89
100
AcDbEntity
  8
LABEL
100
AcDbCircle
 10
23.14274532538762
 20
9.962284347278082
 30
0.0
 40
0.0610000000000106
  0
LINE
  5
8C7E73F6
330
8C7E6E89
100
AcDbEntity
  8
LABEL
100
AcDbLine
 10
22.99274532538762
 20
10.11228434727809
 30
0.0
 11
23.29274532538762
 21
10.11228434727809
 31
0.0
  0
LINE
  5
8C7E73F7
330
8C7E6E89
100
AcDbEntity
  8
LABEL
100
AcDbLine
 10
23.29274532538762
 20
10.11228434727809
 30
0.0
 11
23.29274532538762
 21
10.11228434727809
 31
0.0
  0
ARC
  5
8C7E73FF
330
8C7E6E89
100
AcDbEntity
  8
LABEL
100
AcDbCircle
 10
22.99274532538762
 20
10.16228434727809
 30
0.0
 40
0.0025000000000013
100
AcDbArc
 50
90.0
 51
270.0
  0
LINE
  5
8C7E7400
330
8C7E6E89
100
AcDbEntity
  8
LABEL
100
AcDbLine
 10
23.20174532538762
 20
9.550284347278086
 30
0.0
 11
23.08274532538761
 21
9.550284347278086
 31
0.0
  0
LINE
  5
8C7E7401
330
8C7E6E89
100
AcDbEntity
  8
LABEL
100
AcDbLine
 10
23.20174532538762
 20
9.574284347278087
 30
0.0
 11
23.08274532538761
 21
9.574284347278087
 31
0.0
  0
LINE
  5
8C7E7402
330
8C7E6E89
100
AcDbEntity
  8
LABEL
100
AcDbLine
 10
23.20174532538762
 20
9.950284347278076
 30
0.0
 11
23.08274532538761
 21
9.950284347278076
 31
0.0
  0
LINE
  5
8C7E7403
330
8C7E6E89
100
AcDbEntity
  8
LABEL
100
AcDbLine
 10
23.20174532538762
 20
9.974284347278077
 30
0.0
 11
23.08274532538761
 21
9.974284347278077
 31
0.0
  0
CIRCLE
  5
8C7E7407
330
8C7E6E89
100
AcDbEntity
  8
LABEL
100
AcDbCircle
 10
23.14274532538762
 20
9.562284347278092
 30
0.0
 40
0.0610000000000106
  0
CIRCLE
  5
8C7E7408
330
8C7E6E89
100
AcDbEntity
  8
LABEL
100
AcDbCircle
 10
23.14274532538762
 20
8.362284347278093
 30
0.0
 40
0.0610000000000106
  0
CIRCLE
  5
8C7E7409
330
8C7E6E89
100
AcDbEntity
  8
LABEL
100
AcDbCircle
 10
23.14274532538762
 20
8.962284347278101
 30
0.0
 40
0.0610000000000106
  0
LINE
  5
8C7E740A
330
8C7E6E89
100
AcDbEntity
  8
LABEL
100
AcDbLine
 10
23.20174532538762
 20
9.150284347278091
 30
0.0
 11
23.08274532538761
 21
9.150284347278091
 31
0.0
  0
LINE
  5
8C7E740B
330
8C7E6E89
100
AcDbEntity
  8
LABEL
100
AcDbLine
 10
23.20174532538762
 20
9.174284347278092
 30
0.0
 11
23.08274532538761
 21
9.174284347278092
 31
0.0
  0
LINE
  5
8C7E740C
330
8C7E6E89
100
AcDbEntity
  8
LABEL
100
AcDbLine
 10
23.20174532538762
 20
8.950284347278088
 30
0.0
 11
23.08274532538761
 21
8.950284347278088
 31
0.0
  0
LINE
  5
8C7E740D
330
8C7E6E89
100
AcDbEntity
  8
LABEL
100
AcDbLine
 10
23.20174532538762
 20
8.974284347278089
 30
0.0
 11
23.08274532538761
 21
8.974284347278089
 31
0.0
  0
CIRCLE
  5
8C7E740E
330
8C7E6E89
100
AcDbEntity
  8
LABEL
100
AcDbCircle
 10
23.14274532538762
 20
9.362284347278089
 30
0.0
 40
0.0610000000000106
  0
LINE
  5
8C7E740F
330
8C7E6E89
100
AcDbEntity
  8
LABEL
100
AcDbLine
 10
23.20174532538762
 20
9.350284347278083
 30
0.0
 11
23.08274532538761
 21
9.350284347278083
 31
0.0
  0
LINE
  5
8C7E7410
330
8C7E6E89
100
AcDbEntity
  8
LABEL
100
AcDbLine
 10
23.20174532538762
 20
9.374284347278084
 30
0.0
 11
23.08274532538761
 21
9.374284347278084
 31
0.0
  0
CIRCLE
  5
8C7E7411
330
8C7E6E89
100
AcDbEntity
  8
LABEL
100
AcDbCircle
 10
23.14274532538762
 20
9.162284347278104
 30
0.0
 40
0.0610000000000106
  0
CIRCLE
  5
8C7E7412
330
8C7E6E89
100
AcDbEntity
  8
LABEL
100
AcDbCircle
 10
23.14274532538762
 20
8.562284347278096
 30
0.0
 40
0.0610000000000106
  0
LINE
  5
8C7E7413
330
8C7E6E89
100
AcDbEntity
  8
LABEL
100
AcDbLine
 10
23.20174532538762
 20
8.550284347278083
 30
0.0
 11
23.08274532538761
 21
8.550284347278083
 31
0.0
  0
LINE
  5
8C7E7414
330
8C7E6E89
100
AcDbEntity
  8
LABEL
100
AcDbLine
 10
23.20174532538762
 20
8.574284347278084
 30
0.0
 11
23.08274532538761
 21
8.574284347278084
 31
0.0
  0
CIRCLE
  5
8C7E7415
330
8C7E6E89
100
AcDbEntity
  8
LABEL
100
AcDbCircle
 10
23.14274532538762
 20
8.762284347278098
 30
0.0
 40
0.0610000000000106
  0
LINE
  5
8C7E7416
330
8C7E6E89
100
AcDbEntity
  8
LABEL
100
AcDbLine
 10
23.20174532538762
 20
8.750284347278086
 30
0.0
 11
23.08274532538761
 21
8.750284347278086
 31
0.0
  0
LINE
  5
8C7E7417
330
8C7E6E89
100
AcDbEntity
  8
LABEL
100
AcDbLine
 10
23.20174532538762
 20
8.774284347278086
 30
0.0
 11
23.08274532538761
 21
8.774284347278086
 31
0.0
  0
CIRCLE
  5
8C7E7418
330
8C7E6E89
100
AcDbEntity
  8
LABEL
100
AcDbCircle
 10
23.14274532538762
 20
7.962284347278101
 30
0.0
 40
0.0610000000000106
  0
LINE
  5
8C7E7419
330
8C7E6E89
100
AcDbEntity
  8
LABEL
100
AcDbLine
 10
23.20174532538762
 20
7.950284347278087
 30
0.0
 11
23.08274532538761
 21
7.950284347278087
 31
0.0
  0
LINE
  5
8C7E741A
330
8C7E6E89
100
AcDbEntity
  8
LABEL
100
AcDbLine
 10
23.20174532538762
 20
7.974284347278087
 30
0.0
 11
23.08274532538761
 21
7.974284347278087
 31
0.0
  0
CIRCLE
  5
8C7E741B
330
8C7E6E89
100
AcDbEntity
  8
LABEL
100
AcDbCircle
 10
23.14274532538762
 20
8.162284347278104
 30
0.0
 40
0.0610000000000106
  0
LINE
  5
8C7E741C
330
8C7E6E89
100
AcDbEntity
  8
LABEL
100
AcDbLine
 10
23.20174532538762
 20
8.150284347278089
 30
0.0
 11
23.08274532538761
 21
8.150284347278089
 31
0.0
  0
LINE
  5
8C7E741D
330
8C7E6E89
100
AcDbEntity
  8
LABEL
100
AcDbLine
 10
23.20174532538762
 20
8.17428434727809
 30
0.0
 11
23.08274532538761
 21
8.17428434727809
 31
0.0
  0
LINE
  5
8C7E741E
330
8C7E6E89
100
AcDbEntity
  8
LABEL
100
AcDbLine
 10
23.20174532538762
 20
8.35028434727808
 30
0.0
 11
23.08274532538761
 21
8.35028434727808
 31
0.0
  0
LINE
  5
8C7E741F
330
8C7E6E89
100
AcDbEntity
  8
LABEL
100
AcDbLine
 10
23.20174532538762
 20
8.374284347278081
 30
0.0
 11
23.08274532538761
 21
8.374284347278081
 31
0.0
  0
LINE
  5
8C7E7423
330
8C7E6E89
100
AcDbEntity
  8
LABEL
100
AcDbLine
 10
23.20174532538762
 20
7.750284347278084
 30
0.0
 11
23.08274532538761
 21
7.750284347278084
 31
0.0
  0
LINE
  5
8C7E7424
330
8C7E6E89
100
AcDbEntity
  8
LABEL
100
AcDbLine
 10
23.20174532538762
 20
7.774284347278085
 30
0.0
 11
23.08274532538761
 21
7.774284347278085
 31
0.0
  0
CIRCLE
  5
8C7E7425
330
8C7E6E89
100
AcDbEntity
  8
LABEL
100
AcDbCircle
 10
23.14274532538762
 20
7.762284347278098
 30
0.0
 40
0.0610000000000106
  0
LINE
  5
8C7E7427
330
8C7E6E89
100
AcDbEntity
  8
LABEL
100
AcDbLine
 10
23.20174532538762
 20
6.950284347278087
 30
0.0
 11
23.08274532538761
 21
6.950284347278087
 31
0.0
  0
LINE
  5
8C7E7428
330
8C7E6E89
100
AcDbEntity
  8
LABEL
100
AcDbLine
 10
23.20174532538762
 20
6.974284347278087
 30
0.0
 11
23.08274532538761
 21
6.974284347278087
 31
0.0
  0
CIRCLE
  5
8C7E7429
330
8C7E6E89
100
AcDbEntity
  8
LABEL
100
AcDbCircle
 10
23.14274532538762
 20
7.162284347278096
 30
0.0
 40
0.0610000000000106
  0
LINE
  5
8C7E742A
330
8C7E6E89
100
AcDbEntity
  8
LABEL
100
AcDbLine
 10
23.20174532538762
 20
7.150284347278089
 30
0.0
 11
23.08274532538761
 21
7.150284347278089
 31
0.0
  0
LINE
  5
8C7E742B
330
8C7E6E89
100
AcDbEntity
  8
LABEL
100
AcDbLine
 10
23.20174532538762
 20
7.17428434727809
 30
0.0
 11
23.08274532538761
 21
7.17428434727809
 31
0.0
  0
CIRCLE
  5
8C7E742C
330
8C7E6E89
100
AcDbEntity
  8
LABEL
100
AcDbCircle
 10
23.14274532538762
 20
6.962284347278093
 30
0.0
 40
0.0610000000000106
  0
LINE
  5
8C7E742D
330
8C7E6E89
100
AcDbEntity
  8
LABEL
100
AcDbLine
 10
23.20174532538762
 20
7.350284347278092
 30
0.0
 11
23.08274532538761
 21
7.350284347278092
 31
0.0
  0
LINE
  5
8C7E742E
330
8C7E6E89
100
AcDbEntity
  8
LABEL
100
AcDbLine
 10
23.20174532538762
 20
7.374284347278093
 30
0.0
 11
23.08274532538761
 21
7.374284347278093
 31
0.0
  0
LINE
  5
8C7E7437
330
8C7E6E89
100
AcDbEntity
  8
LABEL
100
AcDbLine
 10
23.29274532538762
 20
5.606284347278097
 30
0.0
 11
22.99274532538762
 21
5.606284347278097
 31
0.0
  0
LINE
  5
8C7E749E
330
8C7E6E89
100
AcDbEntity
  8
LABEL
100
AcDbLine
 10
25.82274532538763
 20
10.88728434727809
 30
0.0
 11
26.32274532538762
 21
10.88728434727809
 31
0.0
  0
LINE
  5
8C7E749F
330
8C7E6E89
100
AcDbEntity
  8
LABEL
100
AcDbLine
 10
26.32274532538762
 20
10.58728434727809
 30
0.0
 11
25.82274532538763
 21
10.58728434727809
 31
0.0
  0
LINE
  5
8C7E74A0
330
8C7E6E89
100
AcDbEntity
  8
LABEL
100
AcDbLine
 10
25.82274532538763
 20
10.86228434727809
 30
0.0
 11
26.32274532538762
 21
10.86228434727809
 31
0.0
  0
LINE
  5
8C7E74A4
330
8C7E6E89
100
AcDbEntity
  8
LABEL
100
AcDbLine
 10
26.32274532538762
 20
10.88728434727809
 30
0.0
 11
26.32274532538762
 21
10.58728434727809
 31
0.0
  0
CIRCLE
  5
8C7E74E1
330
8C7E6E89
100
AcDbEntity
  8
LABEL
100
AcDbCircle
 10
25.97274532538762
 20
10.73728434727809
 30
0.0
 40
0.0610000000000106
  0
LINE
  5
8C7E74E2
330
8C7E6E89
100
AcDbEntity
  8
LABEL
100
AcDbLine
 10
26.18474532538762
 20
10.67828434727809
 30
0.0
 11
26.18474532538762
 21
10.79728434727809
 31
0.0
  0
LINE
  5
8C7E74E3
330
8C7E6E89
100
AcDbEntity
  8
LABEL
100
AcDbLine
 10
26.16074532538762
 20
10.67828434727809
 30
0.0
 11
26.16074532538762
 21
10.79728434727809
 31
0.0
  0
CIRCLE
  5
8C7E74E4
330
8C7E6E89
100
AcDbEntity
  8
LABEL
100
AcDbCircle
 10
26.17274532538763
 20
10.73728434727809
 30
0.0
 40
0.0610000000000106
  0
LINE
  5
8C7E74E7
330
8C7E6E89
100
AcDbEntity
  8
LABEL
100
AcDbLine
 10
25.98474532538761
 20
10.67828434727809
 30
0.0
 11
25.98474532538761
 21
10.79728434727809
 31
0.0
  0
LINE
  5
8C7E74E8
330
8C7E6E89
100
AcDbEntity
  8
LABEL
100
AcDbLine
 10
25.96074532538761
 20
10.67828434727809
 30
0.0
 11
25.96074532538761
 21
10.79728434727809
 31
0.0
  0
LINE
  5
8C7E74E9
330
8C7E6E89
100
AcDbEntity
  8
LABEL
100
AcDbLine
 10
25.82274532538763
 20
10.58728434727809
 30
0.0
 11
25.82274532538763
 21
10.88728434727809
 31
0.0
  0
ARC
  5
8C7E74F3
330
8C7E6E89
100
AcDbEntity
  8
CASE
100
AcDbCircle
 10
29.23774532538762
 20
5.1122843472781
 30
0.0
 40
0.1250000000000018
100
AcDbArc
 50
270.0000000000008
 51
0.0000000000008142
  0
ARC
  5
8C7E74F4
330
8C7E6E89
100
AcDbEntity
  8
CASE
100
AcDbCircle
 10
22.48774532538763
 20
5.1122843472781
 30
0.0
 40
0.1250000000000015
100
AcDbArc
 50
179.999999999999
 51
269.9999999999989
  0
INSERT
  5
8C7E74F5
330
8C7E6E89
100
AcDbEntity
  8
CASE
100
AcDbBlockReference
  2
ACAD1C6F
 10
22.61274532538763
 20
10.61228434727809
 30
0.0
 50
270.0
  0
LINE
  5
8C7E74F6
330
8C7E6E89
100
AcDbEntity
  8
CASE
100
AcDbLine
 10
29.23774532538762
 20
10.98728434727809
 30
0.0
 11
22.48774532538762
 21
10.98728434727809
 31
0.0
  0
LINE
  5
8C7E74F7
330
8C7E6E89
100
AcDbEntity
  8
CASE
100
AcDbLine
 10
29.23774532538762
 20
4.987284347278098
 30
0.0
 11
22.48774532538762
 21
4.987284347278098
 31
0.0
  0
INSERT
  5
8C7E74F8
330
8C7E6E89
100
AcDbEntity
  8
CASE
100
AcDbBlockReference
  2
ACAD0626
 10
22.61274532538763
 20
5.862392918706667
 30
0.0
 50
270.0
  0
LINE
  5
8C7E74F9
330
8C7E6E89
100
AcDbEntity
  8
CASE
100
AcDbLine
 10
22.36274532538762
 20
5.112284347278102
 30
0.0
 11
22.36274532538762
 21
10.8622843472781
 31
0.0
  0
ARC
  5
8C7E74FA
330
8C7E6E89
100
AcDbEntity
  8
CASE
100
AcDbCircle
 10
22.48774532538762
 20
10.86228434727809
 30
0.0
 40
0.1249999999999982
100
AcDbArc
 50
89.9999999999992
 51
179.9999999999991
  0
LINE
  5
8C7E74FD
330
8C7E6E89
100
AcDbEntity
  8
CASE
100
AcDbLine
 10
22.86274532538763
 20
4.987284347278098
 30
0.0
 11
22.86274532538763
 21
10.98728434727809
 31
0.0
  0
LINE
  5
8C7E74FE
330
8C7E6E89
100
AcDbEntity
  8
CASE
100
AcDbLine
 10
28.86274532538762
 20
4.987284347278098
 30
0.0
 11
28.86274532538762
 21
10.98728434727809
 31
0.0
  0
LINE
  5
8C7E74FF
330
8C7E6E89
100
AcDbEntity
  8
CASE
100
AcDbLine
 10
29.36274532538762
 20
5.112284347278102
 30
0.0
 11
29.36274532538762
 21
10.8622843472781
 31
0.0
  0
INSERT
  5
8C7E7514
330
8C7E6E89
100
AcDbEntity
  8
CASE
100
AcDbBlockReference
  2
ACAD006E
 10
29.11274532538762
 20
5.862392918706667
 30
0.0
 50
270.0
  0
INSERT
  5
8C7E752C
330
8C7E6E89
100
AcDbEntity
  8
CASE
100
AcDbBlockReference
  2
ACAD0312
 10
29.11274532538762
 20
10.61228434727809
 30
0.0
 50
270.0
  0
ARC
  5
8C7E752D
330
8C7E6E89
100
AcDbEntity
  8
CASE
100
AcDbCircle
 10
29.23774532538762
 20
10.86228434727809
 30
0.0
 40
0.1249999999999982
100
AcDbArc
 50
0.0000000000008142
 51
90.00000000000081
  0
TEXT
  5
8C7E7665
330
8C7E6E89
100
AcDbEntity
  8
COMP
100
AcDbText
 10
24.52703103967333
 20
9.270784347278089
 30
0.0
 40
0.075
  1
TX
  7
ADESK1
 72
     4
 11
24.58774532538761
 21
9.308284347278089
 31
0.0
100
AcDbText
  0
TEXT
  5
8C7E7666
330
8C7E6E89
100
AcDbEntity
  8
COMP
100
AcDbText
 10
24.38195961110191
 20
5.729784347278096
 30
0.0
 40
0.075
  1
Status
  7
ADESK1
 72
     4
 11
24.55874532538762
 21
5.767284347278096
 31
0.0
100
AcDbText
  0
TEXT
  5
8C7E7667
330
8C7E6E89
100
AcDbEntity
  8
COMP
100
AcDbText
 10
24.40160246824477
 20
5.604784347278096
 30
0.0
 40
0.075
  1
Reset
  7
ADESK1
 72
     4
 11
24.55874532538762
 21
5.642284347278096
 31
0.0
100
AcDbText
  0
TEXT
  5
8C7E7668
330
8C7E6E89
100
AcDbEntity
  8
COMP
100
AcDbText
 10
24.38731675395906
 20
5.850784347278096
 30
0.0
 40
0.075
  1
Power
  7
ADESK1
 72
     4
 11
24.55874532538762
 21
5.888284347278096
 31
0.0
100
AcDbText
  0
LINE
  5
8C7E7669
330
8C7E6E89
100
AcDbEntity
  8
COMP
100
AcDbLine
 10
23.48774532538762
 20
5.512284347278097
 30
0.0
 11
27.12274532538762
 21
5.512284347278097
 31
0.0
  0
LINE
  5
8C7E766A
330
8C7E6E89
100
AcDbEntity
  8
COMP
100
AcDbLine
 10
25.90774532538762
 20
9.392284347278099
 30
0.0
 11
24.42774532538762
 21
9.392284347278099
 31
0.0
  0
LWPOLYLINE
  5
8C7E766B
330
8C7E6E89
100
AcDbEntity
  8
COMP
100
AcDbPolyline
 90
        3
 70
     0
 43
0.02
 10
24.11274532538763
 20
8.362284347278098
 10
24.11274532538763
 20
7.662284347278094
 10
23.48774532538763
 20
7.662284347278094
  0
LINE
  5
8C7E766C
330
8C7E6E89
100
AcDbEntity
  8
COMP
100
AcDbLine
 10
23.48774532538762
 20
5.512284347278097
 30
0.0
 11
23.48774532538762
 21
10.4622843472781
 31
0.0
  0
TEXT
  5
8C7E766D
330
8C7E6E89
100
AcDbEntity
  8
COMP
100
AcDbText
 10
23.58560246824478
 20
6.606712918706674
 30
0.0
 40
0.075
  1
-
 50
270.0
  7
ADESK1
 72
     4
 11
23.61774532538764
 21
6.560284347278102
 31
0.0
100
AcDbText
  0
TEXT
  5
8C7E766E
330
8C7E6E89
100
AcDbEntity
  8
COMP
100
AcDbText
 10
23.57924532538763
 20
6.092641490135237
 30
0.0
 40
0.075
  1
10-26V
 50
270.0
  7
ADESK1
 72
     4
 11
23.61674532538763
 21
5.862284347278094
 31
0.0
100
AcDbText
  0
LWPOLYLINE
  5
8C7E766F
330
8C7E6E89
100
AcDbEntity
  8
COMP
100
AcDbPolyline
 90
        3
 70
     0
 43
0.02
 10
24.11274532538761
 20
5.626284347278097
 10
24.11274532538761
 20
5.626284347278097
 10
23.48774532538761
 20
5.626284347278097
  0
TEXT
  5
8C7E7670
330
8C7E6E89
100
AcDbEntity
  8
COMP
100
AcDbText
 10
23.89224532538763
 20
6.398141490135238
 30
0.0
 40
0.075
  1
Aux
 50
270.0
  7
ADESK1
 72
     4
 11
23.92974532538763
 21
6.305284347278095
 31
0.0
100
AcDbText
  0
LWPOLYLINE
  5
8C7E7671
330
8C7E6E89
100
AcDbEntity
  8
COMP
100
AcDbPolyline
 90
        3
 70
     0
 43
0.02
 10
24.11274532538763
 20
6.462284347278095
 10
24.11274532538763
 20
6.462284347278095
 10
23.48774532538763
 20
6.462284347278095
  0
TEXT
  5
8C7E7672
330
8C7E6E89
100
AcDbEntity
  8
COMP
100
AcDbText
 10
23.80960246824477
 20
6.120712918706666
 30
0.0
 40
0.075
  1
-
 50
270.0
  7
ADESK1
 72
     4
 11
23.84174532538763
 21
6.074284347278094
 31
0.0
100
AcDbText
  0
LINE
  5
8C7E7673
330
8C7E6E89
100
AcDbEntity
  8
COMP
100
AcDbLine
 10
23.81374532538763
 20
6.020284347278094
 30
0.0
 11
23.81374532538763
 21
5.904284347278094
 31
0.0
  0
LINE
  5
8C7E7674
330
8C7E6E89
100
AcDbEntity
  8
COMP
100
AcDbLine
 10
23.81374532538763
 20
5.904284347278094
 30
0.0
 11
23.86974532538763
 21
5.904284347278094
 31
0.0
  0
LINE
  5
8C7E7675
330
8C7E6E89
100
AcDbEntity
  8
COMP
100
AcDbLine
 10
23.86974532538763
 20
5.904284347278094
 30
0.0
 11
23.86974532538763
 21
6.020284347278094
 31
0.0
  0
LINE
  5
8C7E7676
330
8C7E6E89
100
AcDbEntity
  8
COMP
100
AcDbLine
 10
23.86974532538763
 20
6.020284347278094
 30
0.0
 11
23.81374532538763
 21
6.020284347278094
 31
0.0
  0
TEXT
  5
8C7E7677
330
8C7E6E89
100
AcDbEntity
  8
COMP
100
AcDbText
 10
23.80960246824477
 20
5.898712918706666
 30
0.0
 40
0.075
  1
+
 50
270.0
  7
ADESK1
 72
     4
 11
23.84174532538763
 21
5.852284347278095
 31
0.0
100
AcDbText
  0
LWPOLYLINE
  5
8C7E7678
330
8C7E6E89
100
AcDbEntity
  8
COMP
100
AcDbPolyline
 90
        3
 70
     0
 43
0.02
 10
23.74974532538763
 20
5.938284347278095
 10
23.74974532538763
 20
5.962284347278095
 10
23.68474532538763
 20
5.962284347278095
  0
ARC
  5
8C7E7679
330
8C7E6E89
100
AcDbEntity
  8
COMP
100
AcDbCircle
 10
23.74974532538763
 20
5.836284347278095
 30
0.0
 40
0.0259999999999998
100
AcDbArc
 50
270.0
 51
90.0
  0
LWPOLYLINE
  5
8C7E767A
330
8C7E6E89
100
AcDbEntity
  8
COMP
100
AcDbPolyline
 90
        3
 70
     0
 43
0.02
 10
23.74974532538763
 20
5.786284347278095
 10
23.74974532538763
 20
5.762284347278095
 10
23.68474532538763
 20
5.762284347278095
  0
ARC
  5
8C7E767B
330
8C7E6E89
100
AcDbEntity
  8
COMP
100
AcDbCircle
 10
23.74974532538763
 20
5.888284347278094
 30
0.0
 40
0.0259999999999998
100
AcDbArc
 50
90.0
 51
270.0
  0
LWPOLYLINE
  5
8C7E767C
330
8C7E6E89
100
AcDbEntity
  8
COMP
100
AcDbPolyline
 90
        3
 70
     0
 43
0.02
 10
23.84174532538763
 20
5.796284347278095
 10
23.84174532538763
 20
5.762284347278095
 10
23.78074532538763
 20
5.762284347278095
  0
TEXT
  5
8C7E767D
330
8C7E6E89
100
AcDbEntity
  8
COMP
100
AcDbText
 10
23.67924532538763
 20
6.401712918706667
 30
0.0
 40
0.075
  1
Out
 50
270.0
  7
ADESK1
 72
     4
 11
23.71674532538763
 21
6.305284347278095
 31
0.0
100
AcDbText
  0
TEXT
  5
8C7E767E
330
8C7E6E89
100
AcDbEntity
  8
COMP
100
AcDbText
 10
23.58560246824478
 20
6.408712918706666
 30
0.0
 40
0.075
  1
+
 50
270.0
  7
ADESK1
 72
     4
 11
23.61774532538764
 21
6.362284347278094
 31
0.0
100
AcDbText
  0
TEXT
  5
8C7E767F
330
8C7E6E89
100
AcDbEntity
  8
COMP
100
AcDbText
 10
23.58460246824477
 20
6.208712918706667
 30
0.0
 40
0.075
  1
-
 50
270.0
  7
ADESK1
 72
     4
 11
23.61674532538763
 21
6.162284347278095
 31
0.0
100
AcDbText
  0
TEXT
  5
8C7E7680
330
8C7E6E89
100
AcDbEntity
  8
COMP
100
AcDbText
 10
23.78724532538763
 20
6.410641490135238
 30
0.0
 40
0.075
  1
Pwr
 50
270.0
  7
ADESK1
 72
     4
 11
23.82474532538763
 21
6.305284347278095
 31
0.0
100
AcDbText
  0
LWPOLYLINE
  5
8C7E7681
330
8C7E6E89
100
AcDbEntity
  8
COMP
100
AcDbPolyline
 90
        3
 70
     0
 43
0.02
 10
23.84174532538763
 20
6.135284347278094
 10
23.84174532538763
 20
6.162284347278094
 10
23.68574532538763
 20
6.162284347278094
  0
TEXT
  5
8C7E7682
330
8C7E6E89
100
AcDbEntity
  8
COMP
100
AcDbText
 10
23.92724532538763
 20
6.192641490135237
 30
0.0
 40
0.075
  1
10-36V
 50
270.0
  7
ADESK1
 72
     4
 11
23.96474532538763
 21
5.962284347278094
 31
0.0
100
AcDbText
  0
TEXT
  5
8C7E7683
330
8C7E6E89
100
AcDbEntity
  8
COMP
100
AcDbText
 10
24.06124532538763
 20
6.133712918706666
 30
0.0
 40
0.075
  1
Power
 50
270.0
  7
ADESK1
 72
     4
 11
24.09874532538763
 21
5.962284347278094
 31
0.0
100
AcDbText
  0
LINE
  5
8C7E7684
330
8C7E6E89
100
AcDbEntity
  8
COMP
100
AcDbLine
 10
23.84278588035851
 20
7.362284347278095
 30
0.0
 11
23.84278588035851
 21
7.519017304001638
 31
0.0
  0
TEXT
  5
8C7E7685
330
8C7E6E89
100
AcDbEntity
  8
COMP
100
AcDbText
 10
24.08274532538763
 20
7.574784347278096
 30
0.0
 40
0.075
  1
Analog Out
 50
270.0
  7
ADESK1
 72
     4
 11
24.10774532538763
 21
7.262284347278096
 31
0.0
100
AcDbText
  0
TEXT
  5
8C7E7686
330
8C7E6E89
100
AcDbEntity
  8
COMP
100
AcDbText
 10
23.57124532538763
 20
7.324784347278096
 30
0.0
 40
0.075
  1
C
  7
ADESK1
 72
     4
 11
23.60874532538764
 21
7.362284347278095
 31
0.0
100
AcDbText
  0
LINE
  5
8C7E7687
330
8C7E6E89
100
AcDbEntity
  8
COMP
100
AcDbLine
 10
23.87774532538763
 20
7.162284347278094
 30
0.0
 11
23.96274532538764
 21
7.162284347278094
 31
0.0
  0
LWPOLYLINE
  5
8C7E7688
330
8C7E6E89
100
AcDbEntity
  8
COMP
100
AcDbPolyline
 90
        3
 70
     0
 43
0.02
 10
24.11274532538763
 20
6.862284347278094
 10
24.11274532538763
 20
6.862284347278094
 10
23.48774532538763
 20
6.862284347278094
  0
TEXT
  5
8C7E7689
330
8C7E6E89
100
AcDbEntity
  8
COMP
100
AcDbText
 10
23.87024532538763
 20
6.710498632992381
 30
0.0
 40
0.075
  1
In
 50
270.0
  7
ADESK1
 72
     4
 11
23.90774532538763
 21
6.662284347278095
 31
0.0
100
AcDbText
  0
LINE
  5
8C7E768A
330
8C7E6E89
100
AcDbEntity
  8
COMP
100
AcDbLine
 10
23.84278588035851
 20
6.962284347278093
 30
0.0
 11
23.84278588035851
 21
7.119017304001638
 31
0.0
  0
TEXT
  5
8C7E768B
330
8C7E6E89
100
AcDbEntity
  8
COMP
100
AcDbText
 10
23.57124532538763
 20
6.924784347278094
 30
0.0
 40
0.075
  1
C
  7
ADESK1
 72
     4
 11
23.60874532538764
 21
6.962284347278093
 31
0.0
100
AcDbText
  0
LINE
  5
8C7E768C
330
8C7E6E89
100
AcDbEntity
  8
COMP
100
AcDbLine
 10
23.71874532538764
 20
6.962284347278093
 30
0.0
 11
23.84278588035851
 21
6.962284347278093
 31
0.0
  0
TEXT
  5
8C7E768D
330
8C7E6E89
100
AcDbEntity
  8
COMP
100
AcDbText
 10
23.57131675395907
 20
6.730141490135238
 30
0.0
 40
0.075
  1
+
  7
ADESK1
 72
     4
 11
23.61774532538764
 21
6.762284347278096
 31
0.0
100
AcDbText
  0
LINE
  5
8C7E768E
330
8C7E6E89
100
AcDbEntity
  8
COMP
100
AcDbLine
 10
23.87774532538763
 20
7.227284347278094
 30
0.0
 11
23.87774532538763
 21
7.097284347278095
 31
0.0
  0
TEXT
  5
8C7E768F
330
8C7E6E89
100
AcDbEntity
  8
COMP
100
AcDbText
 10
23.57303103967335
 20
7.124784347278095
 30
0.0
 40
0.075
  1
2
  7
ADESK1
 72
     4
 11
23.60874532538764
 21
7.162284347278094
 31
0.0
100
AcDbText
  0
TEXT
  5
8C7E7690
330
8C7E6E89
100
AcDbEntity
  8
COMP
100
AcDbText
 10
23.71790182195918
 20
7.186224790560816
 30
0.0
 40
0.06
  1
+
  7
ADESK1
 72
     4
 11
23.75504467910203
 21
7.211939076275101
 31
0.0
100
AcDbText
  0
LINE
  5
8C7E7691
330
8C7E6E89
100
AcDbEntity
  8
COMP
100
AcDbLine
 10
23.71874532538764
 20
7.162284347278094
 30
0.0
 11
23.77774532538763
 21
7.162284347278094
 31
0.0
  0
LINE
  5
8C7E7692
330
8C7E6E89
100
AcDbEntity
  8
COMP
100
AcDbLine
 10
23.77774532538763
 20
7.162284347278094
 30
0.0
 11
23.87774532538763
 21
7.227284347278094
 31
0.0
  0
LINE
  5
8C7E7693
330
8C7E6E89
100
AcDbEntity
  8
COMP
100
AcDbLine
 10
23.77774532538763
 20
7.162284347278094
 30
0.0
 11
23.87774532538763
 21
7.097284347278095
 31
0.0
  0
LINE
  5
8C7E7694
330
8C7E6E89
100
AcDbEntity
  8
COMP
100
AcDbLine
 10
23.71874532538764
 20
7.362284347278095
 30
0.0
 11
23.84278588035851
 21
7.362284347278095
 31
0.0
  0
TEXT
  5
8C7E7695
330
8C7E6E89
100
AcDbEntity
  8
COMP
100
AcDbText
 10
24.07024532538763
 20
6.780141490135238
 30
0.0
 40
0.075
  1
Batt
 50
270.0
  7
ADESK1
 72
     4
 11
24.10774532538763
 21
6.662284347278095
 31
0.0
100
AcDbText
  0
LINE
  5
8C7E7696
330
8C7E6E89
100
AcDbEntity
  8
COMP
100
AcDbLine
 10
23.87774532538763
 20
7.562284347278095
 30
0.0
 11
23.96274532538764
 21
7.562284347278095
 31
0.0
  0
LINE
  5
8C7E7697
330
8C7E6E89
100
AcDbEntity
  8
COMP
100
AcDbLine
 10
23.62774532538765
 20
7.762284347278096
 30
0.0
 11
23.48774532538764
 21
7.762284347278096
 31
0.0
  0
LINE
  5
8C7E7698
330
8C7E6E89
100
AcDbEntity
  8
COMP
100
AcDbLine
 10
23.87774532538763
 20
7.627284347278096
 30
0.0
 11
23.87774532538763
 21
7.497284347278093
 31
0.0
  0
TEXT
  5
8C7E7699
330
8C7E6E89
100
AcDbEntity
  8
COMP
100
AcDbText
 10
23.57838818253049
 20
7.524784347278095
 30
0.0
 40
0.075
  1
1
  7
ADESK1
 72
     4
 11
23.60874532538764
 21
7.562284347278095
 31
0.0
100
AcDbText
  0
LINE
  5
8C7E769A
330
8C7E6E89
100
AcDbEntity
  8
COMP
100
AcDbLine
 10
23.71874532538764
 20
7.562284347278095
 30
0.0
 11
23.77774532538763
 21
7.562284347278095
 31
0.0
  0
TEXT
  5
8C7E769B
330
8C7E6E89
100
AcDbEntity
  8
COMP
100
AcDbText
 10
23.71790182195918
 20
7.586224790560816
 30
0.0
 40
0.06
  1
+
  7
ADESK1
 72
     4
 11
23.75504467910203
 21
7.611939076275102
 31
0.0
100
AcDbText
  0
LINE
  5
8C7E769C
330
8C7E6E89
100
AcDbEntity
  8
COMP
100
AcDbLine
 10
23.77774532538763
 20
7.562284347278095
 30
0.0
 11
23.87774532538763
 21
7.497284347278093
 31
0.0
  0
LINE
  5
8C7E769D
330
8C7E6E89
100
AcDbEntity
  8
COMP
100
AcDbLine
 10
23.77774532538763
 20
7.562284347278095
 30
0.0
 11
23.87774532538763
 21
7.627284347278096
 31
0.0
  0
MTEXT
  5
8C7E769E
330
8C7E6E89
100
AcDbEntity
  8
COMP
100
AcDbMText
 10
23.81774532538764
 20
7.762284347278096
 30
0.0
 40
0.075
 41
0.038
 71
     5
 72
     5
  1
C
 11
-0.0000000000000002
 21
-1.0
 31
0.0
1001
ACAD
1000
MTEXTBEGIN
1070
    73
1070
     1
1070
    44
1040
1.0
1070
    74
1070
     0
1000
MTEXTEND
  0
LINE
  5
8C7E769F
330
8C7E6E89
100
AcDbEntity
  8
COMP
100
AcDbLine
 10
23.62774532538764
 20
7.962284347278095
 30
0.0
 11
23.48774532538763
 21
7.962284347278095
 31
0.0
  0
LINE
  5
8C7E76A0
330
8C7E6E89
100
AcDbEntity
  8
COMP
100
AcDbLine
 10
23.62774532538763
 20
8.162284347278095
 30
0.0
 11
23.48774532538763
 21
8.162284347278095
 31
0.0
  0
MTEXT
  5
8C7E76A1
330
8C7E6E89
100
AcDbEntity
  8
COMP
100
AcDbMText
 10
23.70274532538763
 20
8.162284347278095
 30
0.0
 40
0.075
 41
0.038
 71
     5
 72
     5
  1
I
 11
-0.0000000000000002
 21
-1.0
 31
0.0
1001
ACAD
1000
MTEXTBEGIN
1070
    73
1070
     1
1070
    44
1040
1.0
1070
    74
1070
     0
1000
MTEXTEND
  0
MTEXT
  5
8C7E76A2
330
8C7E6E89
100
AcDbEntity
  8
COMP
100
AcDbMText
 10
23.81774532538764
 20
7.962284347278095
 30
0.0
 40
0.075
 41
0.038
 71
     5
 72
     5
  1
R
 11
-0.0000000000000002
 21
-1.0
 31
0.0
1001
ACAD
1000
MTEXTBEGIN
1070
    73
1070
     1
1070
    44
1040
1.0
1070
    74
1070
     0
1000
MTEXTEND
  0
MTEXT
  5
8C7E76A3
330
8C7E6E89
100
AcDbEntity
  8
COMP
100
AcDbMText
 10
23.81774532538763
 20
8.162284347278095
 30
0.0
 40
0.075
 41
0.038
 71
     5
 72
     5
  1
V
 11
-0.0000000000000002
 21
-1.0
 31
0.0
1001
ACAD
1000
MTEXTBEGIN
1070
    73
1070
     1
1070
    44
1040
1.0
1070
    74
1070
     0
1000
MTEXTEND
  0
LWPOLYLINE
  5
8C7E76A4
330
8C7E6E89
100
AcDbEntity
  8
COMP
100
AcDbPolyline
 90
        3
 70
     0
 43
0.02
 10
23.91774532538763
 20
7.762284347278098
 10
23.98774532538763
 20
7.762284347278098
 10
23.98774532538763
 20
7.917284347278097
  0
MTEXT
  5
8C7E76A5
330
8C7E6E89
100
AcDbEntity
  8
COMP
100
AcDbMText
 10
23.98774532538763
 20
7.962284347278099
 30
0.0
 40
0.075
 41
0.038
 71
     5
 72
     5
  1
4
 11
-0.0000000000000002
 21
-1.0
 31
0.0
1001
ACAD
1000
MTEXTBEGIN
1070
    73
1070
     1
1070
    44
1040
1.0
1070
    74
1070
     0
1000
MTEXTEND
  0
LWPOLYLINE
  5
8C7E76A6
330
8C7E6E89
100
AcDbEntity
  8
COMP
100
AcDbPolyline
 90
        3
 70
     0
 43
0.02
 10
23.91774532538763
 20
8.162284347278095
 10
23.98774532538763
 20
8.162284347278095
 10
23.98774532538763
 20
8.007284347278098
  0
LWPOLYLINE
  5
8C7E76A7
330
8C7E6E89
100
AcDbEntity
  8
COMP
100
AcDbPolyline
 90
        3
 70
     0
 43
0.02
 10
23.91774532538763
 20
9.962284347278096
 10
23.98774532538763
 20
9.962284347278096
 10
23.98774532538763
 20
9.807284347278098
  0
LWPOLYLINE
  5
8C7E76A8
330
8C7E6E89
100
AcDbEntity
  8
COMP
100
AcDbPolyline
 90
        3
 70
     0
 43
0.02
 10
23.48774532538761
 20
10.09228434727809
 10
24.11274532538761
 20
10.09228434727809
 10
24.11274532538761
 20
9.362284347278098
  0
LINE
  5
8C7E76A9
330
8C7E6E89
100
AcDbEntity
  8
COMP
100
AcDbLine
 10
24.42774532538762
 20
9.392284347278099
 30
0.0
 11
24.42774532538762
 21
10.33728434727809
 31
0.0
  0
TEXT
  5
8C7E76AA
330
8C7E6E89
100
AcDbEntity
  8
COMP
100
AcDbText
 10
24.08274532538762
 20
9.319427204420952
 30
0.0
 40
0.075
  1
Universal Inputs
 50
270.0
  7
ADESK1
 72
     4
 11
24.10774532538761
 21
8.862284347278094
 31
0.0
100
AcDbText
  0
LWPOLYLINE
  5
8C7E76AB
330
8C7E6E89
100
AcDbEntity
  8
COMP
100
AcDbPolyline
 90
        3
 70
     0
 43
0.02
 10
23.91774532538763
 20
8.962284347278099
 10
23.98774532538763
 20
8.962284347278099
 10
23.98774532538763
 20
9.117284347278097
  0
LINE
  5
8C7E76AC
330
8C7E6E89
100
AcDbEntity
  8
COMP
100
AcDbLine
 10
23.62774532538764
 20
8.562284347278094
 30
0.0
 11
23.48774532538763
 21
8.562284347278094
 31
0.0
  0
LINE
  5
8C7E76AD
330
8C7E6E89
100
AcDbEntity
  8
COMP
100
AcDbLine
 10
23.62774532538765
 20
8.362284347278094
 30
0.0
 11
23.48774532538764
 21
8.362284347278094
 31
0.0
  0
MTEXT
  5
8C7E76AE
330
8C7E6E89
100
AcDbEntity
  8
COMP
100
AcDbMText
 10
23.81774532538764
 20
8.362284347278094
 30
0.0
 40
0.075
 41
0.038
 71
     5
 72
     5
  1
C
 11
-0.0000000000000002
 21
-1.0
 31
0.0
1001
ACAD
1000
MTEXTBEGIN
1070
    73
1070
     1
1070
    44
1040
1.0
1070
    74
1070
     0
1000
MTEXTEND
  0
MTEXT
  5
8C7E76AF
330
8C7E6E89
100
AcDbEntity
  8
COMP
100
AcDbMText
 10
23.81774532538764
 20
8.562284347278094
 30
0.0
 40
0.075
 41
0.038
 71
     5
 72
     5
  1
R
 11
-0.0000000000000002
 21
-1.0
 31
0.0
1001
ACAD
1000
MTEXTBEGIN
1070
    73
1070
     1
1070
    44
1040
1.0
1070
    74
1070
     0
1000
MTEXTEND
  0
LINE
  5
8C7E76B0
330
8C7E6E89
100
AcDbEntity
  8
COMP
100
AcDbLine
 10
23.62774532538765
 20
8.962284347278096
 30
0.0
 11
23.48774532538764
 21
8.962284347278096
 31
0.0
  0
LINE
  5
8C7E76B1
330
8C7E6E89
100
AcDbEntity
  8
COMP
100
AcDbLine
 10
23.62774532538763
 20
8.762284347278097
 30
0.0
 11
23.48774532538763
 21
8.762284347278097
 31
0.0
  0
MTEXT
  5
8C7E76B2
330
8C7E6E89
100
AcDbEntity
  8
COMP
100
AcDbMText
 10
23.70274532538763
 20
8.762284347278097
 30
0.0
 40
0.075
 41
0.038
 71
     5
 72
     5
  1
I
 11
-0.0000000000000002
 21
-1.0
 31
0.0
1001
ACAD
1000
MTEXTBEGIN
1070
    73
1070
     1
1070
    44
1040
1.0
1070
    74
1070
     0
1000
MTEXTEND
  0
MTEXT
  5
8C7E76B3
330
8C7E6E89
100
AcDbEntity
  8
COMP
100
AcDbMText
 10
23.81774532538763
 20
8.762284347278097
 30
0.0
 40
0.075
 41
0.038
 71
     5
 72
     5
  1
V
 11
-0.0000000000000002
 21
-1.0
 31
0.0
1001
ACAD
1000
MTEXTBEGIN
1070
    73
1070
     1
1070
    44
1040
1.0
1070
    74
1070
     0
1000
MTEXTEND
  0
MTEXT
  5
8C7E76B4
330
8C7E6E89
100
AcDbEntity
  8
COMP
100
AcDbMText
 10
23.81774532538764
 20
8.962284347278096
 30
0.0
 40
0.075
 41
0.038
 71
     5
 72
     5
  1
C
 11
-0.0000000000000002
 21
-1.0
 31
0.0
1001
ACAD
1000
MTEXTBEGIN
1070
    73
1070
     1
1070
    44
1040
1.0
1070
    74
1070
     0
1000
MTEXTEND
  0
LWPOLYLINE
  5
8C7E76B5
330
8C7E6E89
100
AcDbEntity
  8
COMP
100
AcDbPolyline
 90
        3
 70
     0
 43
0.02
 10
23.91774532538763
 20
8.762284347278097
 10
23.98774532538763
 20
8.762284347278097
 10
23.98774532538763
 20
8.607284347278099
  0
MTEXT
  5
8C7E76B6
330
8C7E6E89
100
AcDbEntity
  8
COMP
100
AcDbMText
 10
23.98774532538763
 20
8.562284347278097
 30
0.0
 40
0.075
 41
0.038
 71
     5
 72
     5
  1
3
 11
-0.0000000000000002
 21
-1.0
 31
0.0
1001
ACAD
1000
MTEXTBEGIN
1070
    73
1070
     1
1070
    44
1040
1.0
1070
    74
1070
     0
1000
MTEXTEND
  0
LWPOLYLINE
  5
8C7E76B7
330
8C7E6E89
100
AcDbEntity
  8
COMP
100
AcDbPolyline
 90
        3
 70
     0
 43
0.02
 10
23.91774532538763
 20
8.362284347278098
 10
23.98774532538763
 20
8.362284347278098
 10
23.98774532538763
 20
8.517284347278096
  0
LINE
  5
8C7E76B8
330
8C7E6E89
100
AcDbEntity
  8
COMP
100
AcDbLine
 10
23.62774532538763
 20
9.362284347278094
 30
0.0
 11
23.48774532538763
 21
9.362284347278094
 31
0.0
  0
LINE
  5
8C7E76B9
330
8C7E6E89
100
AcDbEntity
  8
COMP
100
AcDbLine
 10
23.62774532538764
 20
9.162284347278095
 30
0.0
 11
23.48774532538763
 21
9.162284347278095
 31
0.0
  0
MTEXT
  5
8C7E76BA
330
8C7E6E89
100
AcDbEntity
  8
COMP
100
AcDbMText
 10
23.70274532538763
 20
9.362284347278094
 30
0.0
 40
0.075
 41
0.038
 71
     5
 72
     5
  1
I
 11
-0.0000000000000002
 21
-1.0
 31
0.0
1001
ACAD
1000
MTEXTBEGIN
1070
    73
1070
     1
1070
    44
1040
1.0
1070
    74
1070
     0
1000
MTEXTEND
  0
MTEXT
  5
8C7E76BB
330
8C7E6E89
100
AcDbEntity
  8
COMP
100
AcDbMText
 10
23.81774532538764
 20
9.162284347278095
 30
0.0
 40
0.075
 41
0.038
 71
     5
 72
     5
  1
R
 11
-0.0000000000000002
 21
-1.0
 31
0.0
1001
ACAD
1000
MTEXTBEGIN
1070
    73
1070
     1
1070
    44
1040
1.0
1070
    74
1070
     0
1000
MTEXTEND
  0
MTEXT
  5
8C7E76BC
330
8C7E6E89
100
AcDbEntity
  8
COMP
100
AcDbMText
 10
23.81774532538763
 20
9.362284347278094
 30
0.0
 40
0.075
 41
0.038
 71
     5
 72
     5
  1
V
 11
-0.0000000000000002
 21
-1.0
 31
0.0
1001
ACAD
1000
MTEXTBEGIN
1070
    73
1070
     1
1070
    44
1040
1.0
1070
    74
1070
     0
1000
MTEXTEND
  0
LINE
  5
8C7E76BD
330
8C7E6E89
100
AcDbEntity
  8
COMP
100
AcDbLine
 10
23.62774532538762
 20
9.762284347278097
 30
0.0
 11
23.48774532538762
 21
9.762284347278097
 31
0.0
  0
LINE
  5
8C7E76BE
330
8C7E6E89
100
AcDbEntity
  8
COMP
100
AcDbLine
 10
23.62774532538763
 20
9.562284347278094
 30
0.0
 11
23.48774532538763
 21
9.562284347278094
 31
0.0
  0
MTEXT
  5
8C7E76BF
330
8C7E6E89
100
AcDbEntity
  8
COMP
100
AcDbMText
 10
23.81774532538762
 20
9.762284347278097
 30
0.0
 40
0.075
 41
0.038
 71
     5
 72
     5
  1
R
 11
-0.0000000000000002
 21
-1.0
 31
0.0
1001
ACAD
1000
MTEXTBEGIN
1070
    73
1070
     1
1070
    44
1040
1.0
1070
    74
1070
     0
1000
MTEXTEND
  0
MTEXT
  5
8C7E76C0
330
8C7E6E89
100
AcDbEntity
  8
COMP
100
AcDbMText
 10
23.81774532538762
 20
9.562284347278094
 30
0.0
 40
0.075
 41
0.038
 71
     5
 72
     5
  1
C
 11
-0.0000000000000002
 21
-1.0
 31
0.0
1001
ACAD
1000
MTEXTBEGIN
1070
    73
1070
     1
1070
    44
1040
1.0
1070
    74
1070
     0
1000
MTEXTEND
  0
MTEXT
  5
8C7E76C1
330
8C7E6E89
100
AcDbEntity
  8
COMP
100
AcDbMText
 10
23.98774532538763
 20
9.162284347278099
 30
0.0
 40
0.075
 41
0.038
 71
     5
 72
     5
  1
2
 11
-0.0000000000000002
 21
-1.0
 31
0.0
1001
ACAD
1000
MTEXTBEGIN
1070
    73
1070
     1
1070
    44
1040
1.0
1070
    74
1070
     0
1000
MTEXTEND
  0
LWPOLYLINE
  5
8C7E76C2
330
8C7E6E89
100
AcDbEntity
  8
COMP
100
AcDbPolyline
 90
        3
 70
     0
 43
0.02
 10
23.91774532538763
 20
9.362284347278098
 10
23.98774532538763
 20
9.362284347278098
 10
23.98774532538763
 20
9.207284347278097
  0
MTEXT
  5
8C7E76C3
330
8C7E6E89
100
AcDbEntity
  8
COMP
100
AcDbMText
 10
23.98774532538763
 20
9.762284347278097
 30
0.0
 40
0.075
 41
0.038
 71
     5
 72
     5
  1
1
 11
-0.0000000000000002
 21
-1.0
 31
0.0
1001
ACAD
1000
MTEXTBEGIN
1070
    73
1070
     1
1070
    44
1040
1.0
1070
    74
1070
     0
1000
MTEXTEND
  0
LWPOLYLINE
  5
8C7E76C4
330
8C7E6E89
100
AcDbEntity
  8
COMP
100
AcDbPolyline
 90
        3
 70
     0
 43
0.02
 10
23.91774532538763
 20
9.562284347278097
 10
23.98774532538763
 20
9.562284347278097
 10
23.98774532538763
 20
9.717284347278095
  0
LINE
  5
8C7E76C5
330
8C7E6E89
100
AcDbEntity
  8
COMP
100
AcDbLine
 10
23.48774532538762
 20
10.4622843472781
 30
0.0
 11
24.30274532538762
 21
10.4622843472781
 31
0.0
  0
TEXT
  5
8C7E76C6
330
8C7E6E89
100
AcDbEntity
  8
COMP
100
AcDbText
 10
23.71510246824477
 20
10.16978434727809
 30
0.0
 40
0.075
  1
Mode
  7
ADESK1
 72
     4
 11
23.85974532538762
 21
10.20728434727809
 31
0.0
100
AcDbText
  0
TEXT
  5
8C7E76C7
330
8C7E6E89
100
AcDbEntity
  8
COMP
100
AcDbText
 10
23.81867389681619
 20
10.29678434727809
 30
0.0
 40
0.075
  1
AI
  7
ADESK1
 72
     4
 11
23.85974532538762
 21
10.33428434727809
 31
0.0
100
AcDbText
  0
LWPOLYLINE
  5
8C7E76C8
330
8C7E6E89
100
AcDbEntity
  8
COMP
100
AcDbPolyline
 90
        3
 70
     0
 43
0.02
 10
23.60274532538761
 20
10.46178434727809
 10
23.60274532538761
 20
10.20728434727809
 10
23.65174532538762
 20
10.20728434727809
  0
LINE
  5
8C7E76C9
330
8C7E6E89
100
AcDbEntity
  8
COMP
100
AcDbLine
 10
23.62774532538762
 20
9.962284347278096
 30
0.0
 11
23.48774532538761
 21
9.962284347278096
 31
0.0
  0
MTEXT
  5
8C7E76CA
330
8C7E6E89
100
AcDbEntity
  8
COMP
100
AcDbMText
 10
23.70274532538762
 20
9.962284347278096
 30
0.0
 40
0.075
 41
0.038
 71
     5
 72
     5
  1
I
 11
-0.0000000000000002
 21
-1.0
 31
0.0
1001
ACAD
1000
MTEXTBEGIN
1070
    73
1070
     1
1070
    44
1040
1.0
1070
    74
1070
     0
1000
MTEXTEND
  0
MTEXT
  5
8C7E76CB
330
8C7E6E89
100
AcDbEntity
  8
COMP
100
AcDbMText
 10
23.81774532538762
 20
9.962284347278096
 30
0.0
 40
0.075
 41
0.038
 71
     5
 72
     5
  1
V
 11
-0.0000000000000002
 21
-1.0
 31
0.0
1001
ACAD
1000
MTEXTBEGIN
1070
    73
1070
     1
1070
    44
1040
1.0
1070
    74
1070
     0
1000
MTEXTEND
  0
LWPOLYLINE
  5
8C7E76CC
330
8C7E6E89
100
AcDbEntity
  8
COMP
100
AcDbPolyline
 90
        3
 70
     0
 43
0.02
 10
24.11274532538762
 20
10.46178434727809
 10
24.11274532538762
 20
10.2072843472781
 10
24.06174532538761
 20
10.2072843472781
  0
TEXT
  5
8C7E76CD
330
8C7E6E89
100
AcDbEntity
  8
COMP
100
AcDbText
 10
24.20422151586381
 20
10.23728434727809
 30
0.0
 40
0.05
  1
Std
  7
ADESK1
 72
     4
 11
24.26374532538762
 21
10.26228434727809
 31
0.0
100
AcDbText
  0
TEXT
  5
8C7E76CE
330
8C7E6E89
100
AcDbEntity
  8
COMP
100
AcDbText
 10
24.15660246824476
 20
10.3732843472781
 30
0.0
 40
0.05
  1
20mA
  7
ADESK1
 72
     4
 11
24.26374532538762
 21
10.39828434727809
 31
0.0
100
AcDbText
  0
LWPOLYLINE
  5
8C7E76CF
330
8C7E6E89
100
AcDbEntity
  8
COMP
100
AcDbPolyline
 90
        3
 70
     0
 43
0.02
 10
24.36774532538762
 20
10.3342843472781
 10
24.36774532538762
 20
10.3342843472781
 10
24.11274532538762
 20
10.3342843472781
  0
ARC
  5
8C7E76D0
330
8C7E6E89
100
AcDbEntity
  8
COMP
100
AcDbCircle
 10
24.30274532538762
 20
10.33728434727809
 30
0.0
 40
0.125
100
AcDbArc
 50
0.0
 51
90.0
  0
LWPOLYLINE
  5
8C7E76D1
330
8C7E6E89
100
AcDbEntity
  8
COMP
100
AcDbPolyline
 90
        3
 70
     0
 43
0.02
 10
27.66274532538762
 20
8.030710218963442
 10
27.66274532538762
 20
8.227284347278096
 10
28.28774532538762
 20
8.227284347278096
  0
TEXT
  5
8C7E76D2
330
8C7E6E89
100
AcDbEntity
  8
COMP
100
AcDbText
 10
25.24133540470354
 20
7.339649902230275
 30
0.0
 40
0.478
  1
Advanta
 50
29.99999999999975
  7
BRUSHSCRIPT
 72
     4
 11
25.86274532538762
 21
7.872284347278095
 31
0.0
100
AcDbText
  0
TEXT
  5
8C7E76D3
330
8C7E6E89
100
AcDbEntity
  8
COMP
100
AcDbText
 10
25.03905519369959
 20
7.683656775244092
 30
0.0
 40
0.478
  1
EtherLogic
 50
29.99999999999975
  7
BRUSHSCRIPT
 72
     4
 11
25.88774532538762
 21
8.297284347278097
 31
0.0
100
AcDbText
  0
LINE
  5
8C7E76D4
330
8C7E6E89
100
AcDbEntity
  8
COMP
100
AcDbLine
 10
28.28774532538762
 20
5.512284347278097
 30
0.0
 11
28.28774532538762
 21
10.21228434727809
 31
0.0
  0
LINE
  5
8C7E76D5
330
8C7E6E89
100
AcDbEntity
  8
COMP
100
AcDbLine
 10
24.88774532538763
 20
6.807284347278095
 30
0.0
 11
24.88774532538763
 21
6.457284347278097
 31
0.0
  0
LINE
  5
8C7E76D6
330
8C7E6E89
100
AcDbEntity
  8
COMP
100
AcDbLine
 10
26.88774532538763
 20
6.807284347278095
 30
0.0
 11
26.88774532538763
 21
6.457284347278097
 31
0.0
  0
LWPOLYLINE
  5
8C7E76D7
330
8C7E6E89
100
AcDbEntity
  8
COMP
100
AcDbPolyline
 90
        3
 70
     0
 43
0.02
 10
25.13074532538762
 20
6.049284347278097
 10
25.13074532538762
 20
6.125284347278096
 10
26.14274532538763
 20
6.125284347278096
  0
TEXT
  5
8C7E76D8
330
8C7E6E89
100
AcDbEntity
  8
COMP
100
AcDbText
 10
25.72860246824477
 20
5.943784347278096
 30
0.0
 40
0.075
  1
Internal
  7
ADESK1
 72
     4
 11
25.93574532538763
 21
5.981284347278096
 31
0.0
100
AcDbText
  0
TEXT
  5
8C7E76D9
330
8C7E6E89
100
AcDbEntity
  8
COMP
100
AcDbText
 10
25.73931675395905
 20
5.708784347278096
 30
0.0
 40
0.075
  1
Modem
  7
ADESK1
 72
     4
 11
25.93574532538763
 21
5.746284347278096
 31
0.0
100
AcDbText
  0
TEXT
  5
8C7E76DA
330
8C7E6E89
100
AcDbEntity
  8
COMP
100
AcDbText
 10
25.78038818253048
 20
5.824784347278097
 30
0.0
 40
0.075
  1
Radio
  7
ADESK1
 72
     4
 11
25.93574532538763
 21
5.862284347278096
 31
0.0
100
AcDbText
  0
TEXT
  5
8C7E76DB
330
8C7E6E89
100
AcDbEntity
  8
COMP
100
AcDbText
 10
25.78038818253048
 20
5.568784347278096
 30
0.0
 40
0.075
  1
COM5
  7
ADESK1
 72
     4
 11
25.93574532538763
 21
5.606284347278096
 31
0.0
100
AcDbText
  0
LINE
  5
8C7E76DC
330
8C7E6E89
100
AcDbEntity
  8
COMP
100
AcDbLine
 10
24.88774532538763
 20
6.457284347278097
 30
0.0
 11
26.88774532538763
 21
6.457284347278097
 31
0.0
  0
LWPOLYLINE
  5
8C7E76DD
330
8C7E6E89
100
AcDbEntity
  8
COMP
100
AcDbPolyline
 90
        3
 70
     0
 43
0.02
 10
24.79774532538763
 20
5.751284347278096
 10
25.04374532538763
 20
5.751284347278096
 10
25.04374532538763
 20
5.683284347278096
  0
TEXT
  5
8C7E76DE
330
8C7E6E89
100
AcDbEntity
  8
COMP
100
AcDbText
 10
25.46553103967335
 20
5.699784347278097
 30
0.0
 40
0.065
  1
CTS
  7
ADESK1
 72
     4
 11
25.55374532538763
 21
5.732284347278096
 31
0.0
100
AcDbText
  0
TEXT
  5
8C7E76DF
330
8C7E6E89
100
AcDbEntity
  8
COMP
100
AcDbText
 10
25.32029294443526
 20
5.699784347278097
 30
0.0
 40
0.065
  1
EN
  7
ADESK1
 72
     4
 11
25.38374532538764
 21
5.732284347278096
 31
0.0
100
AcDbText
  0
TEXT
  5
8C7E76E0
330
8C7E6E89
100
AcDbEntity
  8
COMP
100
AcDbText
 10
25.13874532538764
 20
5.694784347278097
 30
0.0
 40
0.075
  1
CD
  7
ADESK1
 72
     4
 11
25.21374532538763
 21
5.732284347278096
 31
0.0
100
AcDbText
  0
INSERT
  5
8C7E76E1
330
8C7E6E89
100
AcDbEntity
  8
COMP
100
AcDbBlockReference
  2
A$C0A327B35
 10
49.3189689166155
 20
0.6268584622740044
 30
0.0
  0
LWPOLYLINE
  5
8C7E76E2
330
8C7E6E89
100
AcDbEntity
  8
COMP
100
AcDbPolyline
 90
        2
 70
     1
 43
0.05
 10
24.77274532538763
 20
5.642284347278097
 42
1.0
 10
24.82274532538763
 20
5.642284347278097
 42
1.0
  0
INSERT
  5
8C7E76E3
330
8C7E6E89
100
AcDbEntity
  8
COMP
100
AcDbBlockReference
  2
A$C0A327B35
 10
49.1489689166155
 20
0.6268584622740044
 30
0.0
  0
INSERT
  5
8C7E76E4
330
8C7E6E89
100
AcDbEntity
  8
COMP
100
AcDbBlockReference
  2
A$C0A327B35
 10
49.65896891661549
 20
0.6268584622740044
 30
0.0
  0
INSERT
  5
8C7E76E5
330
8C7E6E89
100
AcDbEntity
  8
COMP
100
AcDbBlockReference
  2
A$C0A327B35
 10
49.48896891661551
 20
0.6268584622740044
 30
0.0
  0
TEXT
  5
8C7E76E6
330
8C7E6E89
100
AcDbEntity
  8
COMP
100
AcDbText
 10
25.15303103967335
 20
5.942784347278096
 30
0.0
 40
0.075
  1
TX
  7
ADESK1
 72
     4
 11
25.21374532538763
 21
5.980284347278096
 31
0.0
100
AcDbText
  0
INSERT
  5
8C7E76E7
330
8C7E6E89
100
AcDbEntity
  8
COMP
100
AcDbBlockReference
  2
A$C0A327B35
 10
49.3189689166155
 20
0.8778584622740055
 30
0.0
  0
LWPOLYLINE
  5
8C7E76E8
330
8C7E6E89
100
AcDbEntity
  8
COMP
100
AcDbPolyline
 90
        2
 70
     0
 43
0.02
 10
24.79774532538763
 20
5.859284347278096
 10
24.97774532538763
 20
5.859284347278096
  0
INSERT
  5
8C7E76E9
330
8C7E6E89
100
AcDbEntity
  8
COMP
100
AcDbBlockReference
  2
A$C0A327B35
 10
49.1489689166155
 20
0.8778584622740055
 30
0.0
  0
TEXT
  5
8C7E76EA
330
8C7E6E89
100
AcDbEntity
  8
COMP
100
AcDbText
 10
25.30874532538763
 20
5.942784347278096
 30
0.0
 40
0.075
  1
RX
  7
ADESK1
 72
     4
 11
25.38374532538762
 21
5.980284347278096
 31
0.0
100
AcDbText
  0
INSERT
  5
8C7E76EB
330
8C7E6E89
100
AcDbEntity
  8
COMP
100
AcDbBlockReference
  2
A$C0A327B35
 10
49.48896891661549
 20
0.8778584622740055
 30
0.0
  0
LINE
  5
8C7E76EC
330
8C7E6E89
100
AcDbEntity
  8
COMP
100
AcDbLine
 10
24.88774532538763
 20
6.807284347278095
 30
0.0
 11
26.88774532538763
 21
6.807284347278095
 31
0.0
  0
TEXT
  5
8C7E76ED
330
8C7E6E89
100
AcDbEntity
  8
COMP
100
AcDbText
 10
24.93536437300667
 20
6.99961768061143
 30
0.0
 40
0.08
  1
Open Programmable Controller
  7
ADESK1
 72
     4
 11
25.88774532538763
 21
7.026284347278096
 31
0.0
100
AcDbText
  0
LINE
  5
8C7E76EE
330
8C7E6E89
100
AcDbEntity
  8
COMP
100
AcDbLine
 10
27.98074532538763
 20
6.522284347278104
 30
0.0
 11
27.98074532538763
 21
8.122284347278107
 31
0.0
  0
CIRCLE
  5
8C7E76EF
330
8C7E6E89
100
AcDbEntity
  8
COMP
100
AcDbCircle
 10
28.15374532538763
 20
6.522284347278097
 30
0.0
 40
0.0499999999999972
  0
TEXT
  5
8C7E76F0
330
8C7E6E89
100
AcDbEntity
  8
COMP
100
AcDbText
 10
27.84603103967335
 20
6.484784347278095
 30
0.0
 40
0.075
  1
5
  7
ADESK1
 72
     4
 11
27.88174532538763
 21
6.522284347278095
 31
0.0
100
AcDbText
  0
LWPOLYLINE
  5
8C7E76F1
330
8C7E6E89
100
AcDbEntity
  8
COMP
100
AcDbPolyline
 90
        3
 70
     0
 43
0.02
 10
28.28752176281058
 20
6.409284347278096
 10
27.66252176281058
 20
6.409284347278096
 10
27.66252176281058
 20
6.593710218963443
  0
TEXT
  5
8C7E76F2
330
8C7E6E89
100
AcDbEntity
  8
COMP
100
AcDbText
 10
27.35424532538762
 20
5.579784347278101
 30
0.0
 40
0.075
  1
Address
  7
ADESK1
 72
     4
 11
27.56674532538761
 21
5.617284347278101
 31
0.0
100
AcDbText
  0
LWPOLYLINE
  5
8C7E76F3
330
8C7E6E89
100
AcDbEntity
  8
COMP
100
AcDbPolyline
 90
        3
 70
     0
 43
0.02
 10
28.28752176281058
 20
5.846284347278096
 10
27.66252176281058
 20
5.846284347278096
 10
27.66252176281058
 20
5.865284347278096
  0
LWPOLYLINE
  5
8C7E76F4
330
8C7E6E89
100
AcDbEntity
  8
COMP
100
AcDbPolyline
 90
        3
 70
     0
 43
0.02
 10
27.66252176281058
 20
6.388284347278098
 10
27.66252176281058
 20
6.409284347278096
 10
28.28752176281058
 20
6.409284347278096
  0
MTEXT
  5
8C7E76F5
330
8C7E6E89
100
AcDbEntity
  8
COMP
100
AcDbMText
 10
27.66352176281058
 20
6.120710218963442
 30
0.0
 40
0.075
 41
0.4648
 71
     5
 72
     5
  1
Mag Sensor
 11
0.0000000000000001
 21
1.0
 31
0.0
1001
ACAD
1000
MTEXTBEGIN
1070
    73
1070
     1
1070
    44
1040
1.0
1070
    74
1070
     0
1000
MTEXTEND
  0
TEXT
  5
8C7E76F6
330
8C7E6E89
100
AcDbEntity
  8
COMP
100
AcDbText
 10
27.84203103967335
 20
6.083784347278099
 30
0.0
 40
0.075
  1
2
  7
ADESK1
 72
     4
 11
27.87774532538763
 21
6.121284347278098
 31
0.0
100
AcDbText
  0
TEXT
  5
8C7E76F7
330
8C7E6E89
100
AcDbEntity
  8
COMP
100
AcDbText
 10
27.34353103967333
 20
5.7097843472781
 30
0.0
 40
0.075
  1
Network
  7
ADESK1
 72
     4
 11
27.56674532538761
 21
5.7472843472781
 31
0.0
100
AcDbText
  0
TEXT
  5
8C7E76F8
330
8C7E6E89
100
AcDbEntity
  8
COMP
100
AcDbText
 10
27.8473881825305
 20
5.884784347278101
 30
0.0
 40
0.075
  1
1
  7
ADESK1
 72
     4
 11
27.87774532538763
 21
5.9222843472781
 31
0.0
100
AcDbText
  0
TEXT
  5
8C7E76F9
330
8C7E6E89
100
AcDbEntity
  8
COMP
100
AcDbText
 10
27.84024532538763
 20
6.284784347278099
 30
0.0
 40
0.075
  1
C
  7
ADESK1
 72
     4
 11
27.87774532538763
 21
6.322284347278099
 31
0.0
100
AcDbText
  0
LINE
  5
8C7E76FA
330
8C7E6E89
100
AcDbEntity
  8
COMP
100
AcDbLine
 10
27.97974532538764
 20
5.922284347278098
 30
0.0
 11
27.97974532538764
 21
6.322284347278096
 31
0.0
  0
CIRCLE
  5
8C7E76FB
330
8C7E6E89
100
AcDbEntity
  8
COMP
100
AcDbCircle
 10
28.15274532538764
 20
6.12228434727809
 30
0.0
 40
0.0499999999999972
  0
CIRCLE
  5
8C7E76FC
330
8C7E6E89
100
AcDbEntity
  8
COMP
100
AcDbCircle
 10
28.15274532538764
 20
5.922284347278091
 30
0.0
 40
0.0499999999999972
  0
LINE
  5
8C7E76FD
330
8C7E6E89
100
AcDbEntity
  8
COMP
100
AcDbLine
 10
28.10252176281058
 20
5.922284347278098
 30
0.0
 11
27.97974532538764
 21
5.922284347278098
 31
0.0
  0
LINE
  5
8C7E76FE
330
8C7E6E89
100
AcDbEntity
  8
COMP
100
AcDbLine
 10
28.10252176281058
 20
6.122284347278095
 30
0.0
 11
27.97974532538764
 21
6.122284347278095
 31
0.0
  0
LINE
  5
8C7E76FF
330
8C7E6E89
100
AcDbEntity
  8
COMP
100
AcDbLine
 10
28.10374532538763
 20
6.522284347278097
 30
0.0
 11
27.98074532538763
 21
6.522284347278104
 31
0.0
  0
LINE
  5
8C7E7700
330
8C7E6E89
100
AcDbEntity
  8
COMP
100
AcDbLine
 10
27.97974532538764
 20
6.322284347278096
 30
0.0
 11
28.16174532538764
 21
6.322284347278096
 31
0.0
  0
TEXT
  5
8C7E7701
330
8C7E6E89
100
AcDbEntity
  8
COMP
100
AcDbText
 10
27.69484995243808
 20
6.637995933249158
 30
0.0
 40
0.075
  1
Discrete Inputs 12/24V
 50
90.0
  7
ADESK1
 72
     4
 11
27.66270709529523
 21
7.323710218963443
 31
0.0
100
AcDbText
  0
TEXT
  5
8C7E7702
330
8C7E6E89
100
AcDbEntity
  8
COMP
100
AcDbText
 10
27.84424532538763
 20
6.684784347278094
 30
0.0
 40
0.075
  1
6
  7
ADESK1
 72
     4
 11
27.88174532538763
 21
6.722284347278094
 31
0.0
100
AcDbText
  0
TEXT
  5
8C7E7703
330
8C7E6E89
100
AcDbEntity
  8
COMP
100
AcDbText
 10
27.84603103967335
 20
6.884784347278097
 30
0.0
 40
0.075
  1
7
  7
ADESK1
 72
     4
 11
27.88174532538763
 21
6.922284347278097
 31
0.0
100
AcDbText
  0
TEXT
  5
8C7E7704
330
8C7E6E89
100
AcDbEntity
  8
COMP
100
AcDbText
 10
27.84603103967335
 20
7.084784347278096
 30
0.0
 40
0.075
  1
8
  7
ADESK1
 72
     4
 11
27.88174532538763
 21
7.122284347278096
 31
0.0
100
AcDbText
  0
TEXT
  5
8C7E7705
330
8C7E6E89
100
AcDbEntity
  8
COMP
100
AcDbText
 10
27.84781675395906
 20
7.284784347278096
 30
0.0
 40
0.075
  1
9
  7
ADESK1
 72
     4
 11
27.88174532538763
 21
7.322284347278095
 31
0.0
100
AcDbText
  0
CIRCLE
  5
8C7E7706
330
8C7E6E89
100
AcDbEntity
  8
COMP
100
AcDbCircle
 10
28.15374532538763
 20
6.922284347278097
 30
0.0
 40
0.0499999999999972
  0
CIRCLE
  5
8C7E7707
330
8C7E6E89
100
AcDbEntity
  8
COMP
100
AcDbCircle
 10
28.15374532538763
 20
6.722284347278097
 30
0.0
 40
0.0499999999999972
  0
LINE
  5
8C7E7708
330
8C7E6E89
100
AcDbEntity
  8
COMP
100
AcDbLine
 10
28.10374532538763
 20
6.722284347278097
 30
0.0
 11
27.98074532538763
 21
6.722284347278104
 31
0.0
  0
LINE
  5
8C7E7709
330
8C7E6E89
100
AcDbEntity
  8
COMP
100
AcDbLine
 10
28.10374532538763
 20
6.922284347278097
 30
0.0
 11
27.98074532538763
 21
6.922284347278104
 31
0.0
  0
CIRCLE
  5
8C7E770A
330
8C7E6E89
100
AcDbEntity
  8
COMP
100
AcDbCircle
 10
28.15374532538763
 20
7.322284347278096
 30
0.0
 40
0.0499999999999972
  0
CIRCLE
  5
8C7E770B
330
8C7E6E89
100
AcDbEntity
  8
COMP
100
AcDbCircle
 10
28.15374532538763
 20
7.122284347278097
 30
0.0
 40
0.0499999999999972
  0
LINE
  5
8C7E770C
330
8C7E6E89
100
AcDbEntity
  8
COMP
100
AcDbLine
 10
28.10374532538763
 20
7.122284347278097
 30
0.0
 11
27.98074532538763
 21
7.122284347278104
 31
0.0
  0
LINE
  5
8C7E770D
330
8C7E6E89
100
AcDbEntity
  8
COMP
100
AcDbLine
 10
28.10374532538763
 20
7.322284347278096
 30
0.0
 11
27.98074532538763
 21
7.322284347278103
 31
0.0
  0
TEXT
  5
8C7E770E
330
8C7E6E89
100
AcDbEntity
  8
COMP
100
AcDbText
 10
27.80495961110192
 20
7.484784347278096
 30
0.0
 40
0.075
  1
10
  7
ADESK1
 72
     4
 11
27.88174532538763
 21
7.522284347278096
 31
0.0
100
AcDbText
  0
TEXT
  5
8C7E770F
330
8C7E6E89
100
AcDbEntity
  8
COMP
100
AcDbText
 10
27.81667389681619
 20
7.684784347278093
 30
0.0
 40
0.075
  1
11
  7
ADESK1
 72
     4
 11
27.88274532538762
 21
7.722284347278093
 31
0.0
100
AcDbText
  0
TEXT
  5
8C7E7710
330
8C7E6E89
100
AcDbEntity
  8
COMP
100
AcDbText
 10
27.8059596111019
 20
7.884784347278096
 30
0.0
 40
0.075
  1
12
  7
ADESK1
 72
     4
 11
27.88274532538762
 21
7.922284347278096
 31
0.0
100
AcDbText
  0
TEXT
  5
8C7E7711
330
8C7E6E89
100
AcDbEntity
  8
COMP
100
AcDbText
 10
27.84524532538762
 20
8.084784347278096
 30
0.0
 40
0.075
  1
C
  7
ADESK1
 72
     4
 11
27.88274532538762
 21
8.122284347278096
 31
0.0
100
AcDbText
  0
CIRCLE
  5
8C7E7712
330
8C7E6E89
100
AcDbEntity
  8
COMP
100
AcDbCircle
 10
28.15374532538763
 20
7.722284347278097
 30
0.0
 40
0.0499999999999972
  0
LINE
  5
8C7E7713
330
8C7E6E89
100
AcDbEntity
  8
COMP
100
AcDbLine
 10
28.10374532538763
 20
7.722284347278097
 30
0.0
 11
27.98074532538763
 21
7.722284347278104
 31
0.0
  0
CIRCLE
  5
8C7E7714
330
8C7E6E89
100
AcDbEntity
  8
COMP
100
AcDbCircle
 10
28.15374532538763
 20
7.522284347278097
 30
0.0
 40
0.0499999999999972
  0
LINE
  5
8C7E7715
330
8C7E6E89
100
AcDbEntity
  8
COMP
100
AcDbLine
 10
28.10374532538763
 20
7.522284347278097
 30
0.0
 11
27.98074532538763
 21
7.522284347278104
 31
0.0
  0
LINE
  5
8C7E7716
330
8C7E6E89
100
AcDbEntity
  8
COMP
100
AcDbLine
 10
27.98074532538763
 20
8.122284347278107
 30
0.0
 11
28.16274532538763
 21
8.122284347278107
 31
0.0
  0
CIRCLE
  5
8C7E7717
330
8C7E6E89
100
AcDbEntity
  8
COMP
100
AcDbCircle
 10
28.15374532538763
 20
7.922284347278096
 30
0.0
 40
0.0499999999999972
  0
LINE
  5
8C7E7718
330
8C7E6E89
100
AcDbEntity
  8
COMP
100
AcDbLine
 10
28.10374532538763
 20
7.922284347278096
 30
0.0
 11
27.98074532538763
 21
7.922284347278103
 31
0.0
  0
LINE
  5
8C7E7719
330
8C7E6E89
100
AcDbEntity
  8
COMP
100
AcDbLine
 10
26.03274532538762
 20
10.21228434727809
 30
0.0
 11
28.28774532538762
 21
10.21228434727809
 31
0.0
  0
LINE
  5
8C7E771A
330
8C7E6E89
100
AcDbEntity
  8
COMP
100
AcDbLine
 10
25.90774532538762
 20
10.08728434727809
 30
0.0
 11
25.90774532538762
 21
9.392284347278099
 31
0.0
  0
TEXT
  5
8C7E771B
330
8C7E6E89
100
AcDbEntity
  8
COMP
100
AcDbText
 10
25.20703103967333
 20
9.26578434727809
 30
0.0
 40
0.075
  1
TX
  7
ADESK1
 72
     4
 11
25.26774532538762
 21
9.30328434727809
 31
0.0
100
AcDbText
  0
CIRCLE
  5
8C7E771C
330
8C7E6E89
100
AcDbEntity
  8
COMP
100
AcDbCircle
 10
24.92374532538761
 20
9.308284347278089
 30
0.0
 40
0.0390000000000015
  0
TEXT
  5
8C7E771D
330
8C7E6E89
100
AcDbEntity
  8
COMP
100
AcDbText
 10
24.67810246824477
 20
9.146784347278098
 30
0.0
 40
0.075
  1
COM1
  7
ADESK1
 72
     4
 11
24.82274532538762
 21
9.184284347278097
 31
0.0
100
AcDbText
  0
LINE
  5
8C7E771E
330
8C7E6E89
100
AcDbEntity
  8
COMP
100
AcDbLine
 10
24.86774532538762
 20
9.252284347278092
 30
0.0
 11
24.89574532538762
 21
9.28028434727809
 31
0.0
  0
LINE
  5
8C7E771F
330
8C7E6E89
100
AcDbEntity
  8
COMP
100
AcDbLine
 10
24.86774532538762
 20
9.364284347278086
 30
0.0
 11
24.89574532538762
 21
9.336284347278088
 31
0.0
  0
LINE
  5
8C7E7720
330
8C7E6E89
100
AcDbEntity
  8
COMP
100
AcDbLine
 10
24.66774532538762
 20
9.252284347278092
 30
0.0
 11
24.69574532538762
 21
9.28028434727809
 31
0.0
  0
LINE
  5
8C7E7721
330
8C7E6E89
100
AcDbEntity
  8
COMP
100
AcDbLine
 10
24.66774532538762
 20
9.364284347278086
 30
0.0
 11
24.69574532538762
 21
9.336284347278088
 31
0.0
  0
CIRCLE
  5
8C7E7722
330
8C7E6E89
100
AcDbEntity
  8
COMP
100
AcDbCircle
 10
24.72374532538762
 20
9.308284347278089
 30
0.0
 40
0.0390000000000015
  0
LINE
  5
8C7E7723
330
8C7E6E89
100
AcDbEntity
  8
COMP
100
AcDbLine
 10
24.77974532538762
 20
9.252284347278092
 30
0.0
 11
24.75174532538762
 21
9.28028434727809
 31
0.0
  0
LINE
  5
8C7E7724
330
8C7E6E89
100
AcDbEntity
  8
COMP
100
AcDbLine
 10
24.77974532538762
 20
9.364284347278086
 30
0.0
 11
24.75174532538762
 21
9.336284347278088
 31
0.0
  0
TEXT
  5
8C7E7725
330
8C7E6E89
100
AcDbEntity
  8
COMP
100
AcDbText
 10
24.99274532538762
 20
9.26578434727809
 30
0.0
 40
0.075
  1
RX
  7
ADESK1
 72
     4
 11
25.06774532538762
 21
9.30328434727809
 31
0.0
100
AcDbText
  0
LINE
  5
8C7E7726
330
8C7E6E89
100
AcDbEntity
  8
COMP
100
AcDbLine
 10
24.97974532538762
 20
9.252284347278092
 30
0.0
 11
24.95174532538762
 21
9.28028434727809
 31
0.0
  0
LINE
  5
8C7E7727
330
8C7E6E89
100
AcDbEntity
  8
COMP
100
AcDbLine
 10
24.97974532538762
 20
9.364284347278086
 30
0.0
 11
24.95174532538762
 21
9.336284347278088
 31
0.0
  0
CIRCLE
  5
8C7E7728
330
8C7E6E89
100
AcDbEntity
  8
COMP
100
AcDbCircle
 10
25.59874532538762
 20
9.30328434727809
 30
0.0
 40
0.0390000000000015
  0
TEXT
  5
8C7E7729
330
8C7E6E89
100
AcDbEntity
  8
COMP
100
AcDbText
 10
25.34238818253049
 20
9.147784347278092
 30
0.0
 40
0.075
  1
COM3
  7
ADESK1
 72
     4
 11
25.49774532538763
 21
9.185284347278091
 31
0.0
100
AcDbText
  0
LINE
  5
8C7E772A
330
8C7E6E89
100
AcDbEntity
  8
COMP
100
AcDbLine
 10
25.54274532538762
 20
9.247284347278093
 30
0.0
 11
25.57074532538762
 21
9.275284347278091
 31
0.0
  0
LINE
  5
8C7E772B
330
8C7E6E89
100
AcDbEntity
  8
COMP
100
AcDbLine
 10
25.54274532538762
 20
9.359284347278087
 30
0.0
 11
25.57074532538762
 21
9.331284347278089
 31
0.0
  0
CIRCLE
  5
8C7E772C
330
8C7E6E89
100
AcDbEntity
  8
COMP
100
AcDbCircle
 10
25.39874532538762
 20
9.30328434727809
 30
0.0
 40
0.0390000000000015
  0
LINE
  5
8C7E772D
330
8C7E6E89
100
AcDbEntity
  8
COMP
100
AcDbLine
 10
25.45474532538762
 20
9.247284347278093
 30
0.0
 11
25.42674532538762
 21
9.275284347278091
 31
0.0
  0
LINE
  5
8C7E772E
330
8C7E6E89
100
AcDbEntity
  8
COMP
100
AcDbLine
 10
25.45474532538762
 20
9.359284347278087
 30
0.0
 11
25.42674532538762
 21
9.331284347278089
 31
0.0
  0
LINE
  5
8C7E772F
330
8C7E6E89
100
AcDbEntity
  8
COMP
100
AcDbLine
 10
25.34274532538763
 20
9.247284347278093
 30
0.0
 11
25.37074532538762
 21
9.275284347278091
 31
0.0
  0
LINE
  5
8C7E7730
330
8C7E6E89
100
AcDbEntity
  8
COMP
100
AcDbLine
 10
25.34274532538763
 20
9.359284347278087
 30
0.0
 11
25.37074532538762
 21
9.331284347278089
 31
0.0
  0
LINE
  5
8C7E7731
330
8C7E6E89
100
AcDbEntity
  8
COMP
100
AcDbLine
 10
25.65474532538762
 20
9.247284347278093
 30
0.0
 11
25.62674532538762
 21
9.275284347278091
 31
0.0
  0
LINE
  5
8C7E7732
330
8C7E6E89
100
AcDbEntity
  8
COMP
100
AcDbLine
 10
25.65474532538762
 20
9.359284347278087
 30
0.0
 11
25.62674532538762
 21
9.331284347278089
 31
0.0
  0
TEXT
  5
8C7E7733
330
8C7E6E89
100
AcDbEntity
  8
COMP
100
AcDbText
 10
25.66274532538762
 20
9.260784347278091
 30
0.0
 40
0.075
  1
RX
  7
ADESK1
 72
     4
 11
25.73774532538762
 21
9.298284347278091
 31
0.0
100
AcDbText
  0
CIRCLE
  5
8C7E7734
330
8C7E6E89
100
AcDbEntity
  8
COMP
100
AcDbCircle
 10
26.54774532538762
 20
9.780284347278104
 30
0.0
 40
0.0390000000000015
  0
LINE
  5
8C7E7735
330
8C7E6E89
100
AcDbEntity
  8
COMP
100
AcDbLine
 10
26.60374532538761
 20
9.724284347278103
 30
0.0
 11
26.57574532538761
 21
9.752284347278102
 31
0.0
  0
LINE
  5
8C7E7736
330
8C7E6E89
100
AcDbEntity
  8
COMP
100
AcDbLine
 10
26.60374532538761
 20
9.836284347278102
 30
0.0
 11
26.57574532538761
 21
9.808284347278103
 31
0.0
  0
TEXT
  5
8C7E7737
330
8C7E6E89
100
AcDbEntity
  8
COMP
100
AcDbText
 10
26.01660246824477
 20
9.803784347278098
 30
0.0
 40
0.075
  1
COM4
  7
ADESK1
 72
     4
 11
26.17374532538763
 21
9.841284347278097
 31
0.0
100
AcDbText
  0
LINE
  5
8C7E7738
330
8C7E6E89
100
AcDbEntity
  8
COMP
100
AcDbLine
 10
26.49174532538762
 20
9.724284347278103
 30
0.0
 11
26.51974532538762
 21
9.752284347278102
 31
0.0
  0
LINE
  5
8C7E7739
330
8C7E6E89
100
AcDbEntity
  8
COMP
100
AcDbLine
 10
26.49174532538762
 20
9.836284347278102
 30
0.0
 11
26.51974532538762
 21
9.808284347278103
 31
0.0
  0
TEXT
  5
8C7E773A
330
8C7E6E89
100
AcDbEntity
  8
COMP
100
AcDbText
 10
26.62824532538763
 20
9.744784347278097
 30
0.0
 40
0.075
  1
Link
  7
ADESK1
 72
     4
 11
26.74074532538763
 21
9.782284347278096
 31
0.0
100
AcDbText
  0
ARC
  5
8C7E773B
330
8C7E6E89
100
AcDbEntity
  8
COMP
100
AcDbCircle
 10
26.03274532538762
 20
10.08728434727809
 30
0.0
 40
0.125
100
AcDbArc
 50
90.0
 51
180.0
  0
LINE
  5
8C7E773C
330
8C7E6E89
100
AcDbEntity
  8
COMP
100
AcDbLine
 10
26.60374532538761
 20
10.0172843472781
 30
0.0
 11
26.57574532538761
 21
9.989284347278104
 31
0.0
  0
LINE
  5
8C7E773D
330
8C7E6E89
100
AcDbEntity
  8
COMP
100
AcDbLine
 10
26.60374532538761
 20
9.905284347278104
 30
0.0
 11
26.57574532538761
 21
9.933284347278103
 31
0.0
  0
CIRCLE
  5
8C7E773E
330
8C7E6E89
100
AcDbEntity
  8
COMP
100
AcDbCircle
 10
26.54774532538762
 20
9.961284347278102
 30
0.0
 40
0.0390000000000015
  0
TEXT
  5
8C7E773F
330
8C7E6E89
100
AcDbEntity
  8
COMP
100
AcDbText
 10
26.49003103967334
 20
10.05378434727809
 30
0.0
 40
0.075
  1
Ethernet
  7
ADESK1
 72
     4
 11
26.72574532538763
 21
10.09128434727809
 31
0.0
100
AcDbText
  0
TEXT
  5
8C7E7740
330
8C7E6E89
100
AcDbEntity
  8
COMP
100
AcDbText
 10
25.9451738968162
 20
9.925784347278097
 30
0.0
 40
0.075
  1
RS-485
  7
ADESK1
 72
     4
 11
26.17374532538763
 21
9.963284347278097
 31
0.0
100
AcDbText
  0
TEXT
  5
8C7E7741
330
8C7E6E89
100
AcDbEntity
  8
COMP
100
AcDbText
 10
26.12631675395905
 20
10.06014149013525
 30
0.0
 40
0.075
  1
-
  7
ADESK1
 72
     4
 11
26.17274532538762
 21
10.0922843472781
 31
0.0
100
AcDbText
  0
TEXT
  5
8C7E7742
330
8C7E6E89
100
AcDbEntity
  8
COMP
100
AcDbText
 10
25.92831675395904
 20
10.06014149013525
 30
0.0
 40
0.075
  1
+
  7
ADESK1
 72
     4
 11
25.97474532538762
 21
10.0922843472781
 31
0.0
100
AcDbText
  0
LINE
  5
8C7E7743
330
8C7E6E89
100
AcDbEntity
  8
COMP
100
AcDbLine
 10
26.49174532538762
 20
10.0172843472781
 30
0.0
 11
26.51974532538762
 21
9.989284347278104
 31
0.0
  0
LINE
  5
8C7E7744
330
8C7E6E89
100
AcDbEntity
  8
COMP
100
AcDbLine
 10
26.49174532538762
 20
9.905284347278104
 30
0.0
 11
26.51974532538762
 21
9.933284347278103
 31
0.0
  0
TEXT
  5
8C7E7745
330
8C7E6E89
100
AcDbEntity
  8
COMP
100
AcDbText
 10
26.62853103967334
 20
9.925784347278097
 30
0.0
 40
0.075
  1
Lan
  7
ADESK1
 72
     4
 11
26.72674532538763
 21
9.963284347278097
 31
0.0
100
AcDbText
  0
TEXT
  5
8C7E7746
330
8C7E6E89
100
AcDbEntity
  8
COMP
100
AcDbText
 10
27.68770709529523
 20
8.546498632992385
 30
0.0
 40
0.075
  1
Discrete Outputs
 50
90.0
  7
ADESK1
 72
     4
 11
27.66270709529523
 21
9.023284347278099
 31
0.0
100
AcDbText
  0
TEXT
  5
8C7E7747
330
8C7E6E89
100
AcDbEntity
  8
COMP
100
AcDbText
 10
27.80953103967333
 20
8.884784347278097
 30
0.0
 40
0.075
  1
2B
  7
ADESK1
 72
     4
 11
27.88274532538762
 21
8.922284347278097
 31
0.0
100
AcDbText
  0
TEXT
  5
8C7E7748
330
8C7E6E89
100
AcDbEntity
  8
COMP
100
AcDbText
 10
27.81131675395904
 20
8.684784347278098
 30
0.0
 40
0.075
  1
2A
  7
ADESK1
 72
     4
 11
27.88274532538762
 21
8.722284347278097
 31
0.0
100
AcDbText
  0
TEXT
  5
8C7E7749
330
8C7E6E89
100
AcDbEntity
  8
COMP
100
AcDbText
 10
27.8059596111019
 20
8.284784347278096
 30
0.0
 40
0.075
  1
1A
  7
ADESK1
 72
     4
 11
27.88274532538762
 21
8.322284347278095
 31
0.0
100
AcDbText
  0
TEXT
  5
8C7E774A
330
8C7E6E89
100
AcDbEntity
  8
COMP
100
AcDbText
 10
27.80417389681619
 20
8.484784347278095
 30
0.0
 40
0.075
  1
1B
  7
ADESK1
 72
     4
 11
27.88274532538762
 21
8.522284347278095
 31
0.0
100
AcDbText
  0
LWPOLYLINE
  5
8C7E774B
330
8C7E6E89
100
AcDbEntity
  8
COMP
100
AcDbPolyline
 90
        3
 70
     0
 43
0.02
 10
27.66274532538762
 20
8.227284347278096
 10
27.66274532538762
 20
8.227284347278096
 10
27.66274532538762
 20
8.522284347278102
  0
LINE
  5
8C7E774C
330
8C7E6E89
100
AcDbEntity
  8
COMP
100
AcDbLine
 10
27.98074532538763
 20
8.522284347278095
 30
0.0
 11
28.20474532538764
 21
8.522284347278095
 31
0.0
  0
LINE
  5
8C7E774D
330
8C7E6E89
100
AcDbEntity
  8
COMP
100
AcDbLine
 10
27.94074532538763
 20
8.436284347278103
 30
0.0
 11
28.02074532538763
 21
8.436284347278103
 31
0.0
  0
LINE
  5
8C7E774E
330
8C7E6E89
100
AcDbEntity
  8
COMP
100
AcDbLine
 10
27.94074532538763
 20
8.408284347278105
 30
0.0
 11
28.02074532538763
 21
8.408284347278105
 31
0.0
  0
LINE
  5
8C7E774F
330
8C7E6E89
100
AcDbEntity
  8
COMP
100
AcDbLine
 10
27.98074532538763
 20
8.408284347278105
 30
0.0
 11
27.98074532538763
 21
8.322284347278106
 31
0.0
  0
CIRCLE
  5
8C7E7750
330
8C7E6E89
100
AcDbEntity
  8
COMP
100
AcDbCircle
 10
28.15374532538763
 20
8.422284347278097
 30
0.0
 40
0.0499999999999972
  0
LINE
  5
8C7E7751
330
8C7E6E89
100
AcDbEntity
  8
COMP
100
AcDbLine
 10
27.98074532538763
 20
8.322284347278106
 30
0.0
 11
28.20474532538764
 21
8.322284347278106
 31
0.0
  0
LINE
  5
8C7E7752
330
8C7E6E89
100
AcDbEntity
  8
COMP
100
AcDbLine
 10
27.98074532538763
 20
8.436284347278103
 30
0.0
 11
27.98074532538763
 21
8.522284347278095
 31
0.0
  0
LINE
  5
8C7E7753
330
8C7E6E89
100
AcDbEntity
  8
COMP
100
AcDbLine
 10
27.98074532538763
 20
8.836284347278102
 30
0.0
 11
27.98074532538763
 21
8.9222843472781
 31
0.0
  0
LINE
  5
8C7E7754
330
8C7E6E89
100
AcDbEntity
  8
COMP
100
AcDbLine
 10
27.94074532538763
 20
8.808284347278103
 30
0.0
 11
28.02074532538763
 21
8.808284347278103
 31
0.0
  0
LINE
  5
8C7E7755
330
8C7E6E89
100
AcDbEntity
  8
COMP
100
AcDbLine
 10
27.94074532538763
 20
8.836284347278102
 30
0.0
 11
28.02074532538763
 21
8.836284347278102
 31
0.0
  0
LINE
  5
8C7E7756
330
8C7E6E89
100
AcDbEntity
  8
COMP
100
AcDbLine
 10
27.98074532538763
 20
8.808284347278103
 30
0.0
 11
27.98074532538763
 21
8.722284347278097
 31
0.0
  0
CIRCLE
  5
8C7E7757
330
8C7E6E89
100
AcDbEntity
  8
COMP
100
AcDbCircle
 10
28.15374532538763
 20
8.822284347278095
 30
0.0
 40
0.0499999999999972
  0
LINE
  5
8C7E7758
330
8C7E6E89
100
AcDbEntity
  8
COMP
100
AcDbLine
 10
27.98074532538763
 20
8.722284347278097
 30
0.0
 11
28.20474532538764
 21
8.722284347278097
 31
0.0
  0
LINE
  5
8C7E7759
330
8C7E6E89
100
AcDbEntity
  8
COMP
100
AcDbLine
 10
27.98074532538763
 20
8.9222843472781
 30
0.0
 11
28.20474532538764
 21
8.9222843472781
 31
0.0
  0
TEXT
  5
8C7E775A
330
8C7E6E89
100
AcDbEntity
  8
COMP
100
AcDbText
 10
27.80953103967333
 20
9.684784347278098
 30
0.0
 40
0.075
  1
4B
  7
ADESK1
 72
     4
 11
27.88274532538762
 21
9.722284347278097
 31
0.0
100
AcDbText
  0
TEXT
  5
8C7E775B
330
8C7E6E89
100
AcDbEntity
  8
COMP
100
AcDbText
 10
27.81131675395904
 20
9.484784347278099
 30
0.0
 40
0.075
  1
4A
  7
ADESK1
 72
     4
 11
27.88274532538762
 21
9.522284347278098
 31
0.0
100
AcDbText
  0
TEXT
  5
8C7E775C
330
8C7E6E89
100
AcDbEntity
  8
COMP
100
AcDbText
 10
27.80953103967333
 20
9.284784347278096
 30
0.0
 40
0.075
  1
3B
  7
ADESK1
 72
     4
 11
27.88274532538762
 21
9.322284347278095
 31
0.0
100
AcDbText
  0
LWPOLYLINE
  5
8C7E775D
330
8C7E6E89
100
AcDbEntity
  8
COMP
100
AcDbPolyline
 90
        3
 70
     0
 43
0.02
 10
28.28774532538762
 20
9.852284347278096
 10
27.66274532538762
 20
9.852284347278096
 10
27.66274532538762
 20
9.525284347278102
  0
TEXT
  5
8C7E775E
330
8C7E6E89
100
AcDbEntity
  8
COMP
100
AcDbText
 10
27.81131675395904
 20
9.084784347278096
 30
0.0
 40
0.075
  1
3A
  7
ADESK1
 72
     4
 11
27.88274532538762
 21
9.122284347278096
 31
0.0
100
AcDbText
  0
LINE
  5
8C7E775F
330
8C7E6E89
100
AcDbEntity
  8
COMP
100
AcDbLine
 10
27.98074532538763
 20
9.208284347278102
 30
0.0
 11
27.98074532538763
 21
9.122284347278103
 31
0.0
  0
LINE
  5
8C7E7760
330
8C7E6E89
100
AcDbEntity
  8
COMP
100
AcDbLine
 10
27.94074532538763
 20
9.208284347278102
 30
0.0
 11
28.02074532538763
 21
9.208284347278102
 31
0.0
  0
LINE
  5
8C7E7761
330
8C7E6E89
100
AcDbEntity
  8
COMP
100
AcDbLine
 10
27.94074532538763
 20
9.2362843472781
 30
0.0
 11
28.02074532538763
 21
9.2362843472781
 31
0.0
  0
LINE
  5
8C7E7762
330
8C7E6E89
100
AcDbEntity
  8
COMP
100
AcDbLine
 10
27.98074532538763
 20
9.2362843472781
 30
0.0
 11
27.98074532538763
 21
9.322284347278092
 31
0.0
  0
CIRCLE
  5
8C7E7763
330
8C7E6E89
100
AcDbEntity
  8
COMP
100
AcDbCircle
 10
28.15374532538763
 20
9.222284347278097
 30
0.0
 40
0.0499999999999972
  0
LINE
  5
8C7E7764
330
8C7E6E89
100
AcDbEntity
  8
COMP
100
AcDbLine
 10
27.98074532538763
 20
9.122284347278103
 30
0.0
 11
28.20474532538764
 21
9.122284347278103
 31
0.0
  0
LINE
  5
8C7E7765
330
8C7E6E89
100
AcDbEntity
  8
COMP
100
AcDbLine
 10
27.98074532538763
 20
9.322284347278092
 30
0.0
 11
28.20474532538764
 21
9.322284347278092
 31
0.0
  0
LINE
  5
8C7E7766
330
8C7E6E89
100
AcDbEntity
  8
COMP
100
AcDbLine
 10
27.98074532538763
 20
9.722284347278097
 30
0.0
 11
28.20474532538764
 21
9.722284347278097
 31
0.0
  0
LINE
  5
8C7E7767
330
8C7E6E89
100
AcDbEntity
  8
COMP
100
AcDbLine
 10
27.94074532538763
 20
9.636284347278099
 30
0.0
 11
28.02074532538763
 21
9.636284347278099
 31
0.0
  0
LINE
  5
8C7E7768
330
8C7E6E89
100
AcDbEntity
  8
COMP
100
AcDbLine
 10
27.94074532538763
 20
9.6082843472781
 30
0.0
 11
28.02074532538763
 21
9.6082843472781
 31
0.0
  0
LINE
  5
8C7E7769
330
8C7E6E89
100
AcDbEntity
  8
COMP
100
AcDbLine
 10
27.98074532538763
 20
9.6082843472781
 30
0.0
 11
27.98074532538763
 21
9.522284347278095
 31
0.0
  0
LINE
  5
8C7E776A
330
8C7E6E89
100
AcDbEntity
  8
COMP
100
AcDbLine
 10
27.98074532538763
 20
9.522284347278095
 30
0.0
 11
28.20474532538764
 21
9.522284347278095
 31
0.0
  0
CIRCLE
  5
8C7E776B
330
8C7E6E89
100
AcDbEntity
  8
COMP
100
AcDbCircle
 10
28.15374532538763
 20
9.622284347278096
 30
0.0
 40
0.0499999999999972
  0
LINE
  5
8C7E776C
330
8C7E6E89
100
AcDbEntity
  8
COMP
100
AcDbLine
 10
27.98074532538763
 20
9.636284347278099
 30
0.0
 11
27.98074532538763
 21
9.722284347278097
 31
0.0
  0
LWPOLYLINE
  5
8C7E7774
330
8C7E6E89
100
AcDbEntity
  8
COMP
100
AcDbPolyline
 90
        2
 70
     0
 43
0.01
 10
25.38374532538763
 20
5.442284347278096
 42
1.001467154929656
 10
25.38374532538763
 20
5.319284347278097
  0
LWPOLYLINE
  5
8C7E7775
330
8C7E6E89
100
AcDbEntity
  8
COMP
100
AcDbPolyline
 90
        2
 70
     0
 43
0.01
 10
25.38374532538763
 20
5.319284347278097
 42
0.9364056350757419
 10
25.38374532538763
 20
5.442284347278096
  0
LWPOLYLINE
  5
8C7E7776
330
8C7E6E89
100
AcDbEntity
  8
COMP
100
AcDbPolyline
 90
        2
 70
     0
 43
0.01
 10
25.21374532538763
 20
5.319284347278097
 42
0.9364056350757419
 10
25.21374532538763
 20
5.442284347278096
  0
LWPOLYLINE
  5
8C7E7777
330
8C7E6E89
100
AcDbEntity
  8
COMP
100
AcDbPolyline
 90
        2
 70
     0
 43
0.01
 10
25.21374532538763
 20
5.442284347278096
 42
1.001467154929656
 10
25.21374532538763
 20
5.319284347278097
  0
LWPOLYLINE
  5
8C7E7778
330
8C7E6E89
100
AcDbEntity
  8
COMP
100
AcDbPolyline
 90
        2
 70
     0
 43
0.01
 10
25.04374532538763
 20
5.319284347278097
 42
0.9364056350757419
 10
25.04374532538763
 20
5.442284347278096
  0
LWPOLYLINE
  5
8C7E7779
330
8C7E6E89
100
AcDbEntity
  8
COMP
100
AcDbPolyline
 90
        2
 70
     0
 43
0.01
 10
25.04374532538763
 20
5.442284347278096
 42
1.001467154929656
 10
25.04374532538763
 20
5.319284347278097
  0
LWPOLYLINE
  5
8C7E777B
330
8C7E6E89
100
AcDbEntity
  8
COMP
100
AcDbPolyline
 90
        2
 70
     0
 43
0.01
 10
25.04374532538763
 20
5.277284347278096
 42
1.001467154929656
 10
25.04374532538763
 20
5.154284347278097
  0
LWPOLYLINE
  5
8C7E777C
330
8C7E6E89
100
AcDbEntity
  8
COMP
100
AcDbPolyline
 90
        2
 70
     0
 43
0.01
 10
25.55374532538763
 20
5.277284347278096
 42
1.001467154929656
 10
25.55374532538763
 20
5.154284347278097
  0
LWPOLYLINE
  5
8C7E777D
330
8C7E6E89
100
AcDbEntity
  8
COMP
100
AcDbPolyline
 90
        2
 70
     0
 43
0.01
 10
25.55374532538763
 20
5.154284347278097
 42
0.9364056350757419
 10
25.55374532538763
 20
5.277284347278096
  0
LWPOLYLINE
  5
8C7E777E
330
8C7E6E89
100
AcDbEntity
  8
COMP
100
AcDbPolyline
 90
        2
 70
     0
 43
0.01
 10
25.04374532538763
 20
5.154284347278097
 42
0.9364056350757419
 10
25.04374532538763
 20
5.277284347278096
  0
LWPOLYLINE
  5
8C7E777F
330
8C7E6E89
100
AcDbEntity
  8
COMP
100
AcDbPolyline
 90
        2
 70
     0
 43
0.01
 10
25.21374532538763
 20
5.277284347278096
 42
1.001467154929656
 10
25.21374532538763
 20
5.154284347278097
  0
LWPOLYLINE
  5
8C7E7780
330
8C7E6E89
100
AcDbEntity
  8
COMP
100
AcDbPolyline
 90
        2
 70
     0
 43
0.01
 10
25.21374532538763
 20
5.154284347278097
 42
0.9364056350757419
 10
25.21374532538763
 20
5.277284347278096
  0
LWPOLYLINE
  5
8C7E7781
330
8C7E6E89
100
AcDbEntity
  8
COMP
100
AcDbPolyline
 90
        2
 70
     0
 43
0.01
 10
25.38374532538763
 20
5.154284347278097
 42
0.9364056350757419
 10
25.38374532538763
 20
5.277284347278096
  0
LWPOLYLINE
  5
8C7E7782
330
8C7E6E89
100
AcDbEntity
  8
COMP
100
AcDbPolyline
 90
        2
 70
     0
 43
0.01
 10
25.38374532538763
 20
5.277284347278096
 42
1.001467154929656
 10
25.38374532538763
 20
5.154284347278097
  0
LINE
  5
8C7E7783
330
8C7E6E89
100
AcDbEntity
  8
COMP
100
AcDbLine
 10
28.28774532538762
 20
5.512284347278097
 30
0.0
 11
28.02974532538762
 21
5.512284347278097
 31
0.0
  0
CIRCLE
  5
8C7E7785
330
8C7E6E89
100
AcDbEntity
  8
LABEL
100
AcDbCircle
 10
23.14274532538762
 20
5.962284347278085
 30
0.0
 40
0.0610000000000106
  0
CIRCLE
  5
8C7E7786
330
8C7E6E89
100
AcDbEntity
  8
LABEL
100
AcDbCircle
 10
23.14274532538762
 20
5.762284347278082
 30
0.0
 40
0.0610000000000106
  0
LINE
  5
8C7E7787
330
8C7E6E89
100
AcDbEntity
  8
LABEL
100
AcDbLine
 10
23.20174532538762
 20
5.750284347278076
 30
0.0
 11
23.08274532538761
 21
5.750284347278076
 31
0.0
  0
LINE
  5
8C7E7788
330
8C7E6E89
100
AcDbEntity
  8
LABEL
100
AcDbLine
 10
23.20174532538762
 20
5.974284347278079
 30
0.0
 11
23.08274532538761
 21
5.974284347278079
 31
0.0
  0
LINE
  5
8C7E7789
330
8C7E6E89
100
AcDbEntity
  8
LABEL
100
AcDbLine
 10
23.20174532538762
 20
5.950284347278079
 30
0.0
 11
23.08274532538761
 21
5.950284347278079
 31
0.0
  0
LINE
  5
8C7E778A
330
8C7E6E89
100
AcDbEntity
  8
LABEL
100
AcDbLine
 10
23.20174532538762
 20
5.774284347278077
 30
0.0
 11
23.08274532538761
 21
5.774284347278077
 31
0.0
  0
CIRCLE
  5
8C7E778B
330
8C7E6E89
100
AcDbEntity
  8
LABEL
100
AcDbCircle
 10
23.14274532538762
 20
6.362284347278084
 30
0.0
 40
0.0610000000000106
  0
CIRCLE
  5
8C7E778C
330
8C7E6E89
100
AcDbEntity
  8
LABEL
100
AcDbCircle
 10
23.14274532538762
 20
6.162284347278088
 30
0.0
 40
0.0610000000000106
  0
LINE
  5
8C7E778D
330
8C7E6E89
100
AcDbEntity
  8
LABEL
100
AcDbLine
 10
23.20174532538762
 20
6.174284347278082
 30
0.0
 11
23.08274532538761
 21
6.174284347278082
 31
0.0
  0
LINE
  5
8C7E778E
330
8C7E6E89
100
AcDbEntity
  8
LABEL
100
AcDbLine
 10
23.20174532538762
 20
6.150284347278081
 30
0.0
 11
23.08274532538761
 21
6.150284347278081
 31
0.0
  0
LINE
  5
8C7E778F
330
8C7E6E89
100
AcDbEntity
  8
LABEL
100
AcDbLine
 10
23.20174532538762
 20
6.374284347278071
 30
0.0
 11
23.08274532538761
 21
6.374284347278071
 31
0.0
  0
LINE
  5
8C7E7790
330
8C7E6E89
100
AcDbEntity
  8
LABEL
100
AcDbLine
 10
23.20174532538762
 20
6.35028434727807
 30
0.0
 11
23.08274532538761
 21
6.35028434727807
 31
0.0
  0
CIRCLE
  5
8C7E7791
330
8C7E6E89
100
AcDbEntity
  8
LABEL
100
AcDbCircle
 10
23.14274532538762
 20
6.562284347278087
 30
0.0
 40
0.0610000000000106
  0
LINE
  5
8C7E7792
330
8C7E6E89
100
AcDbEntity
  8
LABEL
100
AcDbLine
 10
23.20174532538762
 20
6.574284347278074
 30
0.0
 11
23.08274532538761
 21
6.574284347278074
 31
0.0
  0
LINE
  5
8C7E7793
330
8C7E6E89
100
AcDbEntity
  8
LABEL
100
AcDbLine
 10
23.20174532538762
 20
6.550284347278073
 30
0.0
 11
23.08274532538761
 21
6.550284347278073
 31
0.0
  0
LINE
  5
8C7E7794
330
8C7E6E89
100
AcDbEntity
  8
LABEL
100
AcDbLine
 10
23.20174532538762
 20
6.774284347278077
 30
0.0
 11
23.08274532538761
 21
6.774284347278077
 31
0.0
  0
LINE
  5
8C7E7795
330
8C7E6E89
100
AcDbEntity
  8
LABEL
100
AcDbLine
 10
23.20174532538762
 20
6.750284347278076
 30
0.0
 11
23.08274532538761
 21
6.750284347278076
 31
0.0
  0
CIRCLE
  5
8C7E7796
330
8C7E6E89
100
AcDbEntity
  8
LABEL
100
AcDbCircle
 10
23.14274532538762
 20
6.76228434727809
 30
0.0
 40
0.0610000000000106
  0
LINE
  5
8C7E7798
330
8C7E6E89
100
AcDbEntity
  8
LABEL
100
AcDbLine
 10
23.20174532538762
 20
7.550284347278095
 30
0.0
 11
23.08274532538761
 21
7.550284347278095
 31
0.0
  0
LINE
  5
8C7E7799
330
8C7E6E89
100
AcDbEntity
  8
LABEL
100
AcDbLine
 10
23.20174532538762
 20
7.574284347278096
 30
0.0
 11
23.08274532538761
 21
7.574284347278096
 31
0.0
  0
CIRCLE
  5
8C7E779A
330
8C7E6E89
100
AcDbEntity
  8
LABEL
100
AcDbCircle
 10
23.14274532538762
 20
7.562284347278102
 30
0.0
 40
0.0610000000000106
  0
CIRCLE
  5
8C7E779B
330
8C7E6E89
100
AcDbEntity
  8
LABEL
100
AcDbCircle
 10
23.14274532538762
 20
9.762284347278095
 30
0.0
 40
0.0610000000000106
  0
LINE
  5
8C7E779C
330
8C7E6E89
100
AcDbEntity
  8
LABEL
100
AcDbLine
 10
23.20174532538762
 20
9.750284347278089
 30
0.0
 11
23.08274532538761
 21
9.750284347278089
 31
0.0
  0
LINE
  5
8C7E779D
330
8C7E6E89
100
AcDbEntity
  8
LABEL
100
AcDbLine
 10
23.20174532538762
 20
9.77428434727809
 30
0.0
 11
23.08274532538761
 21
9.77428434727809
 31
0.0
  0
ENDSEC
  0
SECTION
  2
OBJECTS
  0
DICTIONARY
  5
8C7E6E77
330
0
100
AcDbDictionary
  3
ACAD_GROUP
350
8C7E6E78
  3
ACAD_LAYOUT
350
8C7E6E84
  3
ACAD_MLINESTYLE
350
8C7E6E81
  3
ACAD_PLOTSETTINGS
350
8C7E6E83
  3
ACAD_PLOTSTYLENAME
350
8C7E6E79
  3
ACDBHEADERROUNDTRIPXREC
350
8C7E77A3
  3
DWGPROPS
350
8C7E7341
  0
DICTIONARY
  5
8C7E77C6
330
8C7E6E89
100
AcDbDictionary
280
     1
  3
ACAD_LAYOUTSELFREF
360
8C7E77C7
  0
DICTIONARY
  5
8C7E77C4
330
8C7E6E85
100
AcDbDictionary
280
     1
  3
ACAD_LAYOUTSELFREF
360
8C7E77C5
  0
DICTIONARY
  5
8C7E6E78
102
{ACAD_REACTORS
330
8C7E6E77
102
}
330
8C7E6E77
100
AcDbDictionary
  0
DICTIONARY
  5
8C7E6E84
102
{ACAD_REACTORS
330
8C7E6E77
102
}
330
8C7E6E77
100
AcDbDictionary
  0
DICTIONARY
  5
8C7E6E81
102
{ACAD_REACTORS
330
8C7E6E77
102
}
330
8C7E6E77
100
AcDbDictionary
  3
STANDARD
350
8C7E6E82
  0
DICTIONARY
  5
8C7E6E83
102
{ACAD_REACTORS
330
8C7E6E77
102
}
330
8C7E6E77
100
AcDbDictionary
  0
ACDBDICTIONARYWDFLT
  5
8C7E6E79
102
{ACAD_REACTORS
330
8C7E6E77
102
}
330
8C7E6E77
100
AcDbDictionary
281
     1
  3
Normal
350
8C7E6E7A
100
AcDbDictionaryWithDefault
340
8C7E6E7A
  0
DICTIONARY
  5
8C7E77A3
102
{ACAD_REACTORS
330
8C7E6E77
102
}
330
8C7E6E77
100
AcDbDictionary
  3
CEPSNTYPE
350
8C7E77AD
  3
DIMSTYLEDATA
350
8C7E77B1
  3
FINGERPRINTGUID
350
8C7E77AE
  3
HYPERLINKBASE
350
8C7E77A6
  3
INSUNITS
350
8C7E77AC
  3
LAYOUTDICT
350
8C7E77A8
  3
LWETCUNION
350
8C7E77AB
  3
PLOTSETDICT
350
8C7E77A9
  3
PLOTSTYLNAMDICT
350
8C7E77AA
  3
PSVPSCALE
350
8C7E77B0
  3
PUCSBASE
350
8C7E77B4
  3
PUCSORGBACK
350
8C7E77BA
  3
PUCSORGBOTTOM
350
8C7E77B6
  3
PUCSORGFRONT
350
8C7E77B9
  3
PUCSORGLEFT
350
8C7E77B7
  3
PUCSORGRIGHT
350
8C7E77B8
  3
PUCSORGTOP
350
8C7E77B5
  3
PUCSORTHOREF
350
8C7E77B2
  3
PUCSORTHOVIEW
350
8C7E77B3
  3
STYLESHEET
350
8C7E77A7
  3
TSTACKALIGN
350
8C7E77A4
  3
TSTACKSIZE
350
8C7E77A5
  3
UCSBASE
350
8C7E77BD
  3
UCSORGBACK
350
8C7E77C3
  3
UCSORGBOTTOM
350
8C7E77BF
  3
UCSORGFRONT
350
8C7E77C2
  3
UCSORGLEFT
350
8C7E77C0
  3
UCSORGRIGHT
350
8C7E77C1
  3
UCSORGTOP
350
8C7E77BE
  3
UCSORTHOREF
350
8C7E77BB
  3
UCSORTHOVIEW
350
8C7E77BC
  3
VERSIONGUID
350
8C7E77AF
  0
XRECORD
  5
8C7E7341
102
{ACAD_REACTORS
330
8C7E6E77
102
}
330
8C7E6E77
100
AcDbXrecord
  1
DWGPROPS COOKIE
  2

  3

  4

  6

  7

  8
tphillipsmain
  9

300
=
301
=
302
=
303
=
304
=
305
=
306
=
307
=
308
=
309
=
 40
0.5670770486111111
 41
2452671.661945139
 42
2453578.632480081
  1

 90
        0
  0
XRECORD
  5
8C7E77C7
102
{ACAD_REACTORS
330
8C7E77C6
102
}
330
8C7E77C6
100
AcDbXrecord
340
8C7E6E89
  0
XRECORD
  5
8C7E77C5
102
{ACAD_REACTORS
330
8C7E77C4
102
}
330
8C7E77C4
100
AcDbXrecord
340
8C7E6E85
  0
MLINESTYLE
  5
8C7E6E82
102
{ACAD_REACTORS
330
8C7E6E81
102
}
330
8C7E6E81
100
AcDbMlineStyle
  2
STANDARD
 70
     0
  3

 62
   256
 51
90.0
 52
90.0
 71
     2
 49
0.5
 62
   256
  6
BYLAYER
 49
-0.5
 62
   256
  6
BYLAYER
  0
ACDBPLACEHOLDER
  5
8C7E6E7A
102
{ACAD_REACTORS
330
8C7E6E79
102
}
330
8C7E6E79
100
AcDbPlaceHolder
280
     0
  0
XRECORD
  5
8C7E77AD
102
{ACAD_REACTORS
330
8C7E77A3
102
}
330
8C7E77A3
100
AcDbXrecord
 90
        0
  0
XRECORD
  5
8C7E77B1
102
{ACAD_REACTORS
330
8C7E77A3
102
}
330
8C7E77A3
100
AcDbXrecord
1000
DSTYLE
1002
{
1070
   279
 70
     2
1002
}
  0
XRECORD
  5
8C7E77AE
102
{ACAD_REACTORS
330
8C7E77A3
102
}
330
8C7E77A3
100
AcDbXrecord
  1
{6710450A-5B7B-4F15-808B-202C47248040}
  0
XRECORD
  5
8C7E77A6
102
{ACAD_REACTORS
330
8C7E77A3
102
}
330
8C7E77A3
100
AcDbXrecord
  1

  0
XRECORD
  5
8C7E77AC
102
{ACAD_REACTORS
330
8C7E77A3
102
}
330
8C7E77A3
100
AcDbXrecord
 90
        0
  0
XRECORD
  5
8C7E77A8
102
{ACAD_REACTORS
330
8C7E77A3
102
}
330
8C7E77A3
100
AcDbXrecord
340
8C7E6E84
  0
XRECORD
  5
8C7E77AB
102
{ACAD_REACTORS
330
8C7E77A3
102
}
330
8C7E77A3
100
AcDbXrecord
 90
    14877
  0
XRECORD
  5
8C7E77A9
102
{ACAD_REACTORS
330
8C7E77A3
102
}
330
8C7E77A3
100
AcDbXrecord
340
8C7E6E83
  0
XRECORD
  5
8C7E77AA
102
{ACAD_REACTORS
330
8C7E77A3
102
}
330
8C7E77A3
100
AcDbXrecord
340
8C7E6E79
  0
XRECORD
  5
8C7E77B0
102
{ACAD_REACTORS
330
8C7E77A3
102
}
330
8C7E77A3
100
AcDbXrecord
 40
0.0
  0
XRECORD
  5
8C7E77B4
102
{ACAD_REACTORS
330
8C7E77A3
102
}
330
8C7E77A3
100
AcDbXrecord
340
0
  0
XRECORD
  5
8C7E77BA
102
{ACAD_REACTORS
330
8C7E77A3
102
}
330
8C7E77A3
100
AcDbXrecord
 10
0.0
 20
0.0
 30
0.0
  0
XRECORD
  5
8C7E77B6
102
{ACAD_REACTORS
330
8C7E77A3
102
}
330
8C7E77A3
100
AcDbXrecord
 10
0.0
 20
0.0
 30
0.0
  0
XRECORD
  5
8C7E77B9
102
{ACAD_REACTORS
330
8C7E77A3
102
}
330
8C7E77A3
100
AcDbXrecord
 10
0.0
 20
0.0
 30
0.0
  0
XRECORD
  5
8C7E77B7
102
{ACAD_REACTORS
330
8C7E77A3
102
}
330
8C7E77A3
100
AcDbXrecord
 10
0.0
 20
0.0
 30
0.0
  0
XRECORD
  5
8C7E77B8
102
{ACAD_REACTORS
330
8C7E77A3
102
}
330
8C7E77A3
100
AcDbXrecord
 10
0.0
 20
0.0
 30
0.0
  0
XRECORD
  5
8C7E77B5
102
{ACAD_REACTORS
330
8C7E77A3
102
}
330
8C7E77A3
100
AcDbXrecord
 10
0.0
 20
0.0
 30
0.0
  0
XRECORD
  5
8C7E77B2
102
{ACAD_REACTORS
330
8C7E77A3
102
}
330
8C7E77A3
100
AcDbXrecord
340
0
  0
XRECORD
  5
8C7E77B3
102
{ACAD_REACTORS
330
8C7E77A3
102
}
330
8C7E77A3
100
AcDbXrecord
 70
     0
  0
XRECORD
  5
8C7E77A7
102
{ACAD_REACTORS
330
8C7E77A3
102
}
330
8C7E77A3
100
AcDbXrecord
  1

  0
XRECORD
  5
8C7E77A4
102
{ACAD_REACTORS
330
8C7E77A3
102
}
330
8C7E77A3
100
AcDbXrecord
 90
        1
  0
XRECORD
  5
8C7E77A5
102
{ACAD_REACTORS
330
8C7E77A3
102
}
330
8C7E77A3
100
AcDbXrecord
 90
       70
  0
XRECORD
  5
8C7E77BD
102
{ACAD_REACTORS
330
8C7E77A3
102
}
330
8C7E77A3
100
AcDbXrecord
340
0
  0
XRECORD
  5
8C7E77C3
102
{ACAD_REACTORS
330
8C7E77A3
102
}
330
8C7E77A3
100
AcDbXrecord
 10
0.0
 20
0.0
 30
0.0
  0
XRECORD
  5
8C7E77BF
102
{ACAD_REACTORS
330
8C7E77A3
102
}
330
8C7E77A3
100
AcDbXrecord
 10
0.0
 20
0.0
 30
0.0
  0
XRECORD
  5
8C7E77C2
102
{ACAD_REACTORS
330
8C7E77A3
102
}
330
8C7E77A3
100
AcDbXrecord
 10
0.0
 20
0.0
 30
0.0
  0
XRECORD
  5
8C7E77C0
102
{ACAD_REACTORS
330
8C7E77A3
102
}
330
8C7E77A3
100
AcDbXrecord
 10
0.0
 20
0.0
 30
0.0
  0
XRECORD
  5
8C7E77C1
102
{ACAD_REACTORS
330
8C7E77A3
102
}
330
8C7E77A3
100
AcDbXrecord
 10
0.0
 20
0.0
 30
0.0
  0
XRECORD
  5
8C7E77BE
102
{ACAD_REACTORS
330
8C7E77A3
102
}
330
8C7E77A3
100
AcDbXrecord
 10
0.0
 20
0.0
 30
0.0
  0
XRECORD
  5
8C7E77BB
102
{ACAD_REACTORS
330
8C7E77A3
102
}
330
8C7E77A3
100
AcDbXrecord
340
0
  0
XRECORD
  5
8C7E77BC
102
{ACAD_REACTORS
330
8C7E77A3
102
}
330
8C7E77A3
100
AcDbXrecord
 70
     0
  0
XRECORD
  5
8C7E77AF
102
{ACAD_REACTORS
330
8C7E77A3
102
}
330
8C7E77A3
100
AcDbXrecord
  1
{EAADAB4D-0CFB-4839-B8C3-7957CD063E74}
  0
ENDSEC
  0
EOF
